  0
SECTION
  2
HEADER
  9
$ACADVER
  1
AC1018
  9
$ACADMAINTVER
 70
     0
  9
$DWGCODEPAGE
  3
ANSI_1252
  9
$INSBASE
 10
0.0
 20
0.0
 30
0.0
  9
$EXTMIN
 10
-2.22859164274869
 20
-1.000444758475787
 30
0.0000000000125
  9
$EXTMAX
 10
1.882018743246611
 20
1.002564313103967
 30
-0.0000000000125
  9
$LIMMIN
 10
0.0
 20
0.0
  9
$LIMMAX
 10
12.0
 20
9.0
  9
$ORTHOMODE
 70
     0
  9
$REGENMODE
 70
     1
  9
$FILLMODE
 70
     1
  9
$QTEXTMODE
 70
     0
  9
$MIRRTEXT
 70
     1
  9
$LTSCALE
 40
1.0
  9
$ATTMODE
 70
     1
  9
$TEXTSIZE
 40
0.2
  9
$TRACEWID
 40
0.05
  9
$TEXTSTYLE
  7
Simplex
  9
$CLAYER
  8
0
  9
$CELTYPE
  6
ByLayer
  9
$CECOLOR
 62
   256
  9
$CELTSCALE
 40
1.0
  9
$DISPSILH
 70
     0
  9
$DIMSCALE
 40
1.0
  9
$DIMASZ
 40
0.18
  9
$DIMEXO
 40
0.0625
  9
$DIMDLI
 40
0.38
  9
$DIMRND
 40
0.0
  9
$DIMDLE
 40
0.0
  9
$DIMEXE
 40
0.18
  9
$DIMTP
 40
0.0
  9
$DIMTM
 40
0.0
  9
$DIMTXT
 40
0.18
  9
$DIMCEN
 40
0.09
  9
$DIMTSZ
 40
0.0
  9
$DIMTOL
 70
     0
  9
$DIMLIM
 70
     0
  9
$DIMTIH
 70
     1
  9
$DIMTOH
 70
     1
  9
$DIMSE1
 70
     0
  9
$DIMSE2
 70
     0
  9
$DIMTAD
 70
     0
  9
$DIMZIN
 70
     0
  9
$DIMBLK
  1

  9
$DIMASO
 70
     1
  9
$DIMSHO
 70
     1
  9
$DIMPOST
  1

  9
$DIMAPOST
  1

  9
$DIMALT
 70
     0
  9
$DIMALTD
 70
     2
  9
$DIMALTF
 40
25.4
  9
$DIMLFAC
 40
1.0
  9
$DIMTOFL
 70
     0
  9
$DIMTVP
 40
0.0
  9
$DIMTIX
 70
     0
  9
$DIMSOXD
 70
     0
  9
$DIMSAH
 70
     0
  9
$DIMBLK1
  1

  9
$DIMBLK2
  1

  9
$DIMSTYLE
  2
Standard
  9
$DIMCLRD
 70
     0
  9
$DIMCLRE
 70
     0
  9
$DIMCLRT
 70
     0
  9
$DIMTFAC
 40
1.0
  9
$DIMGAP
 40
0.09
  9
$DIMJUST
 70
     0
  9
$DIMSD1
 70
     0
  9
$DIMSD2
 70
     0
  9
$DIMTOLJ
 70
     1
  9
$DIMTZIN
 70
     0
  9
$DIMALTZ
 70
     0
  9
$DIMALTTZ
 70
     0
  9
$DIMUPT
 70
     0
  9
$DIMDEC
 70
     4
  9
$DIMTDEC
 70
     4
  9
$DIMALTU
 70
     2
  9
$DIMALTTD
 70
     2
  9
$DIMTXSTY
  7
Standard
  9
$DIMAUNIT
 70
     0
  9
$DIMADEC
 70
     0
  9
$DIMALTRND
 40
0.0
  9
$DIMAZIN
 70
     0
  9
$DIMDSEP
 70
    46
  9
$DIMATFIT
 70
     3
  9
$DIMFRAC
 70
     0
  9
$DIMLDRBLK
  1

  9
$DIMLUNIT
 70
     2
  9
$DIMLWD
 70
    -2
  9
$DIMLWE
 70
    -2
  9
$DIMTMOVE
 70
     0
  9
$LUNITS
 70
     2
  9
$LUPREC
 70
     4
  9
$SKETCHINC
 40
0.1
  9
$FILLETRAD
 40
0.5
  9
$AUNITS
 70
     0
  9
$AUPREC
 70
     0
  9
$MENU
  1
.
  9
$ELEVATION
 40
0.0
  9
$PELEVATION
 40
0.0
  9
$THICKNESS
 40
0.0
  9
$LIMCHECK
 70
     0
  9
$CHAMFERA
 40
0.5
  9
$CHAMFERB
 40
0.5
  9
$CHAMFERC
 40
1.0
  9
$CHAMFERD
 40
0.0
  9
$SKPOLY
 70
     0
  9
$TDCREATE
 40
2452380.939152083
  9
$TDUCREATE
 40
2452380.897485417
  9
$TDUPDATE
 40
2457426.770501215
  9
$TDUUPDATE
 40
2457426.728834548
  9
$TDINDWG
 40
0.0040921296
  9
$TDUSRTIMER
 40
0.0040921296
  9
$USRTIMER
 70
     1
  9
$ANGBASE
 50
0.0
  9
$ANGDIR
 70
     0
  9
$PDMODE
 70
     0
  9
$PDSIZE
 40
0.0
  9
$PLINEWID
 40
0.0
  9
$SPLFRAME
 70
     0
  9
$SPLINETYPE
 70
     6
  9
$SPLINESEGS
 70
     8
  9
$HANDSEED
  5
522
  9
$SURFTAB1
 70
     6
  9
$SURFTAB2
 70
     6
  9
$SURFTYPE
 70
     6
  9
$SURFU
 70
     6
  9
$SURFV
 70
     6
  9
$UCSBASE
  2

  9
$UCSNAME
  2

  9
$UCSORG
 10
0.0
 20
0.0
 30
0.0
  9
$UCSXDIR
 10
1.0
 20
0.0
 30
0.0
  9
$UCSYDIR
 10
0.0
 20
1.0
 30
0.0
  9
$UCSORTHOREF
  2

  9
$UCSORTHOVIEW
 70
     0
  9
$UCSORGTOP
 10
0.0
 20
0.0
 30
0.0
  9
$UCSORGBOTTOM
 10
0.0
 20
0.0
 30
0.0
  9
$UCSORGLEFT
 10
0.0
 20
0.0
 30
0.0
  9
$UCSORGRIGHT
 10
0.0
 20
0.0
 30
0.0
  9
$UCSORGFRONT
 10
0.0
 20
0.0
 30
0.0
  9
$UCSORGBACK
 10
0.0
 20
0.0
 30
0.0
  9
$PUCSBASE
  2

  9
$PUCSNAME
  2

  9
$PUCSORG
 10
0.0
 20
0.0
 30
0.0
  9
$PUCSXDIR
 10
1.0
 20
0.0
 30
0.0
  9
$PUCSYDIR
 10
0.0
 20
1.0
 30
0.0
  9
$PUCSORTHOREF
  2

  9
$PUCSORTHOVIEW
 70
     0
  9
$PUCSORGTOP
 10
0.0
 20
0.0
 30
0.0
  9
$PUCSORGBOTTOM
 10
0.0
 20
0.0
 30
0.0
  9
$PUCSORGLEFT
 10
0.0
 20
0.0
 30
0.0
  9
$PUCSORGRIGHT
 10
0.0
 20
0.0
 30
0.0
  9
$PUCSORGFRONT
 10
0.0
 20
0.0
 30
0.0
  9
$PUCSORGBACK
 10
0.0
 20
0.0
 30
0.0
  9
$USERI1
 70
     0
  9
$USERI2
 70
     0
  9
$USERI3
 70
     0
  9
$USERI4
 70
     0
  9
$USERI5
 70
     0
  9
$USERR1
 40
0.0
  9
$USERR2
 40
0.0
  9
$USERR3
 40
0.0
  9
$USERR4
 40
0.0
  9
$USERR5
 40
0.0
  9
$WORLDVIEW
 70
     1
  9
$SHADEDGE
 70
     3
  9
$SHADEDIF
 70
    70
  9
$TILEMODE
 70
     1
  9
$MAXACTVP
 70
    64
  9
$PINSBASE
 10
0.0
 20
0.0
 30
0.0
  9
$PLIMCHECK
 70
     0
  9
$PEXTMIN
 10
1.000000000000000E+20
 20
1.000000000000000E+20
 30
1.000000000000000E+20
  9
$PEXTMAX
 10
-1.000000000000000E+20
 20
-1.000000000000000E+20
 30
-1.000000000000000E+20
  9
$PLIMMIN
 10
0.0
 20
0.0
  9
$PLIMMAX
 10
12.0
 20
9.0
  9
$UNITMODE
 70
     0
  9
$VISRETAIN
 70
     1
  9
$PLINEGEN
 70
     0
  9
$PSLTSCALE
 70
     1
  9
$TREEDEPTH
 70
  3020
  9
$CMLSTYLE
  2
Standard
  9
$CMLJUST
 70
     0
  9
$CMLSCALE
 40
1.0
  9
$PROXYGRAPHICS
 70
     1
  9
$MEASUREMENT
 70
     0
  9
$CELWEIGHT
370
    -1
  9
$ENDCAPS
280
     0
  9
$JOINSTYLE
280
     0
  9
$LWDISPLAY
290
     1
  9
$INSUNITS
 70
     4
  9
$HYPERLINKBASE
  1

  9
$STYLESHEET
  1

  9
$XEDIT
290
     1
  9
$CEPSNTYPE
380
     0
  9
$PSTYLEMODE
290
     1
  9
$FINGERPRINTGUID
  2
{2DA8D5D2-0A6F-4433-BE9F-7C818D36D6ED}
  9
$VERSIONGUID
  2
{A098EE71-2063-4C44-BF23-3920F6FD3DB3}
  9
$EXTNAMES
290
     1
  9
$PSVPSCALE
 40
0.0
  9
$OLESTARTUP
290
     0
  9
$SORTENTS
280
   127
  9
$INDEXCTL
280
     0
  9
$HIDETEXT
280
     1
  9
$XCLIPFRAME
290
     0
  9
$HALOGAP
280
     0
  9
$OBSCOLOR
 70
   257
  9
$OBSLTYPE
280
     0
  9
$INTERSECTIONDISPLAY
280
     0
  9
$INTERSECTIONCOLOR
 70
   257
  9
$DIMASSOC
280
     1
  9
$PROJECTNAME
  1

  0
ENDSEC
  0
SECTION
  2
CLASSES
  0
CLASS
  1
ACDBDICTIONARYWDFLT
  2
AcDbDictionaryWithDefault
  3
ObjectDBX Classes
 90
        0
 91
        4
280
     0
281
     0
  0
CLASS
  1
ACDBPLACEHOLDER
  2
AcDbPlaceHolder
  3
ObjectDBX Classes
 90
        0
 91
        1
280
     0
281
     0
  0
CLASS
  1
LAYOUT
  2
AcDbLayout
  3
ObjectDBX Classes
 90
        0
 91
        1
280
     0
281
     0
  0
CLASS
  1
DICTIONARYVAR
  2
AcDbDictionaryVar
  3
ObjectDBX Classes
 90
        0
 91
        4
280
     0
281
     0
  0
CLASS
  1
VISUALSTYLE
  2
AcDbVisualStyle
  3
ObjectDBX Classes
 90
     4095
 91
        4
280
     0
281
     0
  0
CLASS
  1
SCALE
  2
AcDbScale
  3
ObjectDBX Classes
 90
     1153
 91
        4
280
     0
281
     0
  0
CLASS
  1
MATERIAL
  2
AcDbMaterial
  3
ObjectDBX Classes
 90
     1153
 91
        4
280
     0
281
     0
  0
CLASS
  1
RASTERVARIABLES
  2
AcDbRasterVariables
  3
ISM
 90
        0
 91
        4
280
     0
281
     0
  0
CLASS
  1
SUN
  2
AcDbSun
  3
SCENEOE
 90
     1153
 91
        4
280
     0
281
     0
  0
ENDSEC
  0
SECTION
  2
TABLES
  0
TABLE
  2
VPORT
  5
8
102
{ACAD_XDICTIONARY
360
4E4
102
}
330
0
100
AcDbSymbolTable
 70
     2
  0
VPORT
  5
55
330
8
100
AcDbSymbolTableRecord
100
AcDbViewportTableRecord
  2
*Active
 70
     0
 10
0.0
 20
0.0
 11
1.0
 21
1.0
 12
0.0
 22
0.0
 13
0.0
 23
0.0
 14
0.5
 24
0.5
 15
0.5
 25
0.5
 16
0.0
 26
0.0
 36
1.0
 17
24.01316772118009
 27
35.32414222458939
 37
0.0
 40
2.20330997873773
 41
2.052217558232672
 42
50.0
 43
0.0
 44
0.0
 50
0.0
 51
0.0
 71
     8
 72
   100
 73
     1
 74
     3
 75
     0
 76
     0
 77
     0
 78
     0
281
     0
 65
     1
110
0.0
120
0.0
130
0.0
111
1.0
121
0.0
131
0.0
112
0.0
122
1.0
132
0.0
 79
     0
146
0.0
  0
ENDTAB
  0
TABLE
  2
LTYPE
  5
5
330
0
100
AcDbSymbolTable
 70
    25
  0
LTYPE
  5
14
330
5
100
AcDbSymbolTableRecord
100
AcDbLinetypeTableRecord
  2
ByBlock
 70
     0
  3

 72
    65
 73
     0
 40
0.0
  0
LTYPE
  5
15
330
5
100
AcDbSymbolTableRecord
100
AcDbLinetypeTableRecord
  2
ByLayer
 70
     0
  3

 72
    65
 73
     0
 40
0.0
  0
LTYPE
  5
16
330
5
100
AcDbSymbolTableRecord
100
AcDbLinetypeTableRecord
  2
Continuous
 70
     0
  3
Solid line
 72
    65
 73
     0
 40
0.0
  0
LTYPE
  5
2D
330
5
100
AcDbSymbolTableRecord
100
AcDbLinetypeTableRecord
  2
BORDER
 70
     0
  3
Border __ __ . __ __ . __ __ . __ __ . __ __ .
 72
    65
 73
     6
 40
1.75
 49
0.5
 74
     0
 49
-0.25
 74
     0
 49
0.5
 74
     0
 49
-0.25
 74
     0
 49
0.0
 74
     0
 49
-0.25
 74
     0
  0
LTYPE
  5
2E
330
5
100
AcDbSymbolTableRecord
100
AcDbLinetypeTableRecord
  2
BORDER2
 70
     0
  3
Border (.5x) __.__.__.__.__.__.__.__.__.__.__.
 72
    65
 73
     6
 40
0.875
 49
0.25
 74
     0
 49
-0.125
 74
     0
 49
0.25
 74
     0
 49
-0.125
 74
     0
 49
0.0
 74
     0
 49
-0.125
 74
     0
  0
LTYPE
  5
2F
330
5
100
AcDbSymbolTableRecord
100
AcDbLinetypeTableRecord
  2
BORDERX2
 70
     0
  3
Border (2x) ____  ____  .  ____  ____  .  ___
 72
    65
 73
     6
 40
3.5
 49
1.0
 74
     0
 49
-0.5
 74
     0
 49
1.0
 74
     0
 49
-0.5
 74
     0
 49
0.0
 74
     0
 49
-0.5
 74
     0
  0
LTYPE
  5
30
330
5
100
AcDbSymbolTableRecord
100
AcDbLinetypeTableRecord
  2
CENTER
 70
     0
  3
Center ____ _ ____ _ ____ _ ____ _ ____ _ ____
 72
    65
 73
     4
 40
2.0
 49
1.25
 74
     0
 49
-0.25
 74
     0
 49
0.25
 74
     0
 49
-0.25
 74
     0
  0
LTYPE
  5
31
330
5
100
AcDbSymbolTableRecord
100
AcDbLinetypeTableRecord
  2
CENTER2
 70
     0
  3
Center (.5x) ___ _ ___ _ ___ _ ___ _ ___ _ ___
 72
    65
 73
     4
 40
1.125
 49
0.75
 74
     0
 49
-0.125
 74
     0
 49
0.125
 74
     0
 49
-0.125
 74
     0
  0
LTYPE
  5
32
330
5
100
AcDbSymbolTableRecord
100
AcDbLinetypeTableRecord
  2
CENTERX2
 70
     0
  3
Center (2x) ________  __  ________  __  _____
 72
    65
 73
     4
 40
4.0
 49
2.5
 74
     0
 49
-0.5
 74
     0
 49
0.5
 74
     0
 49
-0.5
 74
     0
  0
LTYPE
  5
33
330
5
100
AcDbSymbolTableRecord
100
AcDbLinetypeTableRecord
  2
DASHDOT
 70
     0
  3
Dash dot __ . __ . __ . __ . __ . __ . __ . __
 72
    65
 73
     4
 40
1.0
 49
0.5
 74
     0
 49
-0.25
 74
     0
 49
0.0
 74
     0
 49
-0.25
 74
     0
  0
LTYPE
  5
34
330
5
100
AcDbSymbolTableRecord
100
AcDbLinetypeTableRecord
  2
DASHDOT2
 70
     0
  3
Dash dot (.5x) _._._._._._._._._._._._._._._.
 72
    65
 73
     4
 40
0.5
 49
0.25
 74
     0
 49
-0.125
 74
     0
 49
0.0
 74
     0
 49
-0.125
 74
     0
  0
LTYPE
  5
35
330
5
100
AcDbSymbolTableRecord
100
AcDbLinetypeTableRecord
  2
DASHDOTX2
 70
     0
  3
Dash dot (2x) ____  .  ____  .  ____  .  ___
 72
    65
 73
     4
 40
2.0
 49
1.0
 74
     0
 49
-0.5
 74
     0
 49
0.0
 74
     0
 49
-0.5
 74
     0
  0
LTYPE
  5
36
330
5
100
AcDbSymbolTableRecord
100
AcDbLinetypeTableRecord
  2
DASHED
 70
     0
  3
Dashed __ __ __ __ __ __ __ __ __ __ __ __ __ _
 72
    65
 73
     2
 40
0.75
 49
0.5
 74
     0
 49
-0.25
 74
     0
  0
LTYPE
  5
37
330
5
100
AcDbSymbolTableRecord
100
AcDbLinetypeTableRecord
  2
DASHED2
 70
     0
  3
Dashed (.5x) _ _ _ _ _ _ _ _ _ _ _ _ _ _ _ _ _
 72
    65
 73
     2
 40
0.375
 49
0.25
 74
     0
 49
-0.125
 74
     0
  0
LTYPE
  5
38
330
5
100
AcDbSymbolTableRecord
100
AcDbLinetypeTableRecord
  2
DASHEDX2
 70
     0
  3
Dashed (2x) ____  ____  ____  ____  ____  ___
 72
    65
 73
     2
 40
1.5
 49
1.0
 74
     0
 49
-0.5
 74
     0
  0
LTYPE
  5
39
330
5
100
AcDbSymbolTableRecord
100
AcDbLinetypeTableRecord
  2
DIVIDE
 70
     0
  3
Divide ____ . . ____ . . ____ . . ____ . . ____
 72
    65
 73
     6
 40
1.25
 49
0.5
 74
     0
 49
-0.25
 74
     0
 49
0.0
 74
     0
 49
-0.25
 74
     0
 49
0.0
 74
     0
 49
-0.25
 74
     0
  0
LTYPE
  5
3A
330
5
100
AcDbSymbolTableRecord
100
AcDbLinetypeTableRecord
  2
DIVIDE2
 70
     0
  3
Divide (.5x) __..__..__..__..__..__..__..__.._
 72
    65
 73
     6
 40
0.625
 49
0.25
 74
     0
 49
-0.125
 74
     0
 49
0.0
 74
     0
 49
-0.125
 74
     0
 49
0.0
 74
     0
 49
-0.125
 74
     0
  0
LTYPE
  5
3B
330
5
100
AcDbSymbolTableRecord
100
AcDbLinetypeTableRecord
  2
DIVIDEX2
 70
     0
  3
Divide (2x) ________  .  .  ________  .  .  _
 72
    65
 73
     6
 40
2.5
 49
1.0
 74
     0
 49
-0.5
 74
     0
 49
0.0
 74
     0
 49
-0.5
 74
     0
 49
0.0
 74
     0
 49
-0.5
 74
     0
  0
LTYPE
  5
3C
330
5
100
AcDbSymbolTableRecord
100
AcDbLinetypeTableRecord
  2
DOT
 70
     0
  3
Dot . . . . . . . . . . . . . . . . . . . . . .
 72
    65
 73
     2
 40
0.25
 49
0.0
 74
     0
 49
-0.25
 74
     0
  0
LTYPE
  5
3D
330
5
100
AcDbSymbolTableRecord
100
AcDbLinetypeTableRecord
  2
DOT2
 70
     0
  3
Dot (.5x) .....................................
 72
    65
 73
     2
 40
0.125
 49
0.0
 74
     0
 49
-0.125
 74
     0
  0
LTYPE
  5
3E
330
5
100
AcDbSymbolTableRecord
100
AcDbLinetypeTableRecord
  2
DOTX2
 70
     0
  3
Dot (2x) .  .  .  .  .  .  .  .  .  .  .  .  . 
 72
    65
 73
     2
 40
0.5
 49
0.0
 74
     0
 49
-0.5
 74
     0
  0
LTYPE
  5
3F
330
5
100
AcDbSymbolTableRecord
100
AcDbLinetypeTableRecord
  2
HIDDEN
 70
     0
  3
Hidden __ __ __ __ __ __ __ __ __ __ __ __ __ _
 72
    65
 73
     2
 40
0.375
 49
0.25
 74
     0
 49
-0.125
 74
     0
  0
LTYPE
  5
40
330
5
100
AcDbSymbolTableRecord
100
AcDbLinetypeTableRecord
  2
HIDDEN2
 70
     0
  3
Hidden (.5x) _ _ _ _ _ _ _ _ _ _ _ _ _ _ _ _ _
 72
    65
 73
     2
 40
0.1875
 49
0.125
 74
     0
 49
-0.0625
 74
     0
  0
LTYPE
  5
41
330
5
100
AcDbSymbolTableRecord
100
AcDbLinetypeTableRecord
  2
HIDDENX2
 70
     0
  3
Hidden (2x) ____ ____ ____ ____ ____ ____ ____
 72
    65
 73
     2
 40
0.75
 49
0.5
 74
     0
 49
-0.25
 74
     0
  0
LTYPE
  5
42
330
5
100
AcDbSymbolTableRecord
100
AcDbLinetypeTableRecord
  2
PHANTOM
 70
     0
  3
Phantom ______  __  __  ______  __  __  ______
 72
    65
 73
     6
 40
2.5
 49
1.25
 74
     0
 49
-0.25
 74
     0
 49
0.25
 74
     0
 49
-0.25
 74
     0
 49
0.25
 74
     0
 49
-0.25
 74
     0
  0
LTYPE
  5
43
330
5
100
AcDbSymbolTableRecord
100
AcDbLinetypeTableRecord
  2
PHANTOM2
 70
     0
  3
Phantom (.5x) ___ _ _ ___ _ _ ___ _ _ ___ _ _
 72
    65
 73
     6
 40
1.25
 49
0.625
 74
     0
 49
-0.125
 74
     0
 49
0.125
 74
     0
 49
-0.125
 74
     0
 49
0.125
 74
     0
 49
-0.125
 74
     0
  0
LTYPE
  5
44
330
5
100
AcDbSymbolTableRecord
100
AcDbLinetypeTableRecord
  2
PHANTOMX2
 70
     0
  3
Phantom (2x) ____________    ____    ____   _
 72
    65
 73
     6
 40
5.0
 49
2.5
 74
     0
 49
-0.5
 74
     0
 49
0.5
 74
     0
 49
-0.5
 74
     0
 49
0.5
 74
     0
 49
-0.5
 74
     0
  0
ENDTAB
  0
TABLE
  2
LAYER
  5
2
330
0
100
AcDbSymbolTable
 70
     3
  0
LAYER
  5
10
330
2
100
AcDbSymbolTableRecord
100
AcDbLayerTableRecord
  2
0
 70
     0
 62
     7
  6
Continuous
370
    -3
390
F
  0
LAYER
  5
97
330
2
100
AcDbSymbolTableRecord
100
AcDbLayerTableRecord
  2
1
 70
     0
 62
     7
  6
Continuous
370
     0
390
F
  0
LAYER
  5
99
330
2
100
AcDbSymbolTableRecord
100
AcDbLayerTableRecord
  2
5
 70
     0
 62
     7
  6
Continuous
370
    -3
390
F
  0
ENDTAB
  0
TABLE
  2
STYLE
  5
3
330
0
100
AcDbSymbolTable
 70
     4
  0
STYLE
  5
11
330
3
100
AcDbSymbolTableRecord
100
AcDbTextStyleTableRecord
  2
Standard
 70
     0
 40
0.0
 41
1.0
 50
0.0
 71
     0
 42
0.2
  3
txt
  4

  0
STYLE
  5
2C
330
3
100
AcDbSymbolTableRecord
100
AcDbTextStyleTableRecord
  2

 70
     1
 40
0.0
 41
1.0
 50
0.0
 71
     0
 42
0.2
  3
ltypeshp.shx
  4

  0
STYLE
  5
4A
330
3
100
AcDbSymbolTableRecord
100
AcDbTextStyleTableRecord
  2
Simplex
 70
     0
 40
0.0
 41
1.0
 50
0.0
 71
     0
 42
0.2
  3
simplex.shx
  4

  0
STYLE
  5
4B
330
3
100
AcDbSymbolTableRecord
100
AcDbTextStyleTableRecord
  2
BigFont
 70
     0
 40
0.0
 41
1.0
 50
0.0
 71
     0
 42
0.2
  3
simplex.shx
  4
bigfont.shx
  0
ENDTAB
  0
TABLE
  2
VIEW
  5
6
330
0
100
AcDbSymbolTable
 70
     0
  0
ENDTAB
  0
TABLE
  2
UCS
  5
7
330
0
100
AcDbSymbolTable
 70
     0
  0
ENDTAB
  0
TABLE
  2
APPID
  5
9
330
0
100
AcDbSymbolTable
 70
     1
  0
APPID
  5
12
330
9
100
AcDbSymbolTableRecord
100
AcDbRegAppTableRecord
  2
ACAD
 70
     0
  0
ENDTAB
  0
TABLE
  2
DIMSTYLE
  5
A
330
0
100
AcDbSymbolTable
 70
     1
100
AcDbDimStyleTable
  0
DIMSTYLE
105
27
330
A
100
AcDbSymbolTableRecord
100
AcDbDimStyleTableRecord
  2
Standard
 70
     0
178
     0
340
11
  0
ENDTAB
  0
TABLE
  2
BLOCK_RECORD
  5
1
330
0
100
AcDbSymbolTable
 70
     3
  0
BLOCK_RECORD
  5
1F
330
1
100
AcDbSymbolTableRecord
100
AcDbBlockTableRecord
  2
*Model_Space
340
22
  0
BLOCK_RECORD
  5
1B
330
1
100
AcDbSymbolTableRecord
100
AcDbBlockTableRecord
  2
*Paper_Space
340
1E
  0
BLOCK_RECORD
  5
98
330
1
100
AcDbSymbolTableRecord
100
AcDbBlockTableRecord
  2
BLOCK_3
340
0
  0
BLOCK_RECORD
  5
A0
330
1
100
AcDbSymbolTableRecord
100
AcDbBlockTableRecord
  2
BLOCK_4
340
0
  0
ENDTAB
  0
ENDSEC
  0
SECTION
  2
BLOCKS
  0
BLOCK
  5
20
330
1F
100
AcDbEntity
  8
0
100
AcDbBlockBegin
  2
*Model_Space
 70
     0
 10
0.0
 20
0.0
 30
0.0
  3
*Model_Space
  1
*Model_Space
  0
ENDBLK
  5
21
330
1F
100
AcDbEntity
  8
0
100
AcDbBlockEnd
  0
BLOCK
  5
1C
330
1B
100
AcDbEntity
 67
     1
  8
0
100
AcDbBlockBegin
  2
*Paper_Space
 70
     0
 10
0.0
 20
0.0
 30
0.0
  3
*Paper_Space
  1
*Paper_Space
  0
ENDBLK
  5
1D
330
1B
100
AcDbEntity
 67
     1
  8
0
100
AcDbBlockEnd
  0
BLOCK
  5
9E
330
98
100
AcDbEntity
  8
0
100
AcDbBlockBegin
  2
BLOCK_3
 70
     0
 10
0.0
 20
0.0
 30
0.0
  3
BLOCK_3
  1
BLOCK_3
  0
LINE
  5
9D
330
98
100
AcDbEntity
  8
5
  6
Continuous
 62
     7
 48
25.4
370
     0
100
AcDbLine
 10
1179.455046450468
 20
5348.763230225799
 30
0.0
 11
1086.467406228489
 21
5348.763230225799
 31
0.0
  0
ENDBLK
  5
9F
330
98
100
AcDbEntity
  8
0
100
AcDbBlockEnd
  0
BLOCK
  5
A5
330
A0
100
AcDbEntity
  8
0
100
AcDbBlockBegin
  2
BLOCK_4
 70
     0
 10
0.0
 20
0.0
 30
0.0
  3
BLOCK_4
  1
BLOCK_4
  0
SPLINE
  5
A2
330
A0
100
AcDbEntity
  8
5
  6
Continuous
 62
     7
 48
25.4
370
     0
100
AcDbSpline
210
0.0
220
0.0
230
1.0
 70
    11
 71
     3
 72
    43
 73
    39
 74
    37
 42
0.000000001
 43
0.0000000001
 44
0.0
 12
0.8004078855425141
 22
-0.5994557671432997
 32
0.0
 13
0.8004078855425141
 23
-0.5994557671432997
 33
0.0
 40
0.0
 40
0.0
 40
0.0
 40
0.0
 40
9.214058430645371
 40
18.98203142124641
 40
29.38281023659419
 40
40.49626846248414
 40
58.66094658676864
 40
160.7680866970561
 40
307.7027517338115
 40
439.6949084617446
 40
496.9745236455644
 40
500.6187825109653
 40
509.016422505151
 40
518.3647387250928
 40
524.8610262677655
 40
528.1458636477528
 40
548.6918494304391
 40
578.2580240933294
 40
604.8174691294848
 40
616.3432660319675
 40
617.1070444348808
 40
618.8670555372468
 40
620.826313179502
 40
622.1878312020865
 40
633.0085500747747
 40
702.9902997712019
 40
803.6957444563046
 40
894.1599574785154
 40
933.4180121862674
 40
938.7408171489806
 40
951.0064111934942
 40
964.6605630543672
 40
974.1490414661605
 40
977.8245647527442
 40
982.3036666602835
 40
986.664900533704
 40
990.7885437157006
 40
994.7007613418988
 40
994.7007613418988
 40
994.7007613418988
 40
994.7007613418988
 10
1553.62386987038
 20
5363.713532142636
 30
0.0
 10
1556.08220487896
 20
5361.87239198762
 30
0.0
 10
1549.476226310419
 20
5354.127093622999
 30
0.0
 10
1549.536875716871
 20
5345.169725599027
 30
0.0
 10
1546.105896921543
 20
5335.246056964166
 30
0.0
 10
1545.149641946837
 20
5320.370867863387
 30
0.0
 10
1492.503093904211
 20
5315.811352971133
 30
0.0
 10
1414.548983646286
 20
5322.59414648133
 30
0.0
 10
1273.391084284244
 20
5311.016886864729
 30
0.0
 10
1190.283980772864
 20
5339.428997061322
 30
0.0
 10
1087.244495034686
 20
5301.268056824279
 30
0.0
 10
1088.228849145525
 20
5325.178649083368
 30
0.0
 10
1087.839835441977
 20
5332.393722605701
 30
0.0
 10
1089.036963893161
 20
5339.687994206803
 30
0.0
 10
1086.332374507161
 20
5347.977502880487
 30
0.0
 10
1097.840779602134
 20
5349.899781939338
 30
0.0
 10
1114.218156840612
 20
5348.277392874349
 30
0.0
 10
1140.938366613354
 20
5347.875331611114
 30
0.0
 10
1161.837581446794
 20
5351.445715520274
 30
0.0
 10
1176.87491103298
 20
5346.20536345967
 30
0.0
 10
1180.252312419576
 20
5349.521618384827
 30
0.0
 10
1181.349515808051
 20
5350.530321351569
 30
0.0
 10
1182.597403612007
 20
5351.662976753626
 30
0.0
 10
1185.956490272673
 20
5355.099442401406
 30
0.0
 10
1217.011642672013
 20
5346.349871867385
 30
0.0
 10
1273.08406839079
 20
5356.987288112312
 30
0.0
 10
1362.314068650544
 20
5351.380238632826
 30
0.0
 10
1438.547476548909
 20
5353.941834035149
 30
0.0
 10
1483.683001821627
 20
5351.971074996596
 30
0.0
 10
1502.575990880437
 20
5353.465397136255
 30
0.0
 10
1512.962532116417
 20
5354.220655573162
 30
0.0
 10
1524.736125448915
 20
5355.027600321354
 30
0.0
 10
1533.644751074041
 20
5355.831600394962
 30
0.0
 10
1539.520604859827
 20
5356.026401702993
 30
0.0
 10
1543.678189644671
 20
5356.620484844274
 30
0.0
 10
1547.68621643426
 20
5358.466078532874
 30
0.0
 10
1551.466752333
 20
5359.504669011017
 30
0.0
 10
1552.580079924391
 20
5364.495265948751
 30
0.0
 10
1553.62386987038
 20
5363.713532142636
 30
0.0
 11
1553.62386987038
 21
5363.713532142636
 31
0.0
 11
1551.234743692732
 21
5354.814602495166
 31
0.0
 11
1549.006944389758
 21
5345.304071142461
 31
0.0
 11
1546.614361207652
 21
5335.182226168224
 31
0.0
 11
1543.73088339261
 21
5324.449355656158
 31
0.0
 11
1526.43807684435
 21
5318.889286138311
 31
0.0
 11
1424.331200963419
 21
5319.12157763226
 31
0.0
 11
1277.396916159154
 21
5319.455850757699
 31
0.0
 11
1145.405100995999
 21
5319.756130005975
 31
0.0
 11
1088.125634038404
 21
5319.886439868435
 31
0.0
 11
1088.125634038404
 21
5323.530698733836
 31
0.0
 11
1088.125634038404
 21
5331.928338728022
 31
0.0
 11
1088.125634038404
 21
5341.276654947964
 31
0.0
 11
1088.125634038404
 21
5347.772942490637
 31
0.0
 11
1091.257644066253
 21
5348.763230225801
 31
0.0
 11
1111.803629848939
 21
5348.763230225799
 31
0.0
 11
1141.369804511829
 21
5348.7632302258
 31
0.0
 11
1167.929249547985
 21
5348.763230225798
 31
0.0
 11
1179.455046450468
 21
5348.763230225799
 31
0.0
 11
1180.013832809829
 21
5349.283917515204
 31
0.0
 11
1181.301470942271
 21
5350.483762138617
 31
0.0
 11
1182.734879429329
 21
5351.81943822883
 31
0.0
 11
1183.730976852539
 21
5352.747619918639
 31
0.0
 11
1194.550770620776
 21
5352.889111029891
 31
0.0
 11
1264.532520317203
 21
5352.889111029891
 31
0.0
 11
1365.237965002306
 21
5352.889111029891
 31
0.0
 11
1455.702178024517
 21
5352.889111029891
 31
0.0
 11
1494.960232732269
 21
5352.889111029891
 31
0.0
 11
1500.268703146203
 21
5353.279488456837
 31
0.0
 11
1512.5012654044
 21
5354.179053831971
 31
0.0
 11
1526.118646031449
 21
5355.180456796744
 31
0.0
 11
1535.581571551941
 21
5355.876346992603
 31
0.0
 11
1539.251565894969
 21
5356.077873547581
 31
0.0
 11
1543.66510428002
 21
5356.841439407086
 31
0.0
 11
1547.750227241628
 21
5358.368571126097
 31
0.0
 11
1551.17909552376
 21
5360.659268704613
 31
0.0
 11
1553.62386987038
 21
5363.713532142636
 31
0.0
  0
SPLINE
  5
A4
330
A0
100
AcDbEntity
  8
5
  6
Continuous
 62
     7
 48
25.4
370
     0
100
AcDbSpline
210
0.0
220
0.0
230
1.0
 70
    11
 71
     3
 72
    43
 73
    39
 74
    37
 42
0.000000001
 43
0.0000000001
 44
0.0
 12
0.8004078855425141
 22
-0.5994557671432997
 32
0.0
 13
0.8004078855425141
 23
-0.5994557671432997
 33
0.0
 40
0.0
 40
0.0
 40
0.0
 40
0.0
 40
9.214058430645371
 40
18.98203142124641
 40
29.38281023659419
 40
40.49626846248414
 40
58.66094658676864
 40
160.7680866970561
 40
307.7027517338115
 40
439.6949084617446
 40
496.9745236455644
 40
500.6187825109653
 40
509.016422505151
 40
518.3647387250928
 40
524.8610262677655
 40
528.1458636477528
 40
548.6918494304391
 40
578.2580240933294
 40
604.8174691294848
 40
616.3432660319675
 40
617.1070444348808
 40
618.8670555372468
 40
620.826313179502
 40
622.1878312020865
 40
633.0085500747747
 40
702.9902997712019
 40
803.6957444563046
 40
894.1599574785154
 40
933.4180121862674
 40
938.7408171489806
 40
951.0064111934942
 40
964.6605630543672
 40
974.1490414661605
 40
977.8245647527442
 40
982.3036666602835
 40
986.664900533704
 40
990.7885437157006
 40
994.7007613418988
 40
994.7007613418988
 40
994.7007613418988
 40
994.7007613418988
 10
1553.62386987038
 20
5363.713532142636
 30
0.0
 10
1556.08220487896
 20
5361.87239198762
 30
0.0
 10
1549.476226310419
 20
5354.127093622999
 30
0.0
 10
1549.536875716871
 20
5345.169725599027
 30
0.0
 10
1546.105896921543
 20
5335.246056964166
 30
0.0
 10
1545.149641946837
 20
5320.370867863387
 30
0.0
 10
1492.503093904211
 20
5315.811352971133
 30
0.0
 10
1414.548983646286
 20
5322.59414648133
 30
0.0
 10
1273.391084284244
 20
5311.016886864729
 30
0.0
 10
1190.283980772864
 20
5339.428997061322
 30
0.0
 10
1087.244495034686
 20
5301.268056824279
 30
0.0
 10
1088.228849145525
 20
5325.178649083368
 30
0.0
 10
1087.839835441977
 20
5332.393722605701
 30
0.0
 10
1089.036963893161
 20
5339.687994206803
 30
0.0
 10
1086.332374507161
 20
5347.977502880487
 30
0.0
 10
1097.840779602134
 20
5349.899781939338
 30
0.0
 10
1114.218156840612
 20
5348.277392874349
 30
0.0
 10
1140.938366613354
 20
5347.875331611114
 30
0.0
 10
1161.837581446794
 20
5351.445715520274
 30
0.0
 10
1176.87491103298
 20
5346.20536345967
 30
0.0
 10
1180.252312419576
 20
5349.521618384827
 30
0.0
 10
1181.349515808051
 20
5350.530321351569
 30
0.0
 10
1182.597403612007
 20
5351.662976753626
 30
0.0
 10
1185.956490272673
 20
5355.099442401406
 30
0.0
 10
1217.011642672013
 20
5346.349871867385
 30
0.0
 10
1273.08406839079
 20
5356.987288112312
 30
0.0
 10
1362.314068650544
 20
5351.380238632826
 30
0.0
 10
1438.547476548909
 20
5353.941834035149
 30
0.0
 10
1483.683001821627
 20
5351.971074996596
 30
0.0
 10
1502.575990880437
 20
5353.465397136255
 30
0.0
 10
1512.962532116417
 20
5354.220655573162
 30
0.0
 10
1524.736125448915
 20
5355.027600321354
 30
0.0
 10
1533.644751074041
 20
5355.831600394962
 30
0.0
 10
1539.520604859827
 20
5356.026401702993
 30
0.0
 10
1543.678189644671
 20
5356.620484844274
 30
0.0
 10
1547.68621643426
 20
5358.466078532874
 30
0.0
 10
1551.466752333
 20
5359.504669011017
 30
0.0
 10
1552.580079924391
 20
5364.495265948751
 30
0.0
 10
1553.62386987038
 20
5363.713532142636
 30
0.0
 11
1553.62386987038
 21
5363.713532142636
 31
0.0
 11
1551.234743692732
 21
5354.814602495166
 31
0.0
 11
1549.006944389758
 21
5345.304071142461
 31
0.0
 11
1546.614361207652
 21
5335.182226168224
 31
0.0
 11
1543.73088339261
 21
5324.449355656158
 31
0.0
 11
1526.43807684435
 21
5318.889286138311
 31
0.0
 11
1424.331200963419
 21
5319.12157763226
 31
0.0
 11
1277.396916159154
 21
5319.455850757699
 31
0.0
 11
1145.405100995999
 21
5319.756130005975
 31
0.0
 11
1088.125634038404
 21
5319.886439868435
 31
0.0
 11
1088.125634038404
 21
5323.530698733836
 31
0.0
 11
1088.125634038404
 21
5331.928338728022
 31
0.0
 11
1088.125634038404
 21
5341.276654947964
 31
0.0
 11
1088.125634038404
 21
5347.772942490637
 31
0.0
 11
1091.257644066253
 21
5348.763230225801
 31
0.0
 11
1111.803629848939
 21
5348.763230225799
 31
0.0
 11
1141.369804511829
 21
5348.7632302258
 31
0.0
 11
1167.929249547985
 21
5348.763230225798
 31
0.0
 11
1179.455046450468
 21
5348.763230225799
 31
0.0
 11
1180.013832809829
 21
5349.283917515204
 31
0.0
 11
1181.301470942271
 21
5350.483762138617
 31
0.0
 11
1182.734879429329
 21
5351.81943822883
 31
0.0
 11
1183.730976852539
 21
5352.747619918639
 31
0.0
 11
1194.550770620776
 21
5352.889111029891
 31
0.0
 11
1264.532520317203
 21
5352.889111029891
 31
0.0
 11
1365.237965002306
 21
5352.889111029891
 31
0.0
 11
1455.702178024517
 21
5352.889111029891
 31
0.0
 11
1494.960232732269
 21
5352.889111029891
 31
0.0
 11
1500.268703146203
 21
5353.279488456837
 31
0.0
 11
1512.5012654044
 21
5354.179053831971
 31
0.0
 11
1526.118646031449
 21
5355.180456796744
 31
0.0
 11
1535.581571551941
 21
5355.876346992603
 31
0.0
 11
1539.251565894969
 21
5356.077873547581
 31
0.0
 11
1543.66510428002
 21
5356.841439407086
 31
0.0
 11
1547.750227241628
 21
5358.368571126097
 31
0.0
 11
1551.17909552376
 21
5360.659268704613
 31
0.0
 11
1553.62386987038
 21
5363.713532142636
 31
0.0
  0
ENDBLK
  5
A6
330
A0
100
AcDbEntity
  8
0
100
AcDbBlockEnd
  0
ENDSEC
  0
SECTION
  2
ENTITIES
  0
LINE
  5
A7
330
1F
100
AcDbEntity
  8
1
  6
Continuous
 62
     7
 48
2.0
370
     0
100
AcDbLine
 10
1.882018743246611
 20
0.0010625803220208
 30
0.0
 11
1.653667622907982
 21
0.0010625803220208
 31
0.0
  0
POLYLINE
  5
A8
330
1F
100
AcDbEntity
  8
1
  6
Continuous
 62
     7
 48
2.0
370
     0
100
AcDb2dPolyline
 66
     1
 10
0.0
 20
0.0
 30
0.0
 70
   128
  0
VERTEX
  5
A9
330
A8
100
AcDbEntity
  8
1
  6
Continuous
 62
     7
 48
2.0
100
AcDbVertex
100
AcDb2dVertex
 10
1.808620168852052
 20
-0.3305902572632746
 30
0.0
  0
VERTEX
  5
AA
330
A8
100
AcDbEntity
  8
1
  6
Continuous
 62
     7
 48
2.0
100
AcDbVertex
100
AcDb2dVertex
 10
1.780076278809723
 20
-0.4474842901826648
 30
0.0
  0
VERTEX
  5
AB
330
A8
100
AcDbEntity
  8
1
  6
Continuous
 62
     7
 48
2.0
100
AcDbVertex
100
AcDb2dVertex
 10
1.720270033006749
 20
-0.5412713631063681
 30
0.0
  0
VERTEX
  5
AC
330
A8
100
AcDbEntity
  8
1
  6
Continuous
 62
     7
 48
2.0
100
AcDbVertex
100
AcDb2dVertex
 10
1.629201431443128
 20
-0.6527284642621041
 30
0.0
  0
VERTEX
  5
AD
330
A8
100
AcDbEntity
  8
1
  6
Continuous
 62
     7
 48
2.0
100
AcDbVertex
100
AcDb2dVertex
 10
1.566676719921723
 20
-0.7111754807217991
 30
0.0
  0
VERTEX
  5
AE
330
A8
100
AcDbEntity
  8
1
  6
Continuous
 62
     7
 48
2.0
100
AcDbVertex
100
AcDb2dVertex
 10
1.520462802710334
 20
-0.7465155371858074
 30
0.0
  0
VERTEX
  5
AF
330
A8
100
AcDbEntity
  8
1
  6
Continuous
 62
     7
 48
2.0
100
AcDbVertex
100
AcDb2dVertex
 10
1.470171186921469
 20
-0.7696224971814942
 30
0.0
  0
VERTEX
  5
B0
330
A8
100
AcDbEntity
  8
1
  6
Continuous
 62
     7
 48
2.0
100
AcDbVertex
100
AcDb2dVertex
 10
1.385898749653641
 20
-0.7900109912953255
 30
0.0
  0
VERTEX
  5
B1
330
A8
100
AcDbEntity
  8
1
  6
Continuous
 62
     7
 48
2.0
100
AcDbVertex
100
AcDb2dVertex
 10
1.322014805273191
 20
-0.8036033207045463
 30
0.0
  0
VERTEX
  5
B2
330
A8
100
AcDbEntity
  8
1
  6
Continuous
 62
     7
 48
2.0
100
AcDbVertex
100
AcDb2dVertex
 10
1.274441655202644
 20
-0.7981663889408921
 30
0.0
  0
VERTEX
  5
B3
330
A8
100
AcDbEntity
  8
1
  6
Continuous
 62
     7
 48
2.0
100
AcDbVertex
100
AcDb2dVertex
 10
1.241820066582839
 20
-0.7872925254135268
 30
0.0
  0
VERTEX
  5
B4
330
A8
100
AcDbEntity
  8
1
  6
Continuous
 62
     7
 48
2.0
100
AcDbVertex
100
AcDb2dVertex
 10
1.226868505132096
 20
-0.7696224971814942
 30
0.0
  0
VERTEX
  5
B5
330
A8
100
AcDbEntity
  8
1
  6
Continuous
 62
     7
 48
2.0
100
AcDbVertex
100
AcDb2dVertex
 10
1.282597052357595
 20
-0.7505932360085623
 30
0.0
  0
VERTEX
  5
B6
330
A8
100
AcDbEntity
  8
1
  6
Continuous
 62
     7
 48
2.0
100
AcDbVertex
100
AcDb2dVertex
 10
1.349199462456362
 20
-0.7288455089537749
 30
0.0
  0
VERTEX
  5
B7
330
A8
100
AcDbEntity
  8
1
  6
Continuous
 62
     7
 48
2.0
100
AcDbVertex
100
AcDb2dVertex
 10
1.428034968287555
 20
-0.6826315889624013
 30
0.0
  0
VERTEX
  5
B8
330
A8
100
AcDbEntity
  8
1
  6
Continuous
 62
     7
 48
2.0
100
AcDbVertex
100
AcDb2dVertex
 10
1.474248885498945
 20
-0.6432138336756381
 30
0.0
  0
VERTEX
  5
B9
330
A8
100
AcDbEntity
  8
1
  6
Continuous
 62
     7
 48
2.0
100
AcDbVertex
100
AcDb2dVertex
 10
1.521822035569492
 20
-0.5902037489795973
 30
0.0
  0
VERTEX
  5
BA
330
A8
100
AcDbEntity
  8
1
  6
Continuous
 62
     7
 48
2.0
100
AcDbVertex
100
AcDb2dVertex
 10
1.57890981565415
 20
-0.4950574431149946
 30
0.0
  0
VERTEX
  5
BB
330
A8
100
AcDbEntity
  8
1
  6
Continuous
 62
     7
 48
2.0
100
AcDbVertex
100
AcDb2dVertex
 10
1.623764500006494
 20
-0.3958334384275801
 30
0.0
  0
VERTEX
  5
BC
330
A8
100
AcDbEntity
  8
1
  6
Continuous
 62
     7
 48
2.0
100
AcDbVertex
100
AcDb2dVertex
 10
1.653667622907982
 20
-0.3129202290312421
 30
0.0
  0
VERTEX
  5
BD
330
A8
100
AcDbEntity
  8
1
  6
Continuous
 62
     7
 48
2.0
100
AcDbVertex
100
AcDb2dVertex
 10
1.676774581513676
 20
-0.2191331561075387
 30
0.0
  0
VERTEX
  5
BE
330
A8
100
AcDbEntity
  8
1
  6
Continuous
 62
     7
 48
2.0
100
AcDbVertex
100
AcDb2dVertex
 10
1.683570745809469
 20
-0.1063168220109034
 30
0.0
  0
VERTEX
  5
BF
330
A8
100
AcDbEntity
  8
1
  6
Continuous
 62
     7
 48
2.0
100
AcDbVertex
100
AcDb2dVertex
 10
1.690366910105261
 20
-0.0016558855598348
 30
0.0
  0
SEQEND
  5
C0
330
A8
100
AcDbEntity
  8
1
  6
Continuous
 62
     7
 48
2.0
370
     0
  0
POLYLINE
  5
C1
330
1F
100
AcDbEntity
  8
1
  6
Continuous
 62
     7
 48
2.0
370
     0
100
AcDb2dPolyline
 66
     1
 10
0.0
 20
0.0
 30
0.0
 70
   128
  0
VERTEX
  5
C2
330
C1
100
AcDbEntity
  8
1
  6
Continuous
 62
     7
 48
2.0
100
AcDbVertex
100
AcDb2dVertex
 10
1.62784219858397
 20
-0.3822411090183593
 30
0.0
  0
VERTEX
  5
C3
330
C1
100
AcDbEntity
  8
1
  6
Continuous
 62
     7
 48
2.0
100
AcDbVertex
100
AcDb2dVertex
 10
1.671337650077042
 20
-0.3550564501998608
 30
0.0
  0
VERTEX
  5
C4
330
C1
100
AcDbEntity
  8
1
  6
Continuous
 62
     7
 48
2.0
100
AcDbVertex
100
AcDb2dVertex
 10
1.661823020062933
 20
-0.4230180972460218
 30
0.0
  0
VERTEX
  5
C5
330
C1
100
AcDbEntity
  8
1
  6
Continuous
 62
     7
 48
2.0
100
AcDbVertex
100
AcDb2dVertex
 10
1.596579842823211
 20
-0.5657375560430111
 30
0.0
  0
VERTEX
  5
C6
330
C1
100
AcDbEntity
  8
1
  6
Continuous
 62
     7
 48
2.0
100
AcDbVertex
100
AcDb2dVertex
 10
1.523181268428651
 20
-0.6771946571986902
 30
0.0
  0
VERTEX
  5
C7
330
C1
100
AcDbEntity
  8
1
  6
Continuous
 62
     7
 48
2.0
100
AcDbVertex
100
AcDb2dVertex
 10
1.495996611245481
 20
-0.7084570148399436
 30
0.0
  0
VERTEX
  5
C8
330
C1
100
AcDbEntity
  8
1
  6
Continuous
 62
     7
 48
2.0
100
AcDbVertex
100
AcDb2dVertex
 10
1.449782694034091
 20
-0.7451563042448512
 30
0.0
  0
VERTEX
  5
C9
330
C1
100
AcDbEntity
  8
1
  6
Continuous
 62
     7
 48
2.0
100
AcDbVertex
100
AcDb2dVertex
 10
1.398131845386068
 20
-0.7669040312996387
 30
0.0
  0
VERTEX
  5
CA
330
C1
100
AcDbEntity
  8
1
  6
Continuous
 62
     7
 48
2.0
100
AcDbVertex
100
AcDb2dVertex
 10
1.32337403813235
 20
-0.7818555936498157
 30
0.0
  0
VERTEX
  5
CB
330
C1
100
AcDbEntity
  8
1
  6
Continuous
 62
     7
 48
2.0
100
AcDbVertex
100
AcDb2dVertex
 10
1.275800888061802
 20
-0.7859332924725706
 30
0.0
  0
VERTEX
  5
CC
330
C1
100
AcDbEntity
  8
1
  6
Continuous
 62
     7
 48
2.0
100
AcDbVertex
100
AcDb2dVertex
 10
1.245897765160315
 20
-0.7804963607088595
 30
0.0
  0
VERTEX
  5
CD
330
C1
100
AcDbEntity
  8
1
  6
Continuous
 62
     7
 48
2.0
100
AcDbVertex
100
AcDb2dVertex
 10
1.236383135146205
 20
-0.7682632642405949
 30
0.0
  0
SEQEND
  5
CE
330
C1
100
AcDbEntity
  8
1
  6
Continuous
 62
     7
 48
2.0
370
     0
  0
POLYLINE
  5
CF
330
1F
100
AcDbEntity
  8
1
  6
Continuous
 62
     7
 48
2.0
370
     0
100
AcDb2dPolyline
 66
     1
 10
0.0
 20
0.0
 30
0.0
 70
   128
  0
VERTEX
  5
D0
330
CF
100
AcDbEntity
  8
1
  6
Continuous
 62
     7
 48
2.0
100
AcDbVertex
100
AcDb2dVertex
 10
1.737940060175809
 20
-0.0764136973106062
 30
0.0
  0
VERTEX
  5
D1
330
CF
100
AcDbEntity
  8
1
  6
Continuous
 62
     7
 48
2.0
100
AcDbVertex
100
AcDb2dVertex
 10
1.722988498725066
 20
-0.0682582996650396
 30
0.0
  0
VERTEX
  5
D2
330
CF
100
AcDbEntity
  8
1
  6
Continuous
 62
     7
 48
2.0
100
AcDbVertex
100
AcDb2dVertex
 10
1.717551567288432
 20
-0.0424328737874973
 30
0.0
  0
VERTEX
  5
D3
330
CF
100
AcDbEntity
  8
1
  6
Continuous
 62
     7
 48
2.0
100
AcDbVertex
100
AcDb2dVertex
 10
1.716192334429273
 20
0.0037810462038763
 30
0.0
  0
SEQEND
  5
D4
330
CF
100
AcDbEntity
  8
1
  6
Continuous
 62
     7
 48
2.0
370
     0
  0
POLYLINE
  5
D5
330
1F
100
AcDbEntity
  8
1
  6
Continuous
 62
     7
 48
2.0
370
     0
100
AcDb2dPolyline
 66
     1
 10
0.0
 20
0.0
 30
0.0
 70
   128
  0
VERTEX
  5
D6
330
D5
100
AcDbEntity
  8
1
  6
Continuous
 62
     7
 48
2.0
100
AcDbVertex
100
AcDb2dVertex
 10
1.759687785922345
 20
-0.0601029020195298
 30
0.0
  0
VERTEX
  5
D7
330
D5
100
AcDbEntity
  8
1
  6
Continuous
 62
     7
 48
2.0
100
AcDbVertex
100
AcDb2dVertex
 10
1.744736224471602
 20
-0.2259293208121491
 30
0.0
  0
VERTEX
  5
D8
330
D5
100
AcDbEntity
  8
1
  6
Continuous
 62
     7
 48
2.0
100
AcDbVertex
100
AcDb2dVertex
 10
1.732503128739175
 20
-0.2938909678583101
 30
0.0
  0
VERTEX
  5
D9
330
D5
100
AcDbEntity
  8
1
  6
Continuous
 62
     7
 48
2.0
100
AcDbVertex
100
AcDb2dVertex
 10
1.701240772978529
 20
-0.3523379843180052
 30
0.0
  0
VERTEX
  5
DA
330
D5
100
AcDbEntity
  8
1
  6
Continuous
 62
     7
 48
2.0
100
AcDbVertex
100
AcDb2dVertex
 10
1.665900718640408
 20
-0.4053480690140461
 30
0.0
  0
SEQEND
  5
DB
330
D5
100
AcDbEntity
  8
1
  6
Continuous
 62
     7
 48
2.0
370
     0
  0
POLYLINE
  5
DC
330
1F
100
AcDbEntity
  8
1
  6
Continuous
 62
     7
 48
2.0
370
     0
100
AcDb2dPolyline
 66
     1
 10
0.0
 20
0.0
 30
0.0
 70
   128
  0
VERTEX
  5
DD
330
DC
100
AcDbEntity
  8
1
  6
Continuous
 62
     7
 48
2.0
100
AcDbVertex
100
AcDb2dVertex
 10
1.710755402992639
 20
-0.0872875608379715
 30
0.0
  0
VERTEX
  5
DE
330
DC
100
AcDbEntity
  8
1
  6
Continuous
 62
     7
 48
2.0
100
AcDbVertex
100
AcDb2dVertex
 10
1.697163074401054
 20
-0.2218516219893942
 30
0.0
  0
VERTEX
  5
DF
330
DC
100
AcDbEntity
  8
1
  6
Continuous
 62
     7
 48
2.0
100
AcDbVertex
100
AcDb2dVertex
 10
1.675415348654518
 20
-0.307483297267531
 30
0.0
  0
VERTEX
  5
E0
330
DC
100
AcDbEntity
  8
1
  6
Continuous
 62
     7
 48
2.0
100
AcDbVertex
100
AcDb2dVertex
 10
1.660463787203774
 20
-0.356415683140817
 30
0.0
  0
SEQEND
  5
E1
330
DC
100
AcDbEntity
  8
1
  6
Continuous
 62
     7
 48
2.0
370
     0
  0
POLYLINE
  5
E2
330
1F
100
AcDbEntity
  8
1
  6
Continuous
 62
     7
 48
2.0
370
     0
100
AcDb2dPolyline
 66
     1
 10
0.0
 20
0.0
 30
0.0
 70
   128
  0
VERTEX
  5
E3
330
E2
100
AcDbEntity
  8
1
  6
Continuous
 62
     7
 48
2.0
100
AcDbVertex
100
AcDb2dVertex
 10
1.739299293034968
 20
-0.090006026719827
 30
0.0
  0
VERTEX
  5
E4
330
E2
100
AcDbEntity
  8
1
  6
Continuous
 62
     7
 48
2.0
100
AcDbVertex
100
AcDb2dVertex
 10
1.722988498725066
 20
-0.2340847184577157
 30
0.0
  0
VERTEX
  5
E5
330
E2
100
AcDbEntity
  8
1
  6
Continuous
 62
     7
 48
2.0
100
AcDbVertex
100
AcDb2dVertex
 10
1.695803841541895
 20
-0.3292310243223184
 30
0.0
  0
VERTEX
  5
E6
330
E2
100
AcDbEntity
  8
1
  6
Continuous
 62
     7
 48
2.0
100
AcDbVertex
100
AcDb2dVertex
 10
1.676774581513676
 20
-0.3577749160817163
 30
0.0
  0
SEQEND
  5
E7
330
E2
100
AcDbEntity
  8
1
  6
Continuous
 62
     7
 48
2.0
370
     0
  0
POLYLINE
  5
E8
330
1F
100
AcDbEntity
  8
1
  6
Continuous
 62
     7
 48
2.0
370
     0
100
AcDb2dPolyline
 66
     1
 10
0.0
 20
0.0
 30
0.0
 70
   128
  0
VERTEX
  5
E9
330
E8
100
AcDbEntity
  8
1
  6
Continuous
 62
     7
 48
2.0
100
AcDbVertex
100
AcDb2dVertex
 10
1.574832117076674
 20
-0.4379696595961988
 30
0.0
  0
VERTEX
  5
EA
330
E8
100
AcDbEntity
  8
1
  6
Continuous
 62
     7
 48
2.0
100
AcDbVertex
100
AcDb2dVertex
 10
1.447064228315774
 20
-0.5181644031106813
 30
0.0
  0
VERTEX
  5
EB
330
E8
100
AcDbEntity
  8
1
  6
Continuous
 62
     7
 48
2.0
100
AcDbVertex
100
AcDb2dVertex
 10
1.324733270991509
 20
-0.5779706525112758
 30
0.0
  0
VERTEX
  5
EC
330
E8
100
AcDbEntity
  8
1
  6
Continuous
 62
     7
 48
2.0
100
AcDbVertex
100
AcDb2dVertex
 10
1.240460833723681
 20
-0.6133107089753409
 30
0.0
  0
VERTEX
  5
ED
330
E8
100
AcDbEntity
  8
1
  6
Continuous
 62
     7
 48
2.0
100
AcDbVertex
100
AcDb2dVertex
 10
1.112692944962667
 20
-0.6608838619076138
 30
0.0
  0
VERTEX
  5
EE
330
E8
100
AcDbEntity
  8
1
  6
Continuous
 62
     7
 48
2.0
100
AcDbVertex
100
AcDb2dVertex
 10
0.9985173847933524
 20
-0.6921462195488672
 30
0.0
  0
VERTEX
  5
EF
330
E8
100
AcDbEntity
  8
1
  6
Continuous
 62
     7
 48
2.0
100
AcDbVertex
100
AcDb2dVertex
 10
0.9264780432579514
 20
-0.7030200830762325
 30
0.0
  0
VERTEX
  5
F0
330
E8
100
AcDbEntity
  8
1
  6
Continuous
 62
     7
 48
2.0
100
AcDbVertex
100
AcDb2dVertex
 10
0.8408463731308515
 20
-0.700301617194377
 30
0.0
  0
VERTEX
  5
F1
330
E8
100
AcDbEntity
  8
1
  6
Continuous
 62
     7
 48
2.0
100
AcDbVertex
100
AcDb2dVertex
 10
0.6790976628909888
 20
-0.6839908219033006
 30
0.0
  0
VERTEX
  5
F2
330
E8
100
AcDbEntity
  8
1
  6
Continuous
 62
     7
 48
2.0
100
AcDbVertex
100
AcDb2dVertex
 10
0.257735476551737
 20
-0.6269030383845617
 30
0.0
  0
VERTEX
  5
F3
330
E8
100
AcDbEntity
  8
1
  6
Continuous
 62
     7
 48
2.0
100
AcDbVertex
100
AcDb2dVertex
 10
0.0592874791144808
 20
-0.6051553113297743
 30
0.0
  0
SEQEND
  5
F4
330
E8
100
AcDbEntity
  8
1
  6
Continuous
 62
     7
 48
2.0
370
     0
  0
POLYLINE
  5
F5
330
1F
100
AcDbEntity
  8
1
  6
Continuous
 62
     7
 48
2.0
370
     0
100
AcDb2dPolyline
 66
     1
 10
0.0
 20
0.0
 30
0.0
 70
   128
  0
VERTEX
  5
F6
330
F5
100
AcDbEntity
  8
1
  6
Continuous
 62
     7
 48
2.0
100
AcDbVertex
100
AcDb2dVertex
 10
1.47832658407642
 20
-0.6336992030891722
 30
0.0
  0
VERTEX
  5
F7
330
F5
100
AcDbEntity
  8
1
  6
Continuous
 62
     7
 48
2.0
100
AcDbVertex
100
AcDb2dVertex
 10
1.293470915230863
 20
-0.6839908219033006
 30
0.0
  0
VERTEX
  5
F8
330
F5
100
AcDbEntity
  8
1
  6
Continuous
 62
     7
 48
2.0
100
AcDbVertex
100
AcDb2dVertex
 10
1.160266095033329
 20
-0.7084570148399436
 30
0.0
  0
VERTEX
  5
F9
330
F5
100
AcDbEntity
  8
1
  6
Continuous
 62
     7
 48
2.0
100
AcDbVertex
100
AcDb2dVertex
 10
1.032498206272315
 20
-0.7234085771901206
 30
0.0
  0
VERTEX
  5
FA
330
F5
100
AcDbEntity
  8
1
  6
Continuous
 62
     7
 48
2.0
100
AcDbVertex
100
AcDb2dVertex
 10
0.9998766176525109
 20
-0.7193308783673089
 30
0.0
  0
VERTEX
  5
FB
330
F5
100
AcDbEntity
  8
1
  6
Continuous
 62
     7
 48
2.0
100
AcDbVertex
100
AcDb2dVertex
 10
0.9781288919059747
 20
-0.709816247780843
 30
0.0
  0
VERTEX
  5
FC
330
F5
100
AcDbEntity
  8
1
  6
Continuous
 62
     7
 48
2.0
100
AcDbVertex
100
AcDb2dVertex
 10
0.9536627004411216
 20
-0.6826315889624013
 30
0.0
  0
SEQEND
  5
FD
330
F5
100
AcDbEntity
  8
1
  6
Continuous
 62
     7
 48
2.0
370
     0
  0
POLYLINE
  5
FE
330
1F
100
AcDbEntity
  8
1
  6
Continuous
 62
     7
 48
2.0
370
     0
100
AcDb2dPolyline
 66
     1
 10
0.0
 20
0.0
 30
0.0
 70
   128
  0
VERTEX
  5
FF
330
FE
100
AcDbEntity
  8
1
  6
Continuous
 62
     7
 48
2.0
100
AcDbVertex
100
AcDb2dVertex
 10
1.20512077938556
 20
-0.7791371277679602
 30
0.0
  0
VERTEX
  5
100
330
FE
100
AcDbEntity
  8
1
  6
Continuous
 62
     7
 48
2.0
100
AcDbVertex
100
AcDb2dVertex
 10
1.01890587768073
 20
-0.7954479230590366
 30
0.0
  0
VERTEX
  5
101
330
FE
100
AcDbEntity
  8
1
  6
Continuous
 62
     7
 48
2.0
100
AcDbVertex
100
AcDb2dVertex
 10
0.8258948116801079
 20
-0.7981663889408921
 30
0.0
  0
VERTEX
  5
102
330
FE
100
AcDbEntity
  8
1
  6
Continuous
 62
     7
 48
2.0
100
AcDbVertex
100
AcDb2dVertex
 10
0.5132712540736506
 20
-0.7968071559999359
 30
0.0
  0
SEQEND
  5
103
330
FE
100
AcDbEntity
  8
1
  6
Continuous
 62
     7
 48
2.0
370
     0
  0
LINE
  5
104
330
1F
100
AcDbEntity
  8
1
  6
Continuous
 62
     7
 48
2.0
370
     0
100
AcDbLine
 10
1.319296339554874
 20
-0.8049625536455025
 30
0.0
 11
1.301626312385814
 21
-0.8294287465821455
 31
0.0
  0
POLYLINE
  5
105
330
1F
100
AcDbEntity
  8
1
  6
Continuous
 62
     7
 48
2.0
370
     0
100
AcDb2dPolyline
 66
     1
 10
0.0
 20
0.0
 30
0.0
 70
   128
  0
VERTEX
  5
106
330
105
100
AcDbEntity
  8
1
  6
Continuous
 62
     7
 48
2.0
100
AcDbVertex
100
AcDb2dVertex
 10
0.086472136297651
 20
-0.6309807372073166
 30
0.0
  0
VERTEX
  5
107
330
105
100
AcDbEntity
  8
1
  6
Continuous
 62
     7
 48
2.0
100
AcDbVertex
100
AcDb2dVertex
 10
0.6886122929050984
 20
-0.7179716454264096
 30
0.0
  0
VERTEX
  5
108
330
105
100
AcDbEntity
  8
1
  6
Continuous
 62
     7
 48
2.0
100
AcDbVertex
100
AcDb2dVertex
 10
0.9618180975960726
 20
-0.7519524689494617
 30
0.0
  0
VERTEX
  5
109
330
105
100
AcDbEntity
  8
1
  6
Continuous
 62
     7
 48
2.0
100
AcDbVertex
100
AcDb2dVertex
 10
0.946866536145329
 20
-0.7601078665950283
 30
0.0
  0
VERTEX
  5
10A
330
105
100
AcDbEntity
  8
1
  6
Continuous
 62
     7
 48
2.0
100
AcDbVertex
100
AcDb2dVertex
 10
0.4453096111157251
 20
-0.7791371277679602
 30
0.0
  0
VERTEX
  5
10B
330
105
100
AcDbEntity
  8
1
  6
Continuous
 62
     7
 48
2.0
100
AcDbVertex
100
AcDb2dVertex
 10
0.0443359176637372
 20
-0.7791371277679602
 30
0.0
  0
SEQEND
  5
10C
330
105
100
AcDbEntity
  8
1
  6
Continuous
 62
     7
 48
2.0
370
     0
  0
POLYLINE
  5
10D
330
1F
100
AcDbEntity
  8
1
  6
Continuous
 62
     7
 48
2.0
370
     0
100
AcDb2dPolyline
 66
     1
 10
0.0
 20
0.0
 30
0.0
 70
   128
  0
VERTEX
  5
10E
330
10D
100
AcDbEntity
  8
1
  6
Continuous
 62
     7
 48
2.0
100
AcDbVertex
100
AcDb2dVertex
 10
0.0497728491003713
 20
-0.7682632642405949
 30
0.0
  0
VERTEX
  5
10F
330
10D
100
AcDbEntity
  8
1
  6
Continuous
 62
     7
 48
2.0
100
AcDbVertex
100
AcDb2dVertex
 10
0.4466688439748836
 20
-0.7696224971814942
 30
0.0
  0
VERTEX
  5
110
330
10D
100
AcDbEntity
  8
1
  6
Continuous
 62
     7
 48
2.0
100
AcDbVertex
100
AcDb2dVertex
 10
0.772884730172926
 20
-0.7560301677722734
 30
0.0
  0
VERTEX
  5
111
330
10D
100
AcDbEntity
  8
1
  6
Continuous
 62
     7
 48
2.0
100
AcDbVertex
100
AcDb2dVertex
 10
0.7987101544969377
 20
-0.7465155371858074
 30
0.0
  0
VERTEX
  5
112
330
10D
100
AcDbEntity
  8
1
  6
Continuous
 62
     7
 48
2.0
100
AcDbVertex
100
AcDb2dVertex
 10
0.8055063187927303
 20
-0.7383601395402408
 30
0.0
  0
VERTEX
  5
113
330
10D
100
AcDbEntity
  8
1
  6
Continuous
 62
     7
 48
2.0
100
AcDbVertex
100
AcDb2dVertex
 10
0.4113287896367623
 20
-0.6839908219033006
 30
0.0
  0
VERTEX
  5
114
330
10D
100
AcDbEntity
  8
1
  6
Continuous
 62
     7
 48
2.0
100
AcDbVertex
100
AcDb2dVertex
 10
0.4303580496649815
 20
-0.7179716454264096
 30
0.0
  0
VERTEX
  5
115
330
10D
100
AcDbEntity
  8
1
  6
Continuous
 62
     7
 48
2.0
100
AcDbVertex
100
AcDb2dVertex
 10
0.4765719668763708
 20
-0.7682632642405949
 30
0.0
  0
SEQEND
  5
116
330
10D
100
AcDbEntity
  8
1
  6
Continuous
 62
     7
 48
2.0
370
     0
  0
POLYLINE
  5
117
330
1F
100
AcDbEntity
  8
1
  6
Continuous
 62
     7
 48
2.0
370
     0
100
AcDb2dPolyline
 66
     1
 10
0.0
 20
0.0
 30
0.0
 70
   128
  0
VERTEX
  5
118
330
117
100
AcDbEntity
  8
1
  6
Continuous
 62
     7
 48
2.0
100
AcDbVertex
100
AcDb2dVertex
 10
0.3556002424111497
 20
-0.6703984924940798
 30
0.0
  0
VERTEX
  5
119
330
117
100
AcDbEntity
  8
1
  6
Continuous
 62
     7
 48
2.0
100
AcDbVertex
100
AcDb2dVertex
 10
0.3787072010168444
 20
-0.7125347136626985
 30
0.0
  0
VERTEX
  5
11A
330
117
100
AcDbEntity
  8
1
  6
Continuous
 62
     7
 48
2.0
100
AcDbVertex
100
AcDb2dVertex
 10
0.4262803510875059
 20
-0.7669040312996387
 30
0.0
  0
SEQEND
  5
11B
330
117
100
AcDbEntity
  8
1
  6
Continuous
 62
     7
 48
2.0
370
     0
  0
POLYLINE
  5
11C
330
1F
100
AcDbEntity
  8
1
  6
Continuous
 62
     7
 48
2.0
370
     0
100
AcDb2dPolyline
 66
     1
 10
0.0
 20
0.0
 30
0.0
 70
   128
  0
VERTEX
  5
11D
330
11C
100
AcDbEntity
  8
1
  6
Continuous
 62
     7
 48
2.0
100
AcDbVertex
100
AcDb2dVertex
 10
1.100459849230241
 20
0.0037810462038763
 30
0.0
  0
VERTEX
  5
11E
330
11C
100
AcDbEntity
  8
1
  6
Continuous
 62
     7
 48
2.0
100
AcDbVertex
100
AcDb2dVertex
 10
1.095022917793607
 20
-0.1566084408250887
 30
0.0
  0
VERTEX
  5
11F
330
11C
100
AcDbEntity
  8
1
  6
Continuous
 62
     7
 48
2.0
100
AcDbVertex
100
AcDb2dVertex
 10
1.078712123483704
 20
-0.2993278996220212
 30
0.0
  0
VERTEX
  5
120
330
11C
100
AcDbEntity
  8
1
  6
Continuous
 62
     7
 48
2.0
100
AcDbVertex
100
AcDb2dVertex
 10
1.043372069145583
 20
-0.467872784296496
 30
0.0
  0
VERTEX
  5
121
330
11C
100
AcDbEntity
  8
1
  6
Continuous
 62
     7
 48
2.0
100
AcDbVertex
100
AcDb2dVertex
 10
0.9930804533567184
 20
-0.6201068736799513
 30
0.0
  0
VERTEX
  5
122
330
11C
100
AcDbEntity
  8
1
  6
Continuous
 62
     7
 48
2.0
100
AcDbVertex
100
AcDb2dVertex
 10
0.9658957961735481
 20
-0.6731169583759353
 30
0.0
  0
SEQEND
  5
123
330
11C
100
AcDbEntity
  8
1
  6
Continuous
 62
     7
 48
2.0
370
     0
  0
POLYLINE
  5
124
330
1F
100
AcDbEntity
  8
1
  6
Continuous
 62
     7
 48
2.0
370
     0
100
AcDb2dPolyline
 66
     1
 10
0.0
 20
0.0
 30
0.0
 70
   128
  0
VERTEX
  5
125
330
124
100
AcDbEntity
  8
1
  6
Continuous
 62
     7
 48
2.0
100
AcDbVertex
100
AcDb2dVertex
 10
0.9672550290327067
 20
-0.6676800266122243
 30
0.0
  0
VERTEX
  5
126
330
124
100
AcDbEntity
  8
1
  6
Continuous
 62
     7
 48
2.0
100
AcDbVertex
100
AcDb2dVertex
 10
0.8503610031450748
 20
-0.6663207936713249
 30
0.0
  0
VERTEX
  5
127
330
124
100
AcDbEntity
  8
1
  6
Continuous
 62
     7
 48
2.0
100
AcDbVertex
100
AcDb2dVertex
 10
0.7552147030038654
 20
-0.6540876972030034
 30
0.0
  0
VERTEX
  5
128
330
124
100
AcDbEntity
  8
1
  6
Continuous
 62
     7
 48
2.0
100
AcDbVertex
100
AcDb2dVertex
 10
0.1367637520866296
 20
-0.5494267607519348
 30
0.0
  0
VERTEX
  5
129
330
124
100
AcDbEntity
  8
1
  6
Continuous
 62
     7
 48
2.0
100
AcDbVertex
100
AcDb2dVertex
 10
0.1258898892133615
 20
-0.5371936642836133
 30
0.0
  0
VERTEX
  5
12A
330
124
100
AcDbEntity
  8
1
  6
Continuous
 62
     7
 48
2.0
100
AcDbVertex
100
AcDb2dVertex
 10
0.12724912207252
 20
-0.5045720737014605
 30
0.0
  0
VERTEX
  5
12B
330
124
100
AcDbEntity
  8
1
  6
Continuous
 62
     7
 48
2.0
100
AcDbVertex
100
AcDb2dVertex
 10
0.1435599163824222
 20
-0.1647638384705985
 30
0.0
  0
VERTEX
  5
12C
330
124
100
AcDbEntity
  8
1
  6
Continuous
 62
     7
 48
2.0
100
AcDbVertex
100
AcDb2dVertex
 10
0.3161824894955529
 20
-0.099520657306293
 30
0.0
  0
VERTEX
  5
12D
330
124
100
AcDbEntity
  8
1
  6
Continuous
 62
     7
 48
2.0
100
AcDbVertex
100
AcDb2dVertex
 10
0.3202601880730285
 20
0.0010625803220208
 30
0.0
  0
SEQEND
  5
12E
330
124
100
AcDbEntity
  8
1
  6
Continuous
 62
     7
 48
2.0
370
     0
  0
LINE
  5
12F
330
1F
100
AcDbEntity
  8
1
  6
Continuous
 62
     7
 48
2.0
370
     0
100
AcDbLine
 10
0.1082198620443009
 20
0.0051402791447757
 30
0.0
 11
0.1000644648893498
 21
-0.5535044595746896
 31
0.0
  0
POLYLINE
  5
130
330
1F
100
AcDbEntity
  8
1
  6
Continuous
 62
     7
 48
2.0
370
     0
100
AcDb2dPolyline
 66
     1
 10
0.0
 20
0.0
 30
0.0
 70
   128
  0
VERTEX
  5
131
330
130
100
AcDbEntity
  8
1
  6
Continuous
 62
     7
 48
2.0
100
AcDbVertex
100
AcDb2dVertex
 10
0.5893882941865272
 20
-0.7641855654177832
 30
0.0
  0
VERTEX
  5
132
330
130
100
AcDbEntity
  8
1
  6
Continuous
 62
     7
 48
2.0
100
AcDbVertex
100
AcDb2dVertex
 10
0.6016213899189538
 20
-0.7968071559999359
 30
0.0
  0
VERTEX
  5
133
330
130
100
AcDbEntity
  8
1
  6
Continuous
 62
     7
 48
2.0
100
AcDbVertex
100
AcDb2dVertex
 10
0.6016213899189538
 20
-0.8375841442276553
 30
0.0
  0
SEQEND
  5
134
330
130
100
AcDbEntity
  8
1
  6
Continuous
 62
     7
 48
2.0
370
     0
  0
POLYLINE
  5
135
330
1F
100
AcDbEntity
  8
1
  6
Continuous
 62
     7
 48
2.0
370
     0
100
AcDb2dPolyline
 66
     1
 10
0.0
 20
0.0
 30
0.0
 70
   128
  0
VERTEX
  5
136
330
135
100
AcDbEntity
  8
1
  6
Continuous
 62
     7
 48
2.0
100
AcDbVertex
100
AcDb2dVertex
 10
0.2879841049935052
 20
-0.9875651983195937
 30
0.0
  0
VERTEX
  5
137
330
135
100
AcDbEntity
  8
1
  6
Continuous
 62
     7
 48
2.0
100
AcDbVertex
100
AcDb2dVertex
 10
0.3867274073886833
 20
-0.7917958839459445
 30
0.0
  0
VERTEX
  5
138
330
135
100
AcDbEntity
  8
1
  6
Continuous
 62
     7
 48
2.0
100
AcDbVertex
100
AcDb2dVertex
 10
0.4743084234261445
 20
-0.7978063453521642
 30
0.0
  0
VERTEX
  5
139
330
135
100
AcDbEntity
  8
1
  6
Continuous
 62
     7
 48
2.0
100
AcDbVertex
100
AcDb2dVertex
 10
0.488905259432407
 20
-0.803816806758384
 30
0.0
  0
VERTEX
  5
13A
330
135
100
AcDbEntity
  8
1
  6
Continuous
 62
     7
 48
2.0
100
AcDbVertex
100
AcDb2dVertex
 10
0.4940570839052256
 20
-0.8106859055083007
 30
0.0
  0
VERTEX
  5
13B
330
135
100
AcDbEntity
  8
1
  6
Continuous
 62
     7
 48
2.0
100
AcDbVertex
100
AcDb2dVertex
 10
0.4897638968444866
 20
-0.8373036631643842
 30
0.0
  0
VERTEX
  5
13C
330
135
100
AcDbEntity
  8
1
  6
Continuous
 62
     7
 48
2.0
100
AcDbVertex
100
AcDb2dVertex
 10
0.4202142664618336
 20
-0.9635233526947715
 30
0.0
  0
VERTEX
  5
13D
330
135
100
AcDbEntity
  8
1
  6
Continuous
 62
     7
 48
2.0
100
AcDbVertex
100
AcDb2dVertex
 10
0.3944551440978543
 20
-0.9909997476946089
 30
0.0
  0
VERTEX
  5
13E
330
135
100
AcDbEntity
  8
1
  6
Continuous
 62
     7
 48
2.0
100
AcDbVertex
100
AcDb2dVertex
 10
0.3686960217338751
 20
-0.9995861211320332
 30
0.0
  0
VERTEX
  5
13F
330
135
100
AcDbEntity
  8
1
  6
Continuous
 62
     7
 48
2.0
100
AcDbVertex
100
AcDb2dVertex
 10
0.3343505252486452
 20
-1.000444758475787
 30
0.0
  0
VERTEX
  5
140
330
135
100
AcDbEntity
  8
1
  6
Continuous
 62
     7
 48
2.0
100
AcDbVertex
100
AcDb2dVertex
 10
0.2897013798177781
 20
-0.9884238356633475
 30
0.0
  0
SEQEND
  5
141
330
135
100
AcDbEntity
  8
1
  6
Continuous
 62
     7
 48
2.0
370
     0
  0
POLYLINE
  5
142
330
1F
100
AcDbEntity
  8
1
  6
Continuous
 62
     7
 48
2.0
370
     0
100
AcDb2dPolyline
 66
     1
 10
0.0
 20
0.0
 30
0.0
 70
   128
  0
VERTEX
  5
143
330
142
100
AcDbEntity
  8
1
  6
Continuous
 62
     7
 48
2.0
100
AcDbVertex
100
AcDb2dVertex
 10
0.3618269224368973
 20
-0.8398795751956456
 30
0.0
  0
VERTEX
  5
144
330
142
100
AcDbEntity
  8
1
  6
Continuous
 62
     7
 48
2.0
100
AcDbVertex
100
AcDb2dVertex
 10
-0.1524968874302672
 20
-0.8441727619143577
 30
0.0
  0
VERTEX
  5
145
330
142
100
AcDbEntity
  8
1
  6
Continuous
 62
     7
 48
2.0
100
AcDbVertex
100
AcDb2dVertex
 10
-0.501962314167919
 20
-0.8450313992580547
 30
0.0
  0
VERTEX
  5
146
330
142
100
AcDbEntity
  8
1
  6
Continuous
 62
     7
 48
2.0
100
AcDbVertex
100
AcDb2dVertex
 10
-0.8299618056024443
 20
-0.8390209378518918
 30
0.0
  0
SEQEND
  5
147
330
142
100
AcDbEntity
  8
1
  6
Continuous
 62
     7
 48
2.0
370
     0
  0
POLYLINE
  5
148
330
1F
100
AcDbEntity
  8
1
  6
Continuous
 62
     7
 48
2.0
370
     0
100
AcDb2dPolyline
 66
     1
 10
0.0
 20
0.0
 30
0.0
 70
   128
  0
VERTEX
  5
149
330
148
100
AcDbEntity
  8
1
  6
Continuous
 62
     7
 48
2.0
100
AcDbVertex
100
AcDb2dVertex
 10
0.3678373843217955
 20
-0.8209895536332326
 30
0.0
  0
VERTEX
  5
14A
330
148
100
AcDbEntity
  8
1
  6
Continuous
 62
     7
 48
2.0
100
AcDbVertex
100
AcDb2dVertex
 10
-0.1241618528298218
 20
-0.8261413776956985
 30
0.0
  0
VERTEX
  5
14B
330
148
100
AcDbEntity
  8
1
  6
Continuous
 62
     7
 48
2.0
100
AcDbVertex
100
AcDb2dVertex
 10
-0.1559314370786993
 20
-0.8398795751956456
 30
0.0
  0
VERTEX
  5
14C
330
148
100
AcDbEntity
  8
1
  6
Continuous
 62
     7
 48
2.0
100
AcDbVertex
100
AcDb2dVertex
 10
-0.2555333768860706
 20
-0.8407382125393426
 30
0.0
  0
VERTEX
  5
14D
330
148
100
AcDbEntity
  8
1
  6
Continuous
 62
     7
 48
2.0
100
AcDbVertex
100
AcDb2dVertex
 10
-0.3371039310386337
 20
-0.838162300508138
 30
0.0
  0
VERTEX
  5
14E
330
148
100
AcDbEntity
  8
1
  6
Continuous
 62
     7
 48
2.0
100
AcDbVertex
100
AcDb2dVertex
 10
-0.3851876261180465
 20
-0.8175550042582742
 30
0.0
  0
VERTEX
  5
14F
330
148
100
AcDbEntity
  8
1
  6
Continuous
 62
     7
 48
2.0
100
AcDbVertex
100
AcDb2dVertex
 10
-0.3654389656389654
 20
-0.8089686308208499
 30
0.0
  0
VERTEX
  5
150
330
148
100
AcDbEntity
  8
1
  6
Continuous
 62
     7
 48
2.0
100
AcDbVertex
100
AcDb2dVertex
 10
-0.3061929842018358
 20
-0.8063927187895885
 30
0.0
  0
VERTEX
  5
151
330
148
100
AcDbEntity
  8
1
  6
Continuous
 62
     7
 48
2.0
100
AcDbVertex
100
AcDb2dVertex
 10
-0.2915961481955733
 20
-0.8175550042582742
 30
0.0
  0
VERTEX
  5
152
330
148
100
AcDbEntity
  8
1
  6
Continuous
 62
     7
 48
2.0
100
AcDbVertex
100
AcDb2dVertex
 10
-0.2598265639466959
 20
-0.8227068283207402
 30
0.0
  0
VERTEX
  5
153
330
148
100
AcDbEntity
  8
1
  6
Continuous
 62
     7
 48
2.0
100
AcDbVertex
100
AcDb2dVertex
 10
-0.2271983422857389
 20
-0.8227068283207402
 30
0.0
  0
VERTEX
  5
154
330
148
100
AcDbEntity
  8
1
  6
Continuous
 62
     7
 48
2.0
100
AcDbVertex
100
AcDb2dVertex
 10
-0.2048737695703053
 20
-0.8201309162894788
 30
0.0
  0
VERTEX
  5
155
330
148
100
AcDbEntity
  8
1
  6
Continuous
 62
     7
 48
2.0
100
AcDbVertex
100
AcDb2dVertex
 10
-0.1859837465034175
 20
-0.8098272681646037
 30
0.0
  0
VERTEX
  5
156
330
148
100
AcDbEntity
  8
1
  6
Continuous
 62
     7
 48
2.0
100
AcDbVertex
100
AcDb2dVertex
 10
-0.1370414140118115
 20
-0.8132618175395621
 30
0.0
  0
VERTEX
  5
157
330
148
100
AcDbEntity
  8
1
  6
Continuous
 62
     7
 48
2.0
100
AcDbVertex
100
AcDb2dVertex
 10
-0.1241618528298218
 20
-0.8244241030082478
 30
0.0
  0
SEQEND
  5
158
330
148
100
AcDbEntity
  8
1
  6
Continuous
 62
     7
 48
2.0
370
     0
  0
POLYLINE
  5
159
330
1F
100
AcDbEntity
  8
1
  6
Continuous
 62
     7
 48
2.0
370
     0
100
AcDb2dPolyline
 66
     1
 10
0.0
 20
0.0
 30
0.0
 70
   128
  0
VERTEX
  5
15A
330
159
100
AcDbEntity
  8
1
  6
Continuous
 62
     7
 48
2.0
100
AcDbVertex
100
AcDb2dVertex
 10
0.0527174540693736
 20
-0.778916323789808
 30
0.0
  0
VERTEX
  5
15B
330
159
100
AcDbEntity
  8
1
  6
Continuous
 62
     7
 48
2.0
100
AcDbVertex
100
AcDb2dVertex
 10
-0.3972085498878428
 20
-0.7729058623835883
 30
0.0
  0
VERTEX
  5
15C
330
159
100
AcDbEntity
  8
1
  6
Continuous
 62
     7
 48
2.0
100
AcDbVertex
100
AcDb2dVertex
 10
-0.7277839535587205
 20
-0.7591676648836412
 30
0.0
  0
VERTEX
  5
15D
330
159
100
AcDbEntity
  8
1
  6
Continuous
 62
     7
 48
2.0
100
AcDbVertex
100
AcDb2dVertex
 10
-0.8668832143240266
 20
-0.754874478164929
 30
0.0
  0
SEQEND
  5
15E
330
159
100
AcDbEntity
  8
1
  6
Continuous
 62
     7
 48
2.0
370
     0
  0
POLYLINE
  5
15F
330
1F
100
AcDbEntity
  8
1
  6
Continuous
 62
     7
 48
2.0
370
     0
100
AcDb2dPolyline
 66
     1
 10
0.0
 20
0.0
 30
0.0
 70
   128
  0
VERTEX
  5
160
330
15F
100
AcDbEntity
  8
1
  6
Continuous
 62
     7
 48
2.0
100
AcDbVertex
100
AcDb2dVertex
 10
0.0535760914814531
 20
-0.7686126756648761
 30
0.0
  0
VERTEX
  5
161
330
15F
100
AcDbEntity
  8
1
  6
Continuous
 62
     7
 48
2.0
100
AcDbVertex
100
AcDb2dVertex
 10
-0.3697321526995907
 20
-0.7617435769149026
 30
0.0
  0
VERTEX
  5
162
330
15F
100
AcDbEntity
  8
1
  6
Continuous
 62
     7
 48
2.0
100
AcDbVertex
100
AcDb2dVertex
 10
-0.5594910207807757
 20
-0.7540158408211752
 30
0.0
  0
VERTEX
  5
163
330
15F
100
AcDbEntity
  8
1
  6
Continuous
 62
     7
 48
2.0
100
AcDbVertex
100
AcDb2dVertex
 10
-0.8728936762090385
 20
-0.7385603686338342
 30
0.0
  0
SEQEND
  5
164
330
15F
100
AcDbEntity
  8
1
  6
Continuous
 62
     7
 48
2.0
370
     0
  0
POLYLINE
  5
165
330
1F
100
AcDbEntity
  8
1
  6
Continuous
 62
     7
 48
2.0
370
     0
100
AcDb2dPolyline
 66
     1
 10
0.0
 20
0.0
 30
0.0
 70
   128
  0
VERTEX
  5
166
330
165
100
AcDbEntity
  8
1
  6
Continuous
 62
     7
 48
2.0
100
AcDbVertex
100
AcDb2dVertex
 10
-0.5053968638164648
 20
-0.5917333828535263
 30
0.0
  0
VERTEX
  5
167
330
165
100
AcDbEntity
  8
1
  6
Continuous
 62
     7
 48
2.0
100
AcDbVertex
100
AcDb2dVertex
 10
-0.4409990579066303
 20
-0.7574503901961904
 30
0.0
  0
VERTEX
  5
168
330
165
100
AcDbEntity
  8
1
  6
Continuous
 62
     7
 48
2.0
100
AcDbVertex
100
AcDb2dVertex
 10
-0.4487267946158013
 20
-0.7677540383211223
 30
0.0
  0
VERTEX
  5
169
330
165
100
AcDbEntity
  8
1
  6
Continuous
 62
     7
 48
2.0
100
AcDbVertex
100
AcDb2dVertex
 10
-0.4521613442643471
 20
-0.7763404117585466
 30
0.0
  0
VERTEX
  5
16A
330
165
100
AcDbEntity
  8
1
  6
Continuous
 62
     7
 48
2.0
100
AcDbVertex
100
AcDb2dVertex
 10
-0.4435749701429827
 20
-0.8055340814458347
 30
0.0
  0
VERTEX
  5
16B
330
165
100
AcDbEntity
  8
1
  6
Continuous
 62
     7
 48
2.0
100
AcDbVertex
100
AcDb2dVertex
 10
-0.4264022219003678
 20
-0.843314124570604
 30
0.0
  0
SEQEND
  5
16C
330
165
100
AcDbEntity
  8
1
  6
Continuous
 62
     7
 48
2.0
370
     0
  0
POLYLINE
  5
16D
330
1F
100
AcDbEntity
  8
1
  6
Continuous
 62
     7
 48
2.0
370
     0
100
AcDb2dPolyline
 66
     1
 10
0.0
 20
0.0
 30
0.0
 70
   128
  0
VERTEX
  5
16E
330
16D
100
AcDbEntity
  8
1
  6
Continuous
 62
     7
 48
2.0
100
AcDbVertex
100
AcDb2dVertex
 10
0.084487038318251
 20
-0.6312307006658031
 30
0.0
  0
VERTEX
  5
16F
330
16D
100
AcDbEntity
  8
1
  6
Continuous
 62
     7
 48
2.0
100
AcDbVertex
100
AcDb2dVertex
 10
-0.0640572339806127
 20
-0.6131993164471439
 30
0.0
  0
VERTEX
  5
170
330
16D
100
AcDbEntity
  8
1
  6
Continuous
 62
     7
 48
2.0
100
AcDbVertex
100
AcDb2dVertex
 10
-0.1997219450974868
 20
-0.6063302176972272
 30
0.0
  0
VERTEX
  5
171
330
16D
100
AcDbEntity
  8
1
  6
Continuous
 62
     7
 48
2.0
100
AcDbVertex
100
AcDb2dVertex
 10
-0.5122659631135562
 20
-0.5908747455098293
 30
0.0
  0
VERTEX
  5
172
330
16D
100
AcDbEntity
  8
1
  6
Continuous
 62
     7
 48
2.0
100
AcDbVertex
100
AcDb2dVertex
 10
-0.8471345538450592
 20
-0.583147009416102
 30
0.0
  0
SEQEND
  5
173
330
16D
100
AcDbEntity
  8
1
  6
Continuous
 62
     7
 48
2.0
370
     0
  0
LINE
  5
174
330
1F
100
AcDbEntity
  8
1
  6
Continuous
 62
     7
 48
2.0
370
     0
100
AcDbLine
 10
-0.4504440694400742
 20
-0.5968852069160491
 30
0.0
 11
-0.3731667023481364
 21
-0.7608849395711488
 31
0.0
  0
LINE
  5
175
330
1F
100
AcDbEntity
  8
1
  6
Continuous
 62
     7
 48
2.0
370
     0
100
AcDbLine
 10
-0.5981297043267446
 20
-0.5882988334785679
 30
0.0
 11
-0.5431769099503541
 21
-0.7514399287899707
 31
0.0
  0
POLYLINE
  5
176
330
1F
100
AcDbEntity
  8
1
  6
Continuous
 62
     7
 48
2.0
370
     0
100
AcDb2dPolyline
 66
     1
 10
0.0
 20
0.0
 30
0.0
 70
   128
  0
VERTEX
  5
177
330
176
100
AcDbEntity
  8
1
  6
Continuous
 62
     7
 48
2.0
100
AcDbVertex
100
AcDb2dVertex
 10
0.0587279159542717
 20
-0.6046129430097196
 30
0.0
  0
VERTEX
  5
178
330
176
100
AcDbEntity
  8
1
  6
Continuous
 62
     7
 48
2.0
100
AcDbVertex
100
AcDb2dVertex
 10
-0.0966854556416834
 20
-0.5891574708223217
 30
0.0
  0
VERTEX
  5
179
330
176
100
AcDbEntity
  8
1
  6
Continuous
 62
     7
 48
2.0
100
AcDbVertex
100
AcDb2dVertex
 10
-0.2203292429886474
 20
-0.5840056467598558
 30
0.0
  0
VERTEX
  5
17A
330
176
100
AcDbEntity
  8
1
  6
Continuous
 62
     7
 48
2.0
100
AcDbVertex
100
AcDb2dVertex
 10
-0.5285800739440916
 20
-0.5728433612911701
 30
0.0
  0
VERTEX
  5
17B
330
176
100
AcDbEntity
  8
1
  6
Continuous
 62
     7
 48
2.0
100
AcDbVertex
100
AcDb2dVertex
 10
-0.8385481797236949
 20
-0.5659742625412534
 30
0.0
  0
SEQEND
  5
17C
330
176
100
AcDbEntity
  8
1
  6
Continuous
 62
     7
 48
2.0
370
     0
  0
POLYLINE
  5
17D
330
1F
100
AcDbEntity
  8
1
  6
Continuous
 62
     7
 48
2.0
370
     0
100
AcDb2dPolyline
 66
     1
 10
0.0
 20
0.0
 30
0.0
 70
   128
  0
VERTEX
  5
17E
330
17D
100
AcDbEntity
  8
1
  6
Continuous
 62
     7
 48
2.0
100
AcDbVertex
100
AcDb2dVertex
 10
0.087921587966683
 20
-0.5565292517600184
 30
0.0
  0
VERTEX
  5
17F
330
17D
100
AcDbEntity
  8
1
  6
Continuous
 62
     7
 48
2.0
100
AcDbVertex
100
AcDb2dVertex
 10
-0.1834078342669514
 20
-0.5333460434789501
 30
0.0
  0
VERTEX
  5
180
330
17D
100
AcDbEntity
  8
1
  6
Continuous
 62
     7
 48
2.0
100
AcDbVertex
100
AcDb2dVertex
 10
-0.8273858933659781
 20
-0.4886969016042642
 30
0.0
  0
SEQEND
  5
181
330
17D
100
AcDbEntity
  8
1
  6
Continuous
 62
     7
 48
2.0
370
     0
  0
POLYLINE
  5
182
330
1F
100
AcDbEntity
  8
1
  6
Continuous
 62
     7
 48
2.0
370
     0
100
AcDb2dPolyline
 66
     1
 10
0.0
 20
0.0
 30
0.0
 70
   128
  0
VERTEX
  5
183
330
182
100
AcDbEntity
  8
1
  6
Continuous
 62
     7
 48
2.0
100
AcDbVertex
100
AcDb2dVertex
 10
0.0990838743245135
 20
-0.5350633181664577
 30
0.0
  0
VERTEX
  5
184
330
182
100
AcDbEntity
  8
1
  6
Continuous
 62
     7
 48
2.0
100
AcDbVertex
100
AcDb2dVertex
 10
-0.1576487119029721
 20
-0.5118801098853325
 30
0.0
  0
VERTEX
  5
185
330
182
100
AcDbEntity
  8
1
  6
Continuous
 62
     7
 48
2.0
100
AcDbVertex
100
AcDb2dVertex
 10
-0.4873654781616565
 20
-0.4878382642605104
 30
0.0
  0
VERTEX
  5
186
330
182
100
AcDbEntity
  8
1
  6
Continuous
 62
     7
 48
2.0
100
AcDbVertex
100
AcDb2dVertex
 10
-0.8462759164328659
 20
-0.464655055979442
 30
0.0
  0
SEQEND
  5
187
330
182
100
AcDbEntity
  8
1
  6
Continuous
 62
     7
 48
2.0
370
     0
  0
POLYLINE
  5
188
330
1F
100
AcDbEntity
  8
1
  6
Continuous
 62
     7
 48
2.0
370
     0
100
AcDb2dPolyline
 66
     1
 10
0.0
 20
0.0
 30
0.0
 70
   128
  0
VERTEX
  5
189
330
188
100
AcDbEntity
  8
1
  6
Continuous
 62
     7
 48
2.0
100
AcDbVertex
100
AcDb2dVertex
 10
-0.4015017369484681
 20
-0.818413641602028
 30
0.0
  0
VERTEX
  5
18A
330
188
100
AcDbEntity
  8
1
  6
Continuous
 62
     7
 48
2.0
100
AcDbVertex
100
AcDb2dVertex
 10
-0.6101506280966547
 20
-0.8166963669145204
 30
0.0
  0
VERTEX
  5
18B
330
188
100
AcDbEntity
  8
1
  6
Continuous
 62
     7
 48
2.0
100
AcDbVertex
100
AcDb2dVertex
 10
-0.7286425909708001
 20
-0.8141204548833159
 30
0.0
  0
VERTEX
  5
18C
330
188
100
AcDbEntity
  8
1
  6
Continuous
 62
     7
 48
2.0
100
AcDbVertex
100
AcDb2dVertex
 10
-0.9063805352821888
 20
-0.8020995320708764
 30
0.0
  0
SEQEND
  5
18D
330
188
100
AcDbEntity
  8
1
  6
Continuous
 62
     7
 48
2.0
370
     0
  0
POLYLINE
  5
18E
330
1F
100
AcDbEntity
  8
1
  6
Continuous
 62
     7
 48
2.0
370
     0
100
AcDb2dPolyline
 66
     1
 10
0.0
 20
0.0
 30
0.0
 70
   128
  0
VERTEX
  5
18F
330
18E
100
AcDbEntity
  8
1
  6
Continuous
 62
     7
 48
2.0
100
AcDbVertex
100
AcDb2dVertex
 10
-0.825473919394291
 20
-0.8391115967729021
 30
0.0
  0
VERTEX
  5
190
330
18E
100
AcDbEntity
  8
1
  6
Continuous
 62
     7
 48
2.0
100
AcDbVertex
100
AcDb2dVertex
 10
-1.04226162372786
 20
-0.8364461741783131
 30
0.0
  0
VERTEX
  5
191
330
18E
100
AcDbEntity
  8
1
  6
Continuous
 62
     7
 48
2.0
100
AcDbVertex
100
AcDb2dVertex
 10
-1.293699821786824
 20
-0.8382231225747248
 30
0.0
  0
VERTEX
  5
192
330
18E
100
AcDbEntity
  8
1
  6
Continuous
 62
     7
 48
2.0
100
AcDbVertex
100
AcDb2dVertex
 10
-1.565572926401821
 20
-0.8400000709711364
 30
0.0
  0
VERTEX
  5
193
330
18E
100
AcDbEntity
  8
1
  6
Continuous
 62
     7
 48
2.0
100
AcDbVertex
100
AcDb2dVertex
 10
-1.673078304370598
 20
-0.8382231225747248
 30
0.0
  0
VERTEX
  5
194
330
18E
100
AcDbEntity
  8
1
  6
Continuous
 62
     7
 48
2.0
100
AcDbVertex
100
AcDb2dVertex
 10
-1.760148775783229
 20
-0.830226854790844
 30
0.0
  0
VERTEX
  5
195
330
18E
100
AcDbEntity
  8
1
  6
Continuous
 62
     7
 48
2.0
100
AcDbVertex
100
AcDb2dVertex
 10
-1.840111453611236
 20
-0.8124573708267278
 30
0.0
  0
VERTEX
  5
196
330
18E
100
AcDbEntity
  8
1
  6
Continuous
 62
     7
 48
2.0
100
AcDbVertex
100
AcDb2dVertex
 10
-1.959166996155069
 20
-0.7760299287003178
 30
0.0
  0
VERTEX
  5
197
330
18E
100
AcDbEntity
  8
1
  6
Continuous
 62
     7
 48
2.0
100
AcDbVertex
100
AcDb2dVertex
 10
-2.000036809267137
 20
-0.759148918934379
 30
0.0
  0
VERTEX
  5
198
330
18E
100
AcDbEntity
  8
1
  6
Continuous
 62
     7
 48
2.0
100
AcDbVertex
100
AcDb2dVertex
 10
-2.016029344832624
 20
-0.7387140123756168
 30
0.0
  0
SEQEND
  5
199
330
18E
100
AcDbEntity
  8
1
  6
Continuous
 62
     7
 48
2.0
370
     0
  0
POLYLINE
  5
19A
330
1F
100
AcDbEntity
  8
1
  6
Continuous
 62
     7
 48
2.0
370
     0
100
AcDb2dPolyline
 66
     1
 10
0.0
 20
0.0
 30
0.0
 70
   128
  0
VERTEX
  5
19B
330
19A
100
AcDbEntity
  8
1
  6
Continuous
 62
     7
 48
2.0
100
AcDbVertex
100
AcDb2dVertex
 10
-2.0009252834652
 20
-0.7573719705379673
 30
0.0
  0
VERTEX
  5
19C
330
19A
100
AcDbEntity
  8
1
  6
Continuous
 62
     7
 48
2.0
100
AcDbVertex
100
AcDb2dVertex
 10
-1.73704844663289
 20
-0.7902455158716108
 30
0.0
  0
VERTEX
  5
19D
330
19A
100
AcDbEntity
  8
1
  6
Continuous
 62
     7
 48
2.0
100
AcDbVertex
100
AcDb2dVertex
 10
-1.558465132817197
 20
-0.8035726288446696
 30
0.0
  0
VERTEX
  5
19E
330
19A
100
AcDbEntity
  8
1
  6
Continuous
 62
     7
 48
2.0
100
AcDbVertex
100
AcDb2dVertex
 10
-0.8974403294394975
 20
-0.8231190612051975
 30
0.0
  0
SEQEND
  5
19F
330
19A
100
AcDbEntity
  8
1
  6
Continuous
 62
     7
 48
2.0
370
     0
  0
POLYLINE
  5
1A0
330
1F
100
AcDbEntity
  8
1
  6
Continuous
 62
     7
 48
2.0
370
     0
100
AcDb2dPolyline
 66
     1
 10
0.0
 20
0.0
 30
0.0
 70
   128
  0
VERTEX
  5
1A1
330
1A0
100
AcDbEntity
  8
1
  6
Continuous
 62
     7
 48
2.0
100
AcDbVertex
100
AcDb2dVertex
 10
-1.341677428483628
 20
-0.8373346483764905
 30
0.0
  0
VERTEX
  5
1A2
330
1A0
100
AcDbEntity
  8
1
  6
Continuous
 62
     7
 48
2.0
100
AcDbVertex
100
AcDb2dVertex
 10
-1.400316725557424
 20
-0.8177882160159626
 30
0.0
  0
VERTEX
  5
1A3
330
1A0
100
AcDbEntity
  8
1
  6
Continuous
 62
     7
 48
2.0
100
AcDbVertex
100
AcDb2dVertex
 10
-1.417197735321089
 20
-0.8097919482321387
 30
0.0
  0
VERTEX
  5
1A4
330
1A0
100
AcDbEntity
  8
1
  6
Continuous
 62
     7
 48
2.0
100
AcDbVertex
100
AcDb2dVertex
 10
-1.420751632113458
 20
-0.7884685674751992
 30
0.0
  0
VERTEX
  5
1A5
330
1A0
100
AcDbEntity
  8
1
  6
Continuous
 62
     7
 48
2.0
100
AcDbVertex
100
AcDb2dVertex
 10
-1.416309261123025
 20
-0.7671451867182597
 30
0.0
  0
VERTEX
  5
1A6
330
1A0
100
AcDbEntity
  8
1
  6
Continuous
 62
     7
 48
2.0
100
AcDbVertex
100
AcDb2dVertex
 10
-1.400316725557424
 20
-0.7644797641236138
 30
0.0
  0
VERTEX
  5
1A7
330
1A0
100
AcDbEntity
  8
1
  6
Continuous
 62
     7
 48
2.0
100
AcDbVertex
100
AcDb2dVertex
 10
-1.36033538664342
 20
-0.7271638477989697
 30
0.0
  0
VERTEX
  5
1A8
330
1A0
100
AcDbEntity
  8
1
  6
Continuous
 62
     7
 48
2.0
100
AcDbVertex
100
AcDb2dVertex
 10
-1.297253718579192
 20
-0.6614167571317395
 30
0.0
  0
VERTEX
  5
1A9
330
1A0
100
AcDbEntity
  8
1
  6
Continuous
 62
     7
 48
2.0
100
AcDbVertex
100
AcDb2dVertex
 10
-1.237725947307219
 20
-0.5761232341039246
 30
0.0
  0
VERTEX
  5
1AA
330
1A0
100
AcDbEntity
  8
1
  6
Continuous
 62
     7
 48
2.0
100
AcDbVertex
100
AcDb2dVertex
 10
-0.8476857743464521
 20
-0.5832310276895711
 30
0.0
  0
SEQEND
  5
1AB
330
1A0
100
AcDbEntity
  8
1
  6
Continuous
 62
     7
 48
2.0
370
     0
  0
POLYLINE
  5
1AC
330
1F
100
AcDbEntity
  8
1
  6
Continuous
 62
     7
 48
2.0
370
     0
100
AcDb2dPolyline
 66
     1
 10
0.0
 20
0.0
 30
0.0
 70
   128
  0
VERTEX
  5
1AD
330
1AC
100
AcDbEntity
  8
1
  6
Continuous
 62
     7
 48
2.0
100
AcDbVertex
100
AcDb2dVertex
 10
-1.16042869207363
 20
-0.5787886566985705
 30
0.0
  0
VERTEX
  5
1AE
330
1AC
100
AcDbEntity
  8
1
  6
Continuous
 62
     7
 48
2.0
100
AcDbVertex
100
AcDb2dVertex
 10
-1.231506627920659
 20
-0.6658591281227402
 30
0.0
  0
VERTEX
  5
1AF
330
1AC
100
AcDbEntity
  8
1
  6
Continuous
 62
     7
 48
2.0
100
AcDbVertex
100
AcDb2dVertex
 10
-1.232395102118723
 20
-0.7200560542133232
 30
0.0
  0
VERTEX
  5
1B0
330
1AC
100
AcDbEntity
  8
1
  6
Continuous
 62
     7
 48
2.0
100
AcDbVertex
100
AcDb2dVertex
 10
-0.8734515260910953
 20
-0.7387140123756168
 30
0.0
  0
SEQEND
  5
1B1
330
1AC
100
AcDbEntity
  8
1
  6
Continuous
 62
     7
 48
2.0
370
     0
  0
POLYLINE
  5
1B2
330
1F
100
AcDbEntity
  8
1
  6
Continuous
 62
     7
 48
2.0
370
     0
100
AcDb2dPolyline
 66
     1
 10
0.0
 20
0.0
 30
0.0
 70
   128
  0
VERTEX
  5
1B3
330
1B2
100
AcDbEntity
  8
1
  6
Continuous
 62
     7
 48
2.0
100
AcDbVertex
100
AcDb2dVertex
 10
-0.8654552583082946
 20
-0.7547065479433783
 30
0.0
  0
VERTEX
  5
1B4
330
1B2
100
AcDbEntity
  8
1
  6
Continuous
 62
     7
 48
2.0
100
AcDbVertex
100
AcDb2dVertex
 10
-1.120447353159626
 20
-0.7431563833666743
 30
0.0
  0
VERTEX
  5
1B5
330
1B2
100
AcDbEntity
  8
1
  6
Continuous
 62
     7
 48
2.0
100
AcDbVertex
100
AcDb2dVertex
 10
-1.318577099333289
 20
-0.7253868994025581
 30
0.0
  0
VERTEX
  5
1B6
330
1B2
100
AcDbEntity
  8
1
  6
Continuous
 62
     7
 48
2.0
100
AcDbVertex
100
AcDb2dVertex
 10
-1.366554706030094
 20
-0.719167580015089
 30
0.0
  0
VERTEX
  5
1B7
330
1B2
100
AcDbEntity
  8
1
  6
Continuous
 62
     7
 48
2.0
100
AcDbVertex
100
AcDb2dVertex
 10
-1.42519400310389
 20
-0.7067289412402076
 30
0.0
  0
VERTEX
  5
1B8
330
1B2
100
AcDbEntity
  8
1
  6
Continuous
 62
     7
 48
2.0
100
AcDbVertex
100
AcDb2dVertex
 10
-1.496271938951033
 20
-0.6818516636904448
 30
0.0
  0
VERTEX
  5
1B9
330
1B2
100
AcDbEntity
  8
1
  6
Continuous
 62
     7
 48
2.0
100
AcDbVertex
100
AcDb2dVertex
 10
-1.572680719986558
 20
-0.6498665925550355
 30
0.0
  0
VERTEX
  5
1BA
330
1B2
100
AcDbEntity
  8
1
  6
Continuous
 62
     7
 48
2.0
100
AcDbVertex
100
AcDb2dVertex
 10
-1.442963487065732
 20
-0.5725693373111014
 30
0.0
  0
VERTEX
  5
1BB
330
1B2
100
AcDbEntity
  8
1
  6
Continuous
 62
     7
 48
2.0
100
AcDbVertex
100
AcDb2dVertex
 10
-1.241279844099587
 20
-0.5770117083021589
 30
0.0
  0
SEQEND
  5
1BC
330
1B2
100
AcDbEntity
  8
1
  6
Continuous
 62
     7
 48
2.0
370
     0
  0
POLYLINE
  5
1BD
330
1F
100
AcDbEntity
  8
1
  6
Continuous
 62
     7
 48
2.0
370
     0
100
AcDb2dPolyline
 66
     1
 10
0.0
 20
0.0
 30
0.0
 70
   128
  0
VERTEX
  5
1BE
330
1BD
100
AcDbEntity
  8
1
  6
Continuous
 62
     7
 48
2.0
100
AcDbVertex
100
AcDb2dVertex
 10
-1.412755364330657
 20
-0.5761232341039246
 30
0.0
  0
VERTEX
  5
1BF
330
1BD
100
AcDbEntity
  8
1
  6
Continuous
 62
     7
 48
2.0
100
AcDbVertex
100
AcDb2dVertex
 10
-1.442963487065732
 20
-0.585896450284217
 30
0.0
  0
VERTEX
  5
1C0
330
1BD
100
AcDbEntity
  8
1
  6
Continuous
 62
     7
 48
2.0
100
AcDbVertex
100
AcDb2dVertex
 10
-1.554911236024829
 20
-0.6480896441586239
 30
0.0
  0
VERTEX
  5
1C1
330
1BD
100
AcDbEntity
  8
1
  6
Continuous
 62
     7
 48
2.0
100
AcDbVertex
100
AcDb2dVertex
 10
-1.461621445225525
 20
-0.6836286120868564
 30
0.0
  0
VERTEX
  5
1C2
330
1BD
100
AcDbEntity
  8
1
  6
Continuous
 62
     7
 48
2.0
100
AcDbVertex
100
AcDb2dVertex
 10
-1.355004541454925
 20
-0.7120597864294425
 30
0.0
  0
SEQEND
  5
1C3
330
1BD
100
AcDbEntity
  8
1
  6
Continuous
 62
     7
 48
2.0
370
     0
  0
POLYLINE
  5
1C4
330
1F
100
AcDbEntity
  8
1
  6
Continuous
 62
     7
 48
2.0
370
     0
100
AcDb2dPolyline
 66
     1
 10
0.0
 20
0.0
 30
0.0
 70
   128
  0
VERTEX
  5
1C5
330
1C4
100
AcDbEntity
  8
1
  6
Continuous
 62
     7
 48
2.0
100
AcDbVertex
100
AcDb2dVertex
 10
-0.8361356097712829
 20
-0.5663500179236891
 30
0.0
  0
VERTEX
  5
1C6
330
1C4
100
AcDbEntity
  8
1
  6
Continuous
 62
     7
 48
2.0
100
AcDbVertex
100
AcDb2dVertex
 10
-1.283038131409832
 20
-0.5547998533469851
 30
0.0
  0
VERTEX
  5
1C7
330
1C4
100
AcDbEntity
  8
1
  6
Continuous
 62
     7
 48
2.0
100
AcDbVertex
100
AcDb2dVertex
 10
-1.579788513571295
 20
-0.5423612145721037
 30
0.0
  0
VERTEX
  5
1C8
330
1C4
100
AcDbEntity
  8
1
  6
Continuous
 62
     7
 48
2.0
100
AcDbVertex
100
AcDb2dVertex
 10
-1.652643397814565
 20
-0.5370303693828689
 30
0.0
  0
SEQEND
  5
1C9
330
1C4
100
AcDbEntity
  8
1
  6
Continuous
 62
     7
 48
2.0
370
     0
  0
POLYLINE
  5
1CA
330
1F
100
AcDbEntity
  8
1
  6
Continuous
 62
     7
 48
2.0
370
     0
100
AcDb2dPolyline
 66
     1
 10
0.0
 20
0.0
 30
0.0
 70
   128
  0
VERTEX
  5
1CB
330
1CA
100
AcDbEntity
  8
1
  6
Continuous
 62
     7
 48
2.0
100
AcDbVertex
100
AcDb2dVertex
 10
-0.8245854451962273
 20
-0.4881642884815776
 30
0.0
  0
VERTEX
  5
1CC
330
1CA
100
AcDbEntity
  8
1
  6
Continuous
 62
     7
 48
2.0
100
AcDbVertex
100
AcDb2dVertex
 10
-1.293699821786824
 20
-0.4508483721568766
 30
0.0
  0
VERTEX
  5
1CD
330
1CA
100
AcDbEntity
  8
1
  6
Continuous
 62
     7
 48
2.0
100
AcDbVertex
100
AcDb2dVertex
 10
-1.572680719986558
 20
-0.4277480430035254
 30
0.0
  0
SEQEND
  5
1CE
330
1CA
100
AcDbEntity
  8
1
  6
Continuous
 62
     7
 48
2.0
370
     0
  0
POLYLINE
  5
1CF
330
1F
100
AcDbEntity
  8
1
  6
Continuous
 62
     7
 48
2.0
370
     0
100
AcDb2dPolyline
 66
     1
 10
0.0
 20
0.0
 30
0.0
 70
   128
  0
VERTEX
  5
1D0
330
1CF
100
AcDbEntity
  8
1
  6
Continuous
 62
     7
 48
2.0
100
AcDbVertex
100
AcDb2dVertex
 10
-0.8467973001483884
 20
-0.4650639593282264
 30
0.0
  0
VERTEX
  5
1D1
330
1CF
100
AcDbEntity
  8
1
  6
Continuous
 62
     7
 48
2.0
100
AcDbVertex
100
AcDb2dVertex
 10
-1.116893456367258
 20
-0.4428521043730527
 30
0.0
  0
VERTEX
  5
1D2
330
1CF
100
AcDbEntity
  8
1
  6
Continuous
 62
     7
 48
2.0
100
AcDbVertex
100
AcDb2dVertex
 10
-1.441186538669491
 20
-0.4170863526250557
 30
0.0
  0
VERTEX
  5
1D3
330
1CF
100
AcDbEntity
  8
1
  6
Continuous
 62
     7
 48
2.0
100
AcDbVertex
100
AcDb2dVertex
 10
-1.57090377159043
 20
-0.4073131364448201
 30
0.0
  0
SEQEND
  5
1D4
330
1CF
100
AcDbEntity
  8
1
  6
Continuous
 62
     7
 48
2.0
370
     0
  0
LINE
  5
1D5
330
1F
100
AcDbEntity
  8
1
  6
Continuous
 62
     7
 48
2.0
370
     0
100
AcDbLine
 10
-0.9054365972221845
 20
-0.801795680448258
 30
0.0
 11
-1.080466014245623
 21
-0.7937994126644341
 31
0.0
  0
POLYLINE
  5
1D6
330
1F
100
AcDbEntity
  8
1
  6
Continuous
 62
     7
 48
2.0
370
     0
100
AcDb2dPolyline
 66
     1
 10
0.0
 20
0.0
 30
0.0
 70
   128
  0
VERTEX
  5
1D7
330
1D6
100
AcDbEntity
  8
1
  6
Continuous
 62
     7
 48
2.0
100
AcDbVertex
100
AcDb2dVertex
 10
-1.358558438247293
 20
-0.7769184028984952
 30
0.0
  0
VERTEX
  5
1D8
330
1D6
100
AcDbEntity
  8
1
  6
Continuous
 62
     7
 48
2.0
100
AcDbVertex
100
AcDb2dVertex
 10
-1.563795978005693
 20
-0.7644797641236138
 30
0.0
  0
VERTEX
  5
1D9
330
1D6
100
AcDbEntity
  8
1
  6
Continuous
 62
     7
 48
2.0
100
AcDbVertex
100
AcDb2dVertex
 10
-1.728163704652026
 20
-0.7520411253487325
 30
0.0
  0
VERTEX
  5
1DA
330
1D6
100
AcDbEntity
  8
1
  6
Continuous
 62
     7
 48
2.0
100
AcDbVertex
100
AcDb2dVertex
 10
-1.805460959885728
 20
-0.7458218059612634
 30
0.0
  0
VERTEX
  5
1DB
330
1D6
100
AcDbEntity
  8
1
  6
Continuous
 62
     7
 48
2.0
100
AcDbVertex
100
AcDb2dVertex
 10
-1.848107721394037
 20
-0.7404909607720853
 30
0.0
  0
VERTEX
  5
1DC
330
1D6
100
AcDbEntity
  8
1
  6
Continuous
 62
     7
 48
2.0
100
AcDbVertex
100
AcDb2dVertex
 10
-1.892531431298359
 20
-0.7280523219971471
 30
0.0
  0
VERTEX
  5
1DD
330
1D6
100
AcDbEntity
  8
1
  6
Continuous
 62
     7
 48
2.0
100
AcDbVertex
100
AcDb2dVertex
 10
-1.931624296014299
 20
-0.7120597864294425
 30
0.0
  0
VERTEX
  5
1DE
330
1D6
100
AcDbEntity
  8
1
  6
Continuous
 62
     7
 48
2.0
100
AcDbVertex
100
AcDb2dVertex
 10
-1.960055470353133
 20
-0.7013980960509727
 30
0.0
  0
VERTEX
  5
1DF
330
1D6
100
AcDbEntity
  8
1
  6
Continuous
 62
     7
 48
2.0
100
AcDbVertex
100
AcDb2dVertex
 10
-1.996482912474768
 20
-0.6072198310411565
 30
0.0
  0
VERTEX
  5
1E0
330
1D6
100
AcDbEntity
  8
1
  6
Continuous
 62
     7
 48
2.0
100
AcDbVertex
100
AcDb2dVertex
 10
-2.024025612615425
 20
-0.5414727403739263
 30
0.0
  0
VERTEX
  5
1E1
330
1D6
100
AcDbEntity
  8
1
  6
Continuous
 62
     7
 48
2.0
100
AcDbVertex
100
AcDb2dVertex
 10
-1.974271057522493
 20
-0.5850079760859828
 30
0.0
  0
VERTEX
  5
1E2
330
1D6
100
AcDbEntity
  8
1
  6
Continuous
 62
     7
 48
2.0
100
AcDbVertex
100
AcDb2dVertex
 10
-1.935178192806667
 20
-0.6161045730232146
 30
0.0
  0
VERTEX
  5
1E3
330
1D6
100
AcDbEntity
  8
1
  6
Continuous
 62
     7
 48
2.0
100
AcDbVertex
100
AcDb2dVertex
 10
-1.912966337854506
 20
-0.6241008408070954
 30
0.0
  0
VERTEX
  5
1E4
330
1D6
100
AcDbEntity
  8
1
  6
Continuous
 62
     7
 48
2.0
100
AcDbVertex
100
AcDb2dVertex
 10
-1.825895866441762
 20
-0.6312086343927419
 30
0.0
  0
VERTEX
  5
1E5
330
1D6
100
AcDbEntity
  8
1
  6
Continuous
 62
     7
 48
2.0
100
AcDbVertex
100
AcDb2dVertex
 10
-1.813457227668529
 20
-0.6125506762303914
 30
0.0
  0
VERTEX
  5
1E6
330
1D6
100
AcDbEntity
  8
1
  6
Continuous
 62
     7
 48
2.0
100
AcDbVertex
100
AcDb2dVertex
 10
-1.642870181635637
 20
-0.5414727403739263
 30
0.0
  0
VERTEX
  5
1E7
330
1D6
100
AcDbEntity
  8
1
  6
Continuous
 62
     7
 48
2.0
100
AcDbVertex
100
AcDb2dVertex
 10
-1.627766120268099
 20
-0.5157069886259293
 30
0.0
  0
VERTEX
  5
1E8
330
1D6
100
AcDbEntity
  8
1
  6
Continuous
 62
     7
 48
2.0
100
AcDbVertex
100
AcDb2dVertex
 10
-1.608219687910129
 20
-0.4659524335264038
 30
0.0
  0
VERTEX
  5
1E9
330
1D6
100
AcDbEntity
  8
1
  6
Continuous
 62
     7
 48
2.0
100
AcDbVertex
100
AcDb2dVertex
 10
-1.59666952333496
 20
-0.3904321266788813
 30
0.0
  0
VERTEX
  5
1EA
330
1D6
100
AcDbEntity
  8
1
  6
Continuous
 62
     7
 48
2.0
100
AcDbVertex
100
AcDb2dVertex
 10
-1.59666952333496
 20
-0.2056294934520153
 30
0.0
  0
SEQEND
  5
1EB
330
1D6
100
AcDbEntity
  8
1
  6
Continuous
 62
     7
 48
2.0
370
     0
  0
POLYLINE
  5
1EC
330
1F
100
AcDbEntity
  8
1
  6
Continuous
 62
     7
 48
2.0
370
     0
100
AcDb2dPolyline
 66
     1
 10
0.0
 20
0.0
 30
0.0
 70
   128
  0
VERTEX
  5
1ED
330
1EC
100
AcDbEntity
  8
1
  6
Continuous
 62
     7
 48
2.0
100
AcDbVertex
100
AcDb2dVertex
 10
-1.923628028231498
 20
-0.625877789203507
 30
0.0
  0
VERTEX
  5
1EE
330
1EC
100
AcDbEntity
  8
1
  6
Continuous
 62
     7
 48
2.0
100
AcDbVertex
100
AcDb2dVertex
 10
-1.890754482902231
 20
-0.7022865702492069
 30
0.0
  0
VERTEX
  5
1EF
330
1EC
100
AcDbEntity
  8
1
  6
Continuous
 62
     7
 48
2.0
100
AcDbVertex
100
AcDb2dVertex
 10
-1.872096524742439
 20
-0.7298292703935587
 30
0.0
  0
VERTEX
  5
1F0
330
1EC
100
AcDbEntity
  8
1
  6
Continuous
 62
     7
 48
2.0
100
AcDbVertex
100
AcDb2dVertex
 10
-1.951170728372269
 20
-0.7005096218527953
 30
0.0
  0
VERTEX
  5
1F1
330
1EC
100
AcDbEntity
  8
1
  6
Continuous
 62
     7
 48
2.0
100
AcDbVertex
100
AcDb2dVertex
 10
-1.96183241874926
 20
-0.6836286120868564
 30
0.0
  0
VERTEX
  5
1F2
330
1EC
100
AcDbEntity
  8
1
  6
Continuous
 62
     7
 48
2.0
100
AcDbVertex
100
AcDb2dVertex
 10
-2.012475448040369
 20
-0.557465275941631
 30
0.0
  0
SEQEND
  5
1F3
330
1EC
100
AcDbEntity
  8
1
  6
Continuous
 62
     7
 48
2.0
370
     0
  0
POLYLINE
  5
1F4
330
1F
100
AcDbEntity
  8
1
  6
Continuous
 62
     7
 48
2.0
370
     0
100
AcDb2dPolyline
 66
     1
 10
0.0
 20
0.0
 30
0.0
 70
   128
  0
VERTEX
  5
1F5
330
1F4
100
AcDbEntity
  8
1
  6
Continuous
 62
     7
 48
2.0
100
AcDbVertex
100
AcDb2dVertex
 10
-1.920962605637193
 20
-0.7058404670420302
 30
0.0
  0
VERTEX
  5
1F6
330
1F4
100
AcDbEntity
  8
1
  6
Continuous
 62
     7
 48
2.0
100
AcDbVertex
100
AcDb2dVertex
 10
-1.938732089599036
 20
-0.6694130249155634
 30
0.0
  0
VERTEX
  5
1F7
330
1F4
100
AcDbEntity
  8
1
  6
Continuous
 62
     7
 48
2.0
100
AcDbVertex
100
AcDb2dVertex
 10
-1.963609367145501
 20
-0.6010005116536874
 30
0.0
  0
VERTEX
  5
1F8
330
1F4
100
AcDbEntity
  8
1
  6
Continuous
 62
     7
 48
2.0
100
AcDbVertex
100
AcDb2dVertex
 10
-1.980490376909167
 20
-0.5494690081577502
 30
0.0
  0
VERTEX
  5
1F9
330
1F4
100
AcDbEntity
  8
1
  6
Continuous
 62
     7
 48
2.0
100
AcDbVertex
100
AcDb2dVertex
 10
-1.997371386672832
 20
-0.4783910723012852
 30
0.0
  0
SEQEND
  5
1FA
330
1F4
100
AcDbEntity
  8
1
  6
Continuous
 62
     7
 48
2.0
370
     0
  0
POLYLINE
  5
1FB
330
1F
100
AcDbEntity
  8
1
  6
Continuous
 62
     7
 48
2.0
370
     0
100
AcDb2dPolyline
 66
     1
 10
0.0
 20
0.0
 30
0.0
 70
   128
  0
VERTEX
  5
1FC
330
1FB
100
AcDbEntity
  8
1
  6
Continuous
 62
     7
 48
2.0
100
AcDbVertex
100
AcDb2dVertex
 10
-1.813457227668529
 20
-0.6383164279783884
 30
0.0
  0
VERTEX
  5
1FD
330
1FB
100
AcDbEntity
  8
1
  6
Continuous
 62
     7
 48
2.0
100
AcDbVertex
100
AcDb2dVertex
 10
-1.77614131134883
 20
-0.6765208185012099
 30
0.0
  0
VERTEX
  5
1FE
330
1FB
100
AcDbEntity
  8
1
  6
Continuous
 62
     7
 48
2.0
100
AcDbVertex
100
AcDb2dVertex
 10
-1.7423792918215
 20
-0.704951992843796
 30
0.0
  0
VERTEX
  5
1FF
330
1FB
100
AcDbEntity
  8
1
  6
Continuous
 62
     7
 48
2.0
100
AcDbVertex
100
AcDb2dVertex
 10
-1.679297623757158
 20
-0.7431563833666743
 30
0.0
  0
SEQEND
  5
200
330
1FB
100
AcDbEntity
  8
1
  6
Continuous
 62
     7
 48
2.0
370
     0
  0
POLYLINE
  5
201
330
1F
100
AcDbEntity
  8
1
  6
Continuous
 62
     7
 48
2.0
370
     0
100
AcDb2dPolyline
 66
     1
 10
0.0
 20
0.0
 30
0.0
 70
   128
  0
VERTEX
  5
202
330
201
100
AcDbEntity
  8
1
  6
Continuous
 62
     7
 48
2.0
100
AcDbVertex
100
AcDb2dVertex
 10
-1.345231325275996
 20
-0.7769184028984952
 30
0.0
  0
VERTEX
  5
203
330
201
100
AcDbEntity
  8
1
  6
Continuous
 62
     7
 48
2.0
100
AcDbVertex
100
AcDb2dVertex
 10
-1.335458109096955
 20
-0.7866916190787876
 30
0.0
  0
VERTEX
  5
204
330
201
100
AcDbEntity
  8
1
  6
Continuous
 62
     7
 48
2.0
100
AcDbVertex
100
AcDb2dVertex
 10
-1.297253718579192
 20
-0.7982417836554347
 30
0.0
  0
VERTEX
  5
205
330
201
100
AcDbEntity
  8
1
  6
Continuous
 62
     7
 48
2.0
100
AcDbVertex
100
AcDb2dVertex
 10
-1.217291040751299
 20
-0.8009072062500806
 30
0.0
  0
VERTEX
  5
206
330
201
100
AcDbEntity
  8
1
  6
Continuous
 62
     7
 48
2.0
100
AcDbVertex
100
AcDb2dVertex
 10
-1.142659208111787
 20
-0.8000187320518464
 30
0.0
  0
VERTEX
  5
207
330
201
100
AcDbEntity
  8
1
  6
Continuous
 62
     7
 48
2.0
100
AcDbVertex
100
AcDb2dVertex
 10
-1.102677869197898
 20
-0.7920224642680225
 30
0.0
  0
VERTEX
  5
208
330
201
100
AcDbEntity
  8
1
  6
Continuous
 62
     7
 48
2.0
100
AcDbVertex
100
AcDb2dVertex
 10
-1.108008714386393
 20
-0.7778068770967295
 30
0.0
  0
VERTEX
  5
209
330
201
100
AcDbEntity
  8
1
  6
Continuous
 62
     7
 48
2.0
100
AcDbVertex
100
AcDb2dVertex
 10
-1.148878527498461
 20
-0.7715875577092604
 30
0.0
  0
VERTEX
  5
20A
330
201
100
AcDbEntity
  8
1
  6
Continuous
 62
     7
 48
2.0
100
AcDbVertex
100
AcDb2dVertex
 10
-1.170201908252558
 20
-0.7760299287003178
 30
0.0
  0
VERTEX
  5
20B
330
201
100
AcDbEntity
  8
1
  6
Continuous
 62
     7
 48
2.0
100
AcDbVertex
100
AcDb2dVertex
 10
-1.187971392214287
 20
-0.784914670682376
 30
0.0
  0
VERTEX
  5
20C
330
201
100
AcDbEntity
  8
1
  6
Continuous
 62
     7
 48
2.0
100
AcDbVertex
100
AcDb2dVertex
 10
-1.224398834335922
 20
-0.7866916190787876
 30
0.0
  0
VERTEX
  5
20D
330
201
100
AcDbEntity
  8
1
  6
Continuous
 62
     7
 48
2.0
100
AcDbVertex
100
AcDb2dVertex
 10
-1.252830008674756
 20
-0.7840261964841417
 30
0.0
  0
VERTEX
  5
20E
330
201
100
AcDbEntity
  8
1
  6
Continuous
 62
     7
 48
2.0
100
AcDbVertex
100
AcDb2dVertex
 10
-1.27326491523079
 20
-0.7813607738895527
 30
0.0
  0
VERTEX
  5
20F
330
201
100
AcDbEntity
  8
1
  6
Continuous
 62
     7
 48
2.0
100
AcDbVertex
100
AcDb2dVertex
 10
-1.282149657211654
 20
-0.773364506105672
 30
0.0
  0
VERTEX
  5
210
330
201
100
AcDbEntity
  8
1
  6
Continuous
 62
     7
 48
2.0
100
AcDbVertex
100
AcDb2dVertex
 10
-1.307915408956298
 20
-0.7689221351146713
 30
0.0
  0
VERTEX
  5
211
330
201
100
AcDbEntity
  8
1
  6
Continuous
 62
     7
 48
2.0
100
AcDbVertex
100
AcDb2dVertex
 10
-1.325684892918026
 20
-0.7689221351146713
 30
0.0
  0
VERTEX
  5
212
330
201
100
AcDbEntity
  8
1
  6
Continuous
 62
     7
 48
2.0
100
AcDbVertex
100
AcDb2dVertex
 10
-1.342565902681692
 20
-0.7751414545020836
 30
0.0
  0
SEQEND
  5
213
330
201
100
AcDbEntity
  8
1
  6
Continuous
 62
     7
 48
2.0
370
     0
  0
POLYLINE
  5
214
330
1F
100
AcDbEntity
  8
1
  6
Continuous
 62
     7
 48
2.0
370
     0
100
AcDb2dPolyline
 66
     1
 10
0.0
 20
0.0
 30
0.0
 70
   128
  0
VERTEX
  5
215
330
214
100
AcDbEntity
  8
1
  6
Continuous
 62
     7
 48
2.0
100
AcDbVertex
100
AcDb2dVertex
 10
-2.159854177630883
 20
-0.0003237335956143
 30
0.0
  0
VERTEX
  5
216
330
214
100
AcDbEntity
  8
1
  6
Continuous
 62
     7
 48
2.0
100
AcDbVertex
100
AcDb2dVertex
 10
-2.152845839571548
 20
-0.3126953737237201
 30
0.0
  0
VERTEX
  5
217
330
214
100
AcDbEntity
  8
1
  6
Continuous
 62
     7
 48
2.0
100
AcDbVertex
100
AcDb2dVertex
 10
-2.146838692663415
 20
-0.440847841468603
 30
0.0
  0
VERTEX
  5
218
330
214
100
AcDbEntity
  8
1
  6
Continuous
 62
     7
 48
2.0
100
AcDbVertex
100
AcDb2dVertex
 10
-2.109794620063759
 20
-0.4959133549527266
 30
0.0
  0
VERTEX
  5
219
330
214
100
AcDbEntity
  8
1
  6
Continuous
 62
     7
 48
2.0
100
AcDbVertex
100
AcDb2dVertex
 10
-2.087768414734093
 20
-0.5229455161176517
 30
0.0
  0
VERTEX
  5
21A
330
214
100
AcDbEntity
  8
1
  6
Continuous
 62
     7
 48
2.0
100
AcDbVertex
100
AcDb2dVertex
 10
-2.07275054746399
 20
-0.5339586188144878
 30
0.0
  0
VERTEX
  5
21B
330
214
100
AcDbEntity
  8
1
  6
Continuous
 62
     7
 48
2.0
100
AcDbVertex
100
AcDb2dVertex
 10
-2.048721959831688
 20
-0.5419681480485607
 30
0.0
  0
VERTEX
  5
21C
330
214
100
AcDbEntity
  8
1
  6
Continuous
 62
     7
 48
2.0
100
AcDbVertex
100
AcDb2dVertex
 10
-2.024693372199501
 20
-0.5429693392028341
 30
0.0
  0
SEQEND
  5
21D
330
214
100
AcDbEntity
  8
1
  6
Continuous
 62
     7
 48
2.0
370
     0
  0
POLYLINE
  5
21E
330
1F
100
AcDbEntity
  8
1
  6
Continuous
 62
     7
 48
2.0
370
     0
100
AcDb2dPolyline
 66
     1
 10
0.0
 20
0.0
 30
0.0
 70
   128
  0
VERTEX
  5
21F
330
21E
100
AcDbEntity
  8
1
  6
Continuous
 62
     7
 48
2.0
100
AcDbVertex
100
AcDb2dVertex
 10
-2.07275054746399
 20
-0.5419681480485607
 30
0.0
  0
VERTEX
  5
220
330
21E
100
AcDbEntity
  8
1
  6
Continuous
 62
     7
 48
2.0
100
AcDbVertex
100
AcDb2dVertex
 10
-2.048721959831688
 20
-0.6240658226976095
 30
0.0
  0
VERTEX
  5
221
330
21E
100
AcDbEntity
  8
1
  6
Continuous
 62
     7
 48
2.0
100
AcDbVertex
100
AcDb2dVertex
 10
-2.011677887231919
 20
-0.7071646885009315
 30
0.0
  0
VERTEX
  5
222
330
21E
100
AcDbEntity
  8
1
  6
Continuous
 62
     7
 48
2.0
100
AcDbVertex
100
AcDb2dVertex
 10
-1.986648108448414
 20
-0.7472123346712394
 30
0.0
  0
SEQEND
  5
223
330
21E
100
AcDbEntity
  8
1
  6
Continuous
 62
     7
 48
2.0
370
     0
  0
POLYLINE
  5
224
330
1F
100
AcDbEntity
  8
1
  6
Continuous
 62
     7
 48
2.0
370
     0
100
AcDb2dPolyline
 66
     1
 10
0.0
 20
0.0
 30
0.0
 70
   128
  0
VERTEX
  5
225
330
224
100
AcDbEntity
  8
1
  6
Continuous
 62
     7
 48
2.0
100
AcDbVertex
100
AcDb2dVertex
 10
-2.09577794394486
 20
0.0016786487129323
 30
0.0
  0
VERTEX
  5
226
330
224
100
AcDbEntity
  8
1
  6
Continuous
 62
     7
 48
2.0
100
AcDbVertex
100
AcDb2dVertex
 10
-2.094776752793543
 20
-0.1835417148246208
 30
0.0
  0
VERTEX
  5
227
330
224
100
AcDbEntity
  8
1
  6
Continuous
 62
     7
 48
2.0
100
AcDbVertex
100
AcDb2dVertex
 10
-2.084764841280141
 20
-0.3197037118035198
 30
0.0
  0
VERTEX
  5
228
330
224
100
AcDbEntity
  8
1
  6
Continuous
 62
     7
 48
2.0
100
AcDbVertex
100
AcDb2dVertex
 10
-2.059735062496522
 20
-0.4518609441654391
 30
0.0
  0
VERTEX
  5
229
330
224
100
AcDbEntity
  8
1
  6
Continuous
 62
     7
 48
2.0
100
AcDbVertex
100
AcDb2dVertex
 10
-2.033704092561585
 20
-0.5419681480485607
 30
0.0
  0
SEQEND
  5
22A
330
224
100
AcDbEntity
  8
1
  6
Continuous
 62
     7
 48
2.0
370
     0
  0
POLYLINE
  5
22B
330
1F
100
AcDbEntity
  8
1
  6
Continuous
 62
     7
 48
2.0
370
     0
100
AcDb2dPolyline
 66
     1
 10
0.0
 20
0.0
 30
0.0
 70
   128
  0
VERTEX
  5
22C
330
22B
100
AcDbEntity
  8
1
  6
Continuous
 62
     7
 48
2.0
100
AcDbVertex
100
AcDb2dVertex
 10
-2.088769605885524
 20
-0.0013249247498877
 30
0.0
  0
VERTEX
  5
22D
330
22B
100
AcDbEntity
  8
1
  6
Continuous
 62
     7
 48
2.0
100
AcDbVertex
100
AcDb2dVertex
 10
-2.073751738615307
 20
-0.2786548744789954
 30
0.0
  0
VERTEX
  5
22E
330
22B
100
AcDbEntity
  8
1
  6
Continuous
 62
     7
 48
2.0
100
AcDbVertex
100
AcDb2dVertex
 10
-2.069746974009924
 20
-0.304685844489704
 30
0.0
  0
VERTEX
  5
22F
330
22B
100
AcDbEntity
  8
1
  6
Continuous
 62
     7
 48
2.0
100
AcDbVertex
100
AcDb2dVertex
 10
-2.031701710258837
 20
-0.392790666064279
 30
0.0
  0
VERTEX
  5
230
330
22B
100
AcDbEntity
  8
1
  6
Continuous
 62
     7
 48
2.0
100
AcDbVertex
100
AcDb2dVertex
 10
-2.025694563350818
 20
-0.3857823279844794
 30
0.0
  0
VERTEX
  5
231
330
22B
100
AcDbEntity
  8
1
  6
Continuous
 62
     7
 48
2.0
100
AcDbVertex
100
AcDb2dVertex
 10
-2.050724342134437
 20
-0.2205857875321087
 30
0.0
  0
VERTEX
  5
232
330
22B
100
AcDbEntity
  8
1
  6
Continuous
 62
     7
 48
2.0
100
AcDbVertex
100
AcDb2dVertex
 10
-2.059735062496522
 20
0.0036810310214221
 30
0.0
  0
SEQEND
  5
233
330
22B
100
AcDbEntity
  8
1
  6
Continuous
 62
     7
 48
2.0
370
     0
  0
POLYLINE
  5
234
330
1F
100
AcDbEntity
  8
1
  6
Continuous
 62
     7
 48
2.0
370
     0
100
AcDb2dPolyline
 66
     1
 10
0.0
 20
0.0
 30
0.0
 70
   128
  0
VERTEX
  5
235
330
234
100
AcDbEntity
  8
1
  6
Continuous
 62
     7
 48
2.0
100
AcDbVertex
100
AcDb2dVertex
 10
-2.040712430620921
 20
0.000677457558659
 30
0.0
  0
VERTEX
  5
236
330
234
100
AcDbEntity
  8
1
  6
Continuous
 62
     7
 48
2.0
100
AcDbVertex
100
AcDb2dVertex
 10
-2.034705283712903
 20
-0.19755839098422
 30
0.0
  0
VERTEX
  5
237
330
234
100
AcDbEntity
  8
1
  6
Continuous
 62
     7
 48
2.0
100
AcDbVertex
100
AcDb2dVertex
 10
-2.020688607594117
 20
-0.3227072852662829
 30
0.0
  0
VERTEX
  5
238
330
234
100
AcDbEntity
  8
1
  6
Continuous
 62
     7
 48
2.0
100
AcDbVertex
100
AcDb2dVertex
 10
-2.009675504929284
 20
-0.4058061510696049
 30
0.0
  0
VERTEX
  5
239
330
234
100
AcDbEntity
  8
1
  6
Continuous
 62
     7
 48
2.0
100
AcDbVertex
100
AcDb2dVertex
 10
-1.996660019961816
 20
-0.4788931053303642
 30
0.0
  0
SEQEND
  5
23A
330
234
100
AcDbEntity
  8
1
  6
Continuous
 62
     7
 48
2.0
370
     0
  0
POLYLINE
  5
23B
330
1F
100
AcDbEntity
  8
1
  6
Continuous
 62
     7
 48
2.0
370
     0
100
AcDb2dPolyline
 66
     1
 10
0.0
 20
0.0
 30
0.0
 70
   128
  0
VERTEX
  5
23C
330
23B
100
AcDbEntity
  8
1
  6
Continuous
 62
     7
 48
2.0
100
AcDbVertex
100
AcDb2dVertex
 10
-1.926576639367774
 20
-0.6190598669263565
 30
0.0
  0
VERTEX
  5
23D
330
23B
100
AcDbEntity
  8
1
  6
Continuous
 62
     7
 48
2.0
100
AcDbVertex
100
AcDb2dVertex
 10
-1.964621903118861
 20
-0.5179395603463988
 30
0.0
  0
VERTEX
  5
23E
330
23B
100
AcDbEntity
  8
1
  6
Continuous
 62
     7
 48
2.0
100
AcDbVertex
100
AcDb2dVertex
 10
-1.987649299599731
 20
-0.4128144891494046
 30
0.0
  0
VERTEX
  5
23F
330
23B
100
AcDbEntity
  8
1
  6
Continuous
 62
     7
 48
2.0
100
AcDbVertex
100
AcDb2dVertex
 10
-2.014681460685985
 20
-0.2776536833247789
 30
0.0
  0
VERTEX
  5
240
330
23B
100
AcDbEntity
  8
1
  6
Continuous
 62
     7
 48
2.0
100
AcDbVertex
100
AcDb2dVertex
 10
-2.023692181048069
 20
-0.1474988332713494
 30
0.0
  0
VERTEX
  5
241
330
23B
100
AcDbEntity
  8
1
  6
Continuous
 62
     7
 48
2.0
100
AcDbVertex
100
AcDb2dVertex
 10
-2.029699327956202
 20
-0.0013249247498877
 30
0.0
  0
SEQEND
  5
242
330
23B
100
AcDbEntity
  8
1
  6
Continuous
 62
     7
 48
2.0
370
     0
  0
POLYLINE
  5
243
330
1F
100
AcDbEntity
  8
1
  6
Continuous
 62
     7
 48
2.0
370
     0
100
AcDb2dPolyline
 66
     1
 10
0.0
 20
0.0
 30
0.0
 70
   128
  0
VERTEX
  5
244
330
243
100
AcDbEntity
  8
1
  6
Continuous
 62
     7
 48
2.0
100
AcDbVertex
100
AcDb2dVertex
 10
-2.020688607594117
 20
-0.0013249247498877
 30
0.0
  0
VERTEX
  5
245
330
243
100
AcDbEntity
  8
1
  6
Continuous
 62
     7
 48
2.0
100
AcDbVertex
100
AcDb2dVertex
 10
-2.009675504929284
 20
-0.2346024636917079
 30
0.0
  0
VERTEX
  5
246
330
243
100
AcDbEntity
  8
1
  6
Continuous
 62
     7
 48
2.0
100
AcDbVertex
100
AcDb2dVertex
 10
-1.999663593415882
 20
-0.3227072852662829
 30
0.0
  0
VERTEX
  5
247
330
243
100
AcDbEntity
  8
1
  6
Continuous
 62
     7
 48
2.0
100
AcDbVertex
100
AcDb2dVertex
 10
-1.96362071196743
 20
-0.4498585618569493
 30
0.0
  0
VERTEX
  5
248
330
243
100
AcDbEntity
  8
1
  6
Continuous
 62
     7
 48
2.0
100
AcDbVertex
100
AcDb2dVertex
 10
-1.943596888940625
 20
-0.4798942964846376
 30
0.0
  0
VERTEX
  5
249
330
243
100
AcDbEntity
  8
1
  6
Continuous
 62
     7
 48
2.0
100
AcDbVertex
100
AcDb2dVertex
 10
-1.925575448216343
 20
-0.491908590335747
 30
0.0
  0
VERTEX
  5
24A
330
243
100
AcDbEntity
  8
1
  6
Continuous
 62
     7
 48
2.0
100
AcDbVertex
100
AcDb2dVertex
 10
-1.909556389794922
 20
-0.4969145461069999
 30
0.0
  0
VERTEX
  5
24B
330
243
100
AcDbEntity
  8
1
  6
Continuous
 62
     7
 48
2.0
100
AcDbVertex
100
AcDb2dVertex
 10
-1.876517081800536
 20
-0.5019205018783097
 30
0.0
  0
VERTEX
  5
24C
330
243
100
AcDbEntity
  8
1
  6
Continuous
 62
     7
 48
2.0
100
AcDbVertex
100
AcDb2dVertex
 10
-1.787411069330894
 20
-0.4498585618569493
 30
0.0
  0
SEQEND
  5
24D
330
243
100
AcDbEntity
  8
1
  6
Continuous
 62
     7
 48
2.0
370
     0
  0
POLYLINE
  5
24E
330
1F
100
AcDbEntity
  8
1
  6
Continuous
 62
     7
 48
2.0
370
     0
100
AcDb2dPolyline
 66
     1
 10
0.0
 20
0.0
 30
0.0
 70
   128
  0
VERTEX
  5
24F
330
24E
100
AcDbEntity
  8
1
  6
Continuous
 62
     7
 48
2.0
100
AcDbVertex
100
AcDb2dVertex
 10
-1.955611182756776
 20
-0.5349598099687611
 30
0.0
  0
VERTEX
  5
250
330
24E
100
AcDbEntity
  8
1
  6
Continuous
 62
     7
 48
2.0
100
AcDbVertex
100
AcDb2dVertex
 10
-1.926576639367774
 20
-0.5529812507453968
 30
0.0
  0
VERTEX
  5
251
330
24E
100
AcDbEntity
  8
1
  6
Continuous
 62
     7
 48
2.0
100
AcDbVertex
100
AcDb2dVertex
 10
-1.895539713676023
 20
-0.5589883976709231
 30
0.0
  0
VERTEX
  5
252
330
24E
100
AcDbEntity
  8
1
  6
Continuous
 62
     7
 48
2.0
100
AcDbVertex
100
AcDb2dVertex
 10
-1.839473009200766
 20
-0.5489764861283604
 30
0.0
  0
VERTEX
  5
253
330
24E
100
AcDbEntity
  8
1
  6
Continuous
 62
     7
 48
2.0
100
AcDbVertex
100
AcDb2dVertex
 10
-1.722333644493553
 20
-0.5069264576495627
 30
0.0
  0
SEQEND
  5
254
330
24E
100
AcDbEntity
  8
1
  6
Continuous
 62
     7
 48
2.0
370
     0
  0
POLYLINE
  5
255
330
1F
100
AcDbEntity
  8
1
  6
Continuous
 62
     7
 48
2.0
370
     0
100
AcDb2dPolyline
 66
     1
 10
0.0
 20
0.0
 30
0.0
 70
   128
  0
VERTEX
  5
256
330
255
100
AcDbEntity
  8
1
  6
Continuous
 62
     7
 48
2.0
100
AcDbVertex
100
AcDb2dVertex
 10
-1.856493258773618
 20
0.000677457558659
 30
0.0
  0
VERTEX
  5
257
330
255
100
AcDbEntity
  8
1
  6
Continuous
 62
     7
 48
2.0
100
AcDbVertex
100
AcDb2dVertex
 10
-1.851487303016917
 20
-0.1765333767448212
 30
0.0
  0
VERTEX
  5
258
330
255
100
AcDbEntity
  8
1
  6
Continuous
 62
     7
 48
2.0
100
AcDbVertex
100
AcDb2dVertex
 10
-1.846481347260216
 20
-0.2506215221597969
 30
0.0
  0
VERTEX
  5
259
330
255
100
AcDbEntity
  8
1
  6
Continuous
 62
     7
 48
2.0
100
AcDbVertex
100
AcDb2dVertex
 10
-1.831463479989999
 20
-0.3227072852662829
 30
0.0
  0
VERTEX
  5
25A
330
255
100
AcDbEntity
  8
1
  6
Continuous
 62
     7
 48
2.0
100
AcDbVertex
100
AcDb2dVertex
 10
-1.796421789692978
 20
-0.4198228272292042
 30
0.0
  0
VERTEX
  5
25B
330
255
100
AcDbEntity
  8
1
  6
Continuous
 62
     7
 48
2.0
100
AcDbVertex
100
AcDb2dVertex
 10
-1.788412260482211
 20
-0.4498585618569493
 30
0.0
  0
VERTEX
  5
25C
330
255
100
AcDbEntity
  8
1
  6
Continuous
 62
     7
 48
2.0
100
AcDbVertex
100
AcDb2dVertex
 10
-1.758376525941891
 20
-0.4798942964846376
 30
0.0
  0
VERTEX
  5
25D
330
255
100
AcDbEntity
  8
1
  6
Continuous
 62
     7
 48
2.0
100
AcDbVertex
100
AcDb2dVertex
 10
-1.720331262190804
 20
-0.5069264576495627
 30
0.0
  0
VERTEX
  5
25E
330
255
100
AcDbEntity
  8
1
  6
Continuous
 62
     7
 48
2.0
100
AcDbVertex
100
AcDb2dVertex
 10
-1.687291954196418
 20
-0.523946707271925
 30
0.0
  0
VERTEX
  5
25F
330
255
100
AcDbEntity
  8
1
  6
Continuous
 62
     7
 48
2.0
100
AcDbVertex
100
AcDb2dVertex
 10
-1.65124907274808
 20
-0.5359610011230345
 30
0.0
  0
SEQEND
  5
260
330
255
100
AcDbEntity
  8
1
  6
Continuous
 62
     7
 48
2.0
370
     0
  0
POLYLINE
  5
261
330
1F
100
AcDbEntity
  8
1
  6
Continuous
 62
     7
 48
2.0
370
     0
100
AcDb2dPolyline
 66
     1
 10
0.0
 20
0.0
 30
0.0
 70
   128
  0
VERTEX
  5
262
330
261
100
AcDbEntity
  8
1
  6
Continuous
 62
     7
 48
2.0
100
AcDbVertex
100
AcDb2dVertex
 10
-1.727339600250254
 20
0.0016786487129323
 30
0.0
  0
VERTEX
  5
263
330
261
100
AcDbEntity
  8
1
  6
Continuous
 62
     7
 48
2.0
100
AcDbVertex
100
AcDb2dVertex
 10
-1.732345556006955
 20
-0.1134583340266246
 30
0.0
  0
VERTEX
  5
264
330
261
100
AcDbEntity
  8
1
  6
Continuous
 62
     7
 48
2.0
100
AcDbVertex
100
AcDb2dVertex
 10
-1.744359849823105
 20
-0.1925524352129102
 30
0.0
  0
VERTEX
  5
265
330
261
100
AcDbEntity
  8
1
  6
Continuous
 62
     7
 48
2.0
100
AcDbVertex
100
AcDb2dVertex
 10
-1.735349129461021
 20
-0.2966763152556311
 30
0.0
  0
VERTEX
  5
266
330
261
100
AcDbEntity
  8
1
  6
Continuous
 62
     7
 48
2.0
100
AcDbVertex
100
AcDb2dVertex
 10
-1.720331262190804
 20
-0.381777563367443
 30
0.0
  0
VERTEX
  5
267
330
261
100
AcDbEntity
  8
1
  6
Continuous
 62
     7
 48
2.0
100
AcDbVertex
100
AcDb2dVertex
 10
-1.698305056861251
 20
-0.4548645176282022
 30
0.0
  0
VERTEX
  5
268
330
261
100
AcDbEntity
  8
1
  6
Continuous
 62
     7
 48
2.0
100
AcDbVertex
100
AcDb2dVertex
 10
-1.670271704623566
 20
-0.5019205018783097
 30
0.0
  0
VERTEX
  5
269
330
261
100
AcDbEntity
  8
1
  6
Continuous
 62
     7
 48
2.0
100
AcDbVertex
100
AcDb2dVertex
 10
-1.646243116991378
 20
-0.5359610011230345
 30
0.0
  0
SEQEND
  5
26A
330
261
100
AcDbEntity
  8
1
  6
Continuous
 62
     7
 48
2.0
370
     0
  0
LINE
  5
26B
330
1F
100
AcDbEntity
  8
1
  6
Continuous
 62
     7
 48
2.0
370
     0
100
AcDbLine
 10
-1.595182368272823
 20
-0.2065691113725094
 30
0.0
 11
-1.593179985970075
 21
0.0016786487129323
 31
0.0
  0
LINE
  5
26C
330
1F
100
AcDbEntity
  8
1
  6
Continuous
 62
     7
 48
2.0
370
     0
100
AcDbLine
 10
-1.999880822990782
 20
0.0010625803220208
 30
0.0
 11
-2.228231943329412
 21
0.0010625803220208
 31
0.0
  0
LINE
  5
26D
330
1F
100
AcDbEntity
  8
1
  6
Continuous
 62
     7
 48
2.0
370
     0
100
AcDbLine
 10
0.6018202584372361
 20
-0.8374021451871769
 30
0.0
 11
0.6018202584372361
 21
-0.8411416934183578
 31
0.0
  0
POLYLINE
  5
26E
330
1F
100
AcDbEntity
  8
1
  6
Continuous
 62
     7
 48
2.0
370
     0
100
AcDb2dPolyline
 66
     1
 10
0.0
 20
0.0
 30
0.0
 70
   128
  0
VERTEX
  5
26F
330
26E
100
AcDbEntity
  8
1
  6
Continuous
 62
     7
 48
2.0
100
AcDbVertex
100
AcDb2dVertex
 10
0.9658029688629526
 20
-0.6741085390912005
 30
0.0
  0
VERTEX
  5
270
330
26E
100
AcDbEntity
  8
1
  6
Continuous
 62
     7
 48
2.0
100
AcDbVertex
100
AcDb2dVertex
 10
0.9645564527313795
 20
-0.6722387649755817
 30
0.0
  0
VERTEX
  5
271
330
26E
100
AcDbEntity
  8
1
  6
Continuous
 62
     7
 48
2.0
100
AcDbVertex
100
AcDb2dVertex
 10
0.9564540978759837
 20
-0.6803411194765587
 30
0.0
  0
SEQEND
  5
272
330
26E
100
AcDbEntity
  8
1
  6
Continuous
 62
     7
 48
2.0
370
     0
  0
POLYLINE
  5
273
330
1F
100
AcDbEntity
  8
1
  6
Continuous
 62
     7
 48
2.0
370
     0
100
AcDb2dPolyline
 66
     1
 10
0.0
 20
0.0
 30
0.0
 70
   128
  0
VERTEX
  5
274
330
273
100
AcDbEntity
  8
1
  6
Continuous
 62
     7
 48
2.0
100
AcDbVertex
100
AcDb2dVertex
 10
-0.3843289887058532
 20
-0.8338691137894259
 30
0.0
  0
VERTEX
  5
275
330
273
100
AcDbEntity
  8
1
  6
Continuous
 62
     7
 48
2.0
100
AcDbVertex
100
AcDb2dVertex
 10
-0.6496479490547031
 20
-0.8321518391019183
 30
0.0
  0
VERTEX
  5
276
330
273
100
AcDbEntity
  8
1
  6
Continuous
 62
     7
 48
2.0
100
AcDbVertex
100
AcDb2dVertex
 10
-0.8505870524672687
 20
-0.8258942204629349
 30
0.0
  0
SEQEND
  5
277
330
273
100
AcDbEntity
  8
1
  6
Continuous
 62
     7
 48
2.0
370
     0
  0
LINE
  5
278
330
1F
100
AcDbEntity
  8
1
  6
Continuous
 62
     7
 48
2.0
370
     0
100
AcDbLine
 10
-0.8503107676355981
 20
-0.8259561408429974
 30
0.0
 11
-0.8985005474879486
 21
-0.8230752301251343
 31
0.0
  0
POLYLINE
  5
279
330
1F
100
AcDbEntity
  8
1
  6
Continuous
 62
     7
 48
2.0
370
     0
100
AcDb2dPolyline
 66
     1
 10
0.0
 20
0.0
 30
0.0
 70
   128
  0
VERTEX
  5
27A
330
279
100
AcDbEntity
  8
1
  6
Continuous
 62
     7
 48
2.0
100
AcDbVertex
100
AcDb2dVertex
 10
-2.053406454323387
 20
-0.6687937258916961
 30
0.0
  0
VERTEX
  5
27B
330
279
100
AcDbEntity
  8
1
  6
Continuous
 62
     7
 48
2.0
100
AcDbVertex
100
AcDb2dVertex
 10
-2.124812487333863
 20
-0.5389645745857976
 30
0.0
  0
VERTEX
  5
27C
330
279
100
AcDbEntity
  8
1
  6
Continuous
 62
     7
 48
2.0
100
AcDbVertex
100
AcDb2dVertex
 10
-2.139830354604079
 20
-0.5029216930325262
 30
0.0
  0
VERTEX
  5
27D
330
279
100
AcDbEntity
  8
1
  6
Continuous
 62
     7
 48
2.0
100
AcDbVertex
100
AcDb2dVertex
 10
-2.156850604176931
 20
-0.4088097245324249
 30
0.0
  0
VERTEX
  5
27E
330
279
100
AcDbEntity
  8
1
  6
Continuous
 62
     7
 48
2.0
100
AcDbVertex
100
AcDb2dVertex
 10
-2.164860133387585
 20
-0.2656393894736695
 30
0.0
  0
VERTEX
  5
27F
330
279
100
AcDbEntity
  8
1
  6
Continuous
 62
     7
 48
2.0
100
AcDbVertex
100
AcDb2dVertex
 10
-2.171868471447034
 20
0.005683413329912
 30
0.0
  0
SEQEND
  5
280
330
279
100
AcDbEntity
  8
1
  6
Continuous
 62
     7
 48
2.0
370
     0
  0
LINE
  5
281
330
1F
100
AcDbEntity
  8
1
  6
Continuous
 62
     7
 48
2.0
370
     0
100
AcDbLine
 10
-2.05353245644185
 20
-0.6688030218774585
 30
0.0
 11
-2.016329257096551
 21
-0.7384090102512388
 31
0.0
  0
LINE
  5
282
330
1F
100
AcDbEntity
  8
1
  6
Continuous
 62
     7
 48
2.0
370
     0
100
AcDbLine
 10
1.881659043827447
 20
0.0010569743061595
 30
0.0
 11
1.653307923488704
 21
0.0010569743061595
 31
0.0
  0
POLYLINE
  5
283
330
1F
100
AcDbEntity
  8
1
  6
Continuous
 62
     7
 48
2.0
370
     0
100
AcDb2dPolyline
 66
     1
 10
0.0
 20
0.0
 30
0.0
 70
   128
  0
VERTEX
  5
284
330
283
100
AcDbEntity
  8
1
  6
Continuous
 62
     7
 48
2.0
100
AcDbVertex
100
AcDb2dVertex
 10
1.820493565165314
 20
-0.0043799574575516
 30
0.0
  0
VERTEX
  5
285
330
283
100
AcDbEntity
  8
1
  6
Continuous
 62
     7
 48
2.0
100
AcDbVertex
100
AcDb2dVertex
 10
1.813697400869522
 20
0.2824181930772696
 30
0.0
  0
VERTEX
  5
286
330
283
100
AcDbEntity
  8
1
  6
Continuous
 62
     7
 48
2.0
100
AcDbVertex
100
AcDb2dVertex
 10
1.808260469432888
 20
0.3422244424779208
 30
0.0
  0
VERTEX
  5
287
330
283
100
AcDbEntity
  8
1
  6
Continuous
 62
     7
 48
2.0
100
AcDbVertex
100
AcDb2dVertex
 10
1.789231209404669
 20
0.4808662024520984
 30
0.0
  0
VERTEX
  5
288
330
283
100
AcDbEntity
  8
1
  6
Continuous
 62
     7
 48
2.0
100
AcDbVertex
100
AcDb2dVertex
 10
1.743017292193166
 20
0.5746532753758018
 30
0.0
  0
VERTEX
  5
289
330
283
100
AcDbEntity
  8
1
  6
Continuous
 62
     7
 48
2.0
100
AcDbVertex
100
AcDb2dVertex
 10
1.668259484939448
 20
0.6793142118268705
 30
0.0
  0
VERTEX
  5
28A
330
283
100
AcDbEntity
  8
1
  6
Continuous
 62
     7
 48
2.0
100
AcDbVertex
100
AcDb2dVertex
 10
1.632919430601326
 20
0.7160135012318349
 30
0.0
  0
VERTEX
  5
28B
330
283
100
AcDbEntity
  8
1
  6
Continuous
 62
     7
 48
2.0
100
AcDbVertex
100
AcDb2dVertex
 10
1.589423979108254
 20
0.7527127906367426
 30
0.0
  0
VERTEX
  5
28C
330
283
100
AcDbEntity
  8
1
  6
Continuous
 62
     7
 48
2.0
100
AcDbVertex
100
AcDb2dVertex
 10
1.544569294756023
 20
0.7771789835733856
 30
0.0
  0
VERTEX
  5
28D
330
283
100
AcDbEntity
  8
1
  6
Continuous
 62
     7
 48
2.0
100
AcDbVertex
100
AcDb2dVertex
 10
1.494277678967158
 20
0.8002859435690723
 30
0.0
  0
VERTEX
  5
28E
330
283
100
AcDbEntity
  8
1
  6
Continuous
 62
     7
 48
2.0
100
AcDbVertex
100
AcDb2dVertex
 10
1.429034501727436
 20
0.8165967388601487
 30
0.0
  0
VERTEX
  5
28F
330
283
100
AcDbEntity
  8
1
  6
Continuous
 62
     7
 48
2.0
100
AcDbVertex
100
AcDb2dVertex
 10
1.33388820158634
 20
0.8288298353284702
 30
0.0
  0
VERTEX
  5
290
330
283
100
AcDbEntity
  8
1
  6
Continuous
 62
     7
 48
2.0
100
AcDbVertex
100
AcDb2dVertex
 10
1.202042614247965
 20
0.8410629317967349
 30
0.0
  0
VERTEX
  5
291
330
283
100
AcDbEntity
  8
1
  6
Continuous
 62
     7
 48
2.0
100
AcDbVertex
100
AcDb2dVertex
 10
0.8065058522327249
 20
0.8451406306195466
 30
0.0
  0
VERTEX
  5
292
330
283
100
AcDbEntity
  8
1
  6
Continuous
 62
     7
 48
2.0
100
AcDbVertex
100
AcDb2dVertex
 10
0.4884453631895198
 20
0.842422164737691
 30
0.0
  0
SEQEND
  5
293
330
283
100
AcDbEntity
  8
1
  6
Continuous
 62
     7
 48
2.0
370
     0
  0
POLYLINE
  5
294
330
1F
100
AcDbEntity
  8
1
  6
Continuous
 62
     7
 48
2.0
370
     0
100
AcDb2dPolyline
 66
     1
 10
0.0
 20
0.0
 30
0.0
 70
   128
  0
VERTEX
  5
295
330
294
100
AcDbEntity
  8
1
  6
Continuous
 62
     7
 48
2.0
100
AcDbVertex
100
AcDb2dVertex
 10
1.808260469432888
 20
0.3327098118914549
 30
0.0
  0
VERTEX
  5
296
330
294
100
AcDbEntity
  8
1
  6
Continuous
 62
     7
 48
2.0
100
AcDbVertex
100
AcDb2dVertex
 10
1.779716579390559
 20
0.449603844810845
 30
0.0
  0
VERTEX
  5
297
330
294
100
AcDbEntity
  8
1
  6
Continuous
 62
     7
 48
2.0
100
AcDbVertex
100
AcDb2dVertex
 10
1.719910333587471
 20
0.5433909177345484
 30
0.0
  0
VERTEX
  5
298
330
294
100
AcDbEntity
  8
1
  6
Continuous
 62
     7
 48
2.0
100
AcDbVertex
100
AcDb2dVertex
 10
1.628841732023851
 20
0.6548480188902843
 30
0.0
  0
VERTEX
  5
299
330
294
100
AcDbEntity
  8
1
  6
Continuous
 62
     7
 48
2.0
100
AcDbVertex
100
AcDb2dVertex
 10
1.566317020502559
 20
0.7132950353499794
 30
0.0
  0
VERTEX
  5
29A
330
294
100
AcDbEntity
  8
1
  6
Continuous
 62
     7
 48
2.0
100
AcDbVertex
100
AcDb2dVertex
 10
1.52010310329117
 20
0.7486350918139877
 30
0.0
  0
VERTEX
  5
29B
330
294
100
AcDbEntity
  8
1
  6
Continuous
 62
     7
 48
2.0
100
AcDbVertex
100
AcDb2dVertex
 10
1.469811487502305
 20
0.7717420518096745
 30
0.0
  0
VERTEX
  5
29C
330
294
100
AcDbEntity
  8
1
  6
Continuous
 62
     7
 48
2.0
100
AcDbVertex
100
AcDb2dVertex
 10
1.385539050234364
 20
0.7921305459235057
 30
0.0
  0
VERTEX
  5
29D
330
294
100
AcDbEntity
  8
1
  6
Continuous
 62
     7
 48
2.0
100
AcDbVertex
100
AcDb2dVertex
 10
1.321655105853914
 20
0.8057228753327266
 30
0.0
  0
VERTEX
  5
29E
330
294
100
AcDbEntity
  8
1
  6
Continuous
 62
     7
 48
2.0
100
AcDbVertex
100
AcDb2dVertex
 10
1.274081955783366
 20
0.8002859435690723
 30
0.0
  0
VERTEX
  5
29F
330
294
100
AcDbEntity
  8
1
  6
Continuous
 62
     7
 48
2.0
100
AcDbVertex
100
AcDb2dVertex
 10
1.241460367163562
 20
0.7894120800416502
 30
0.0
  0
VERTEX
  5
2A0
330
294
100
AcDbEntity
  8
1
  6
Continuous
 62
     7
 48
2.0
100
AcDbVertex
100
AcDb2dVertex
 10
1.226508805712818
 20
0.7717420518096745
 30
0.0
  0
VERTEX
  5
2A1
330
294
100
AcDbEntity
  8
1
  6
Continuous
 62
     7
 48
2.0
100
AcDbVertex
100
AcDb2dVertex
 10
1.282237352938317
 20
0.7527127906367426
 30
0.0
  0
VERTEX
  5
2A2
330
294
100
AcDbEntity
  8
1
  6
Continuous
 62
     7
 48
2.0
100
AcDbVertex
100
AcDb2dVertex
 10
1.348839763037084
 20
0.7309650635819551
 30
0.0
  0
VERTEX
  5
2A3
330
294
100
AcDbEntity
  8
1
  6
Continuous
 62
     7
 48
2.0
100
AcDbVertex
100
AcDb2dVertex
 10
1.427675268868278
 20
0.6847511435905815
 30
0.0
  0
VERTEX
  5
2A4
330
294
100
AcDbEntity
  8
1
  6
Continuous
 62
     7
 48
2.0
100
AcDbVertex
100
AcDb2dVertex
 10
1.473889186079781
 20
0.6453333883038184
 30
0.0
  0
VERTEX
  5
2A5
330
294
100
AcDbEntity
  8
1
  6
Continuous
 62
     7
 48
2.0
100
AcDbVertex
100
AcDb2dVertex
 10
1.521462336150329
 20
0.5923233036077775
 30
0.0
  0
VERTEX
  5
2A6
330
294
100
AcDbEntity
  8
1
  6
Continuous
 62
     7
 48
2.0
100
AcDbVertex
100
AcDb2dVertex
 10
1.578550116234986
 20
0.4971769977431748
 30
0.0
  0
VERTEX
  5
2A7
330
294
100
AcDbEntity
  8
1
  6
Continuous
 62
     7
 48
2.0
100
AcDbVertex
100
AcDb2dVertex
 10
1.623404800587217
 20
0.3979529930557604
 30
0.0
  0
VERTEX
  5
2A8
330
294
100
AcDbEntity
  8
1
  6
Continuous
 62
     7
 48
2.0
100
AcDbVertex
100
AcDb2dVertex
 10
1.653307923488704
 20
0.3150397836594223
 30
0.0
  0
VERTEX
  5
2A9
330
294
100
AcDbEntity
  8
1
  6
Continuous
 62
     7
 48
2.0
100
AcDbVertex
100
AcDb2dVertex
 10
1.676414882094399
 20
0.2212527107357189
 30
0.0
  0
VERTEX
  5
2AA
330
294
100
AcDbEntity
  8
1
  6
Continuous
 62
     7
 48
2.0
100
AcDbVertex
100
AcDb2dVertex
 10
1.683211046390191
 20
0.1084363766390837
 30
0.0
  0
VERTEX
  5
2AB
330
294
100
AcDbEntity
  8
1
  6
Continuous
 62
     7
 48
2.0
100
AcDbVertex
100
AcDb2dVertex
 10
1.690007210685984
 20
0.003775440188015
 30
0.0
  0
SEQEND
  5
2AC
330
294
100
AcDbEntity
  8
1
  6
Continuous
 62
     7
 48
2.0
370
     0
  0
POLYLINE
  5
2AD
330
1F
100
AcDbEntity
  8
1
  6
Continuous
 62
     7
 48
2.0
370
     0
100
AcDb2dPolyline
 66
     1
 10
0.0
 20
0.0
 30
0.0
 70
   128
  0
VERTEX
  5
2AE
330
2AD
100
AcDbEntity
  8
1
  6
Continuous
 62
     7
 48
2.0
100
AcDbVertex
100
AcDb2dVertex
 10
1.627482499164692
 20
0.3843606636465395
 30
0.0
  0
VERTEX
  5
2AF
330
2AD
100
AcDbEntity
  8
1
  6
Continuous
 62
     7
 48
2.0
100
AcDbVertex
100
AcDb2dVertex
 10
1.670977950657765
 20
0.357176004828041
 30
0.0
  0
VERTEX
  5
2B0
330
2AD
100
AcDbEntity
  8
1
  6
Continuous
 62
     7
 48
2.0
100
AcDbVertex
100
AcDb2dVertex
 10
1.661463320643655
 20
0.425137651874202
 30
0.0
  0
VERTEX
  5
2B1
330
2AD
100
AcDbEntity
  8
1
  6
Continuous
 62
     7
 48
2.0
100
AcDbVertex
100
AcDb2dVertex
 10
1.596220143404047
 20
0.5678571106711914
 30
0.0
  0
VERTEX
  5
2B2
330
2AD
100
AcDbEntity
  8
1
  6
Continuous
 62
     7
 48
2.0
100
AcDbVertex
100
AcDb2dVertex
 10
1.522821569009487
 20
0.6793142118268705
 30
0.0
  0
VERTEX
  5
2B3
330
2AD
100
AcDbEntity
  8
1
  6
Continuous
 62
     7
 48
2.0
100
AcDbVertex
100
AcDb2dVertex
 10
1.495636911826317
 20
0.7105765694681239
 30
0.0
  0
VERTEX
  5
2B4
330
2AD
100
AcDbEntity
  8
1
  6
Continuous
 62
     7
 48
2.0
100
AcDbVertex
100
AcDb2dVertex
 10
1.449422994614814
 20
0.7472758588730315
 30
0.0
  0
VERTEX
  5
2B5
330
2AD
100
AcDbEntity
  8
1
  6
Continuous
 62
     7
 48
2.0
100
AcDbVertex
100
AcDb2dVertex
 10
1.39777214596679
 20
0.7690235859278189
 30
0.0
  0
VERTEX
  5
2B6
330
2AD
100
AcDbEntity
  8
1
  6
Continuous
 62
     7
 48
2.0
100
AcDbVertex
100
AcDb2dVertex
 10
1.323014338713072
 20
0.783975148277996
 30
0.0
  0
VERTEX
  5
2B7
330
2AD
100
AcDbEntity
  8
1
  6
Continuous
 62
     7
 48
2.0
100
AcDbVertex
100
AcDb2dVertex
 10
1.275441188642525
 20
0.7880528471007509
 30
0.0
  0
VERTEX
  5
2B8
330
2AD
100
AcDbEntity
  8
1
  6
Continuous
 62
     7
 48
2.0
100
AcDbVertex
100
AcDb2dVertex
 10
1.245538065741037
 20
0.7826159153370398
 30
0.0
  0
VERTEX
  5
2B9
330
2AD
100
AcDbEntity
  8
1
  6
Continuous
 62
     7
 48
2.0
100
AcDbVertex
100
AcDb2dVertex
 10
1.236023435726928
 20
0.7703828188687751
 30
0.0
  0
SEQEND
  5
2BA
330
2AD
100
AcDbEntity
  8
1
  6
Continuous
 62
     7
 48
2.0
370
     0
  0
POLYLINE
  5
2BB
330
1F
100
AcDbEntity
  8
1
  6
Continuous
 62
     7
 48
2.0
370
     0
100
AcDb2dPolyline
 66
     1
 10
0.0
 20
0.0
 30
0.0
 70
   128
  0
VERTEX
  5
2BC
330
2BB
100
AcDbEntity
  8
1
  6
Continuous
 62
     7
 48
2.0
100
AcDbVertex
100
AcDb2dVertex
 10
1.759328086503182
 20
0.0622224566477101
 30
0.0
  0
VERTEX
  5
2BD
330
2BB
100
AcDbEntity
  8
1
  6
Continuous
 62
     7
 48
2.0
100
AcDbVertex
100
AcDb2dVertex
 10
1.744376525052324
 20
0.2280488754403294
 30
0.0
  0
VERTEX
  5
2BE
330
2BB
100
AcDbEntity
  8
1
  6
Continuous
 62
     7
 48
2.0
100
AcDbVertex
100
AcDb2dVertex
 10
1.732143429319898
 20
0.2960105224864904
 30
0.0
  0
VERTEX
  5
2BF
330
2BB
100
AcDbEntity
  8
1
  6
Continuous
 62
     7
 48
2.0
100
AcDbVertex
100
AcDb2dVertex
 10
1.700881073559252
 20
0.3544575389461855
 30
0.0
  0
VERTEX
  5
2C0
330
2BB
100
AcDbEntity
  8
1
  6
Continuous
 62
     7
 48
2.0
100
AcDbVertex
100
AcDb2dVertex
 10
1.665541019221131
 20
0.4074676236422263
 30
0.0
  0
SEQEND
  5
2C1
330
2BB
100
AcDbEntity
  8
1
  6
Continuous
 62
     7
 48
2.0
370
     0
  0
POLYLINE
  5
2C2
330
1F
100
AcDbEntity
  8
1
  6
Continuous
 62
     7
 48
2.0
370
     0
100
AcDb2dPolyline
 66
     1
 10
0.0
 20
0.0
 30
0.0
 70
   128
  0
VERTEX
  5
2C3
330
2C2
100
AcDbEntity
  8
1
  6
Continuous
 62
     7
 48
2.0
100
AcDbVertex
100
AcDb2dVertex
 10
1.710395703573361
 20
0.0894071154661518
 30
0.0
  0
VERTEX
  5
2C4
330
2C2
100
AcDbEntity
  8
1
  6
Continuous
 62
     7
 48
2.0
100
AcDbVertex
100
AcDb2dVertex
 10
1.696803374981776
 20
0.2239711766175745
 30
0.0
  0
VERTEX
  5
2C5
330
2C2
100
AcDbEntity
  8
1
  6
Continuous
 62
     7
 48
2.0
100
AcDbVertex
100
AcDb2dVertex
 10
1.67505564923524
 20
0.3096028518957112
 30
0.0
  0
VERTEX
  5
2C6
330
2C2
100
AcDbEntity
  8
1
  6
Continuous
 62
     7
 48
2.0
100
AcDbVertex
100
AcDb2dVertex
 10
1.660104087784497
 20
0.3585352377689972
 30
0.0
  0
SEQEND
  5
2C7
330
2C2
100
AcDbEntity
  8
1
  6
Continuous
 62
     7
 48
2.0
370
     0
  0
POLYLINE
  5
2C8
330
1F
100
AcDbEntity
  8
1
  6
Continuous
 62
     7
 48
2.0
370
     0
100
AcDb2dPolyline
 66
     1
 10
0.0
 20
0.0
 30
0.0
 70
   128
  0
VERTEX
  5
2C9
330
2C8
100
AcDbEntity
  8
1
  6
Continuous
 62
     7
 48
2.0
100
AcDbVertex
100
AcDb2dVertex
 10
1.73893959361569
 20
0.0921255813480073
 30
0.0
  0
VERTEX
  5
2CA
330
2C8
100
AcDbEntity
  8
1
  6
Continuous
 62
     7
 48
2.0
100
AcDbVertex
100
AcDb2dVertex
 10
1.722628799305788
 20
0.236204273085896
 30
0.0
  0
VERTEX
  5
2CB
330
2C8
100
AcDbEntity
  8
1
  6
Continuous
 62
     7
 48
2.0
100
AcDbVertex
100
AcDb2dVertex
 10
1.695444142122618
 20
0.3313505789504987
 30
0.0
  0
VERTEX
  5
2CC
330
2C8
100
AcDbEntity
  8
1
  6
Continuous
 62
     7
 48
2.0
100
AcDbVertex
100
AcDb2dVertex
 10
1.676414882094399
 20
0.3598944707098966
 30
0.0
  0
SEQEND
  5
2CD
330
2C8
100
AcDbEntity
  8
1
  6
Continuous
 62
     7
 48
2.0
370
     0
  0
POLYLINE
  5
2CE
330
1F
100
AcDbEntity
  8
1
  6
Continuous
 62
     7
 48
2.0
370
     0
100
AcDb2dPolyline
 66
     1
 10
0.0
 20
0.0
 30
0.0
 70
   128
  0
VERTEX
  5
2CF
330
2CE
100
AcDbEntity
  8
1
  6
Continuous
 62
     7
 48
2.0
100
AcDbVertex
100
AcDb2dVertex
 10
1.57447241765751
 20
0.4400892142243791
 30
0.0
  0
VERTEX
  5
2D0
330
2CE
100
AcDbEntity
  8
1
  6
Continuous
 62
     7
 48
2.0
100
AcDbVertex
100
AcDb2dVertex
 10
1.446704528896497
 20
0.5202839577388616
 30
0.0
  0
VERTEX
  5
2D1
330
2CE
100
AcDbEntity
  8
1
  6
Continuous
 62
     7
 48
2.0
100
AcDbVertex
100
AcDb2dVertex
 10
1.324373571572231
 20
0.580090207139456
 30
0.0
  0
VERTEX
  5
2D2
330
2CE
100
AcDbEntity
  8
1
  6
Continuous
 62
     7
 48
2.0
100
AcDbVertex
100
AcDb2dVertex
 10
1.240101134304403
 20
0.6154302636034643
 30
0.0
  0
VERTEX
  5
2D3
330
2CE
100
AcDbEntity
  8
1
  6
Continuous
 62
     7
 48
2.0
100
AcDbVertex
100
AcDb2dVertex
 10
1.112333245543503
 20
0.6630034165357941
 30
0.0
  0
VERTEX
  5
2D4
330
2CE
100
AcDbEntity
  8
1
  6
Continuous
 62
     7
 48
2.0
100
AcDbVertex
100
AcDb2dVertex
 10
0.9981576853740748
 20
0.6942657741770475
 30
0.0
  0
VERTEX
  5
2D5
330
2CE
100
AcDbEntity
  8
1
  6
Continuous
 62
     7
 48
2.0
100
AcDbVertex
100
AcDb2dVertex
 10
0.9261183438386738
 20
0.7051396377044128
 30
0.0
  0
VERTEX
  5
2D6
330
2CE
100
AcDbEntity
  8
1
  6
Continuous
 62
     7
 48
2.0
100
AcDbVertex
100
AcDb2dVertex
 10
0.8404866737116876
 20
0.7024211718225573
 30
0.0
  0
VERTEX
  5
2D7
330
2CE
100
AcDbEntity
  8
1
  6
Continuous
 62
     7
 48
2.0
100
AcDbVertex
100
AcDb2dVertex
 10
0.6787379634717112
 20
0.6861103765314809
 30
0.0
  0
VERTEX
  5
2D8
330
2CE
100
AcDbEntity
  8
1
  6
Continuous
 62
     7
 48
2.0
100
AcDbVertex
100
AcDb2dVertex
 10
0.2573757771325731
 20
0.629022593012742
 30
0.0
  0
VERTEX
  5
2D9
330
2CE
100
AcDbEntity
  8
1
  6
Continuous
 62
     7
 48
2.0
100
AcDbVertex
100
AcDb2dVertex
 10
0.0589277796953169
 20
0.6072748659579545
 30
0.0
  0
SEQEND
  5
2DA
330
2CE
100
AcDbEntity
  8
1
  6
Continuous
 62
     7
 48
2.0
370
     0
  0
POLYLINE
  5
2DB
330
1F
100
AcDbEntity
  8
1
  6
Continuous
 62
     7
 48
2.0
370
     0
100
AcDb2dPolyline
 66
     1
 10
0.0
 20
0.0
 30
0.0
 70
   128
  0
VERTEX
  5
2DC
330
2DB
100
AcDbEntity
  8
1
  6
Continuous
 62
     7
 48
2.0
100
AcDbVertex
100
AcDb2dVertex
 10
1.477966884657256
 20
0.6358187577173524
 30
0.0
  0
VERTEX
  5
2DD
330
2DB
100
AcDbEntity
  8
1
  6
Continuous
 62
     7
 48
2.0
100
AcDbVertex
100
AcDb2dVertex
 10
1.293111215811585
 20
0.6861103765314809
 30
0.0
  0
VERTEX
  5
2DE
330
2DB
100
AcDbEntity
  8
1
  6
Continuous
 62
     7
 48
2.0
100
AcDbVertex
100
AcDb2dVertex
 10
1.159906395614051
 20
0.7105765694681239
 30
0.0
  0
VERTEX
  5
2DF
330
2DB
100
AcDbEntity
  8
1
  6
Continuous
 62
     7
 48
2.0
100
AcDbVertex
100
AcDb2dVertex
 10
1.032138506853151
 20
0.7255281318183009
 30
0.0
  0
VERTEX
  5
2E0
330
2DB
100
AcDbEntity
  8
1
  6
Continuous
 62
     7
 48
2.0
100
AcDbVertex
100
AcDb2dVertex
 10
0.999516918233347
 20
0.7214504329954892
 30
0.0
  0
VERTEX
  5
2E1
330
2DB
100
AcDbEntity
  8
1
  6
Continuous
 62
     7
 48
2.0
100
AcDbVertex
100
AcDb2dVertex
 10
0.9777691924866971
 20
0.7119358024090232
 30
0.0
  0
VERTEX
  5
2E2
330
2DB
100
AcDbEntity
  8
1
  6
Continuous
 62
     7
 48
2.0
100
AcDbVertex
100
AcDb2dVertex
 10
0.953303001021844
 20
0.6847511435905815
 30
0.0
  0
SEQEND
  5
2E3
330
2DB
100
AcDbEntity
  8
1
  6
Continuous
 62
     7
 48
2.0
370
     0
  0
POLYLINE
  5
2E4
330
1F
100
AcDbEntity
  8
1
  6
Continuous
 62
     7
 48
2.0
370
     0
100
AcDb2dPolyline
 66
     1
 10
0.0
 20
0.0
 30
0.0
 70
   128
  0
VERTEX
  5
2E5
330
2E4
100
AcDbEntity
  8
1
  6
Continuous
 62
     7
 48
2.0
100
AcDbVertex
100
AcDb2dVertex
 10
1.234664202867769
 20
-0.0057391903984509
 30
0.0
  0
VERTEX
  5
2E6
330
2E4
100
AcDbEntity
  8
1
  6
Continuous
 62
     7
 48
2.0
100
AcDbVertex
100
AcDb2dVertex
 10
1.230586504290294
 20
0.1682426260397349
 30
0.0
  0
VERTEX
  5
2E7
330
2E4
100
AcDbEntity
  8
1
  6
Continuous
 62
     7
 48
2.0
100
AcDbVertex
100
AcDb2dVertex
 10
1.21563494283955
 20
0.2769812613135585
 30
0.0
  0
VERTEX
  5
2E8
330
2E4
100
AcDbEntity
  8
1
  6
Continuous
 62
     7
 48
2.0
100
AcDbVertex
100
AcDb2dVertex
 10
1.196605682811331
 20
0.3626129365917521
 30
0.0
  0
VERTEX
  5
2E9
330
2E4
100
AcDbEntity
  8
1
  6
Continuous
 62
     7
 48
2.0
100
AcDbVertex
100
AcDb2dVertex
 10
1.158547162754893
 20
0.4754292706883874
 30
0.0
  0
VERTEX
  5
2EA
330
2E4
100
AcDbEntity
  8
1
  6
Continuous
 62
     7
 48
2.0
100
AcDbVertex
100
AcDb2dVertex
 10
1.104177848388552
 20
0.5705755765530469
 30
0.0
  0
VERTEX
  5
2EB
330
2E4
100
AcDbEntity
  8
1
  6
Continuous
 62
     7
 48
2.0
100
AcDbVertex
100
AcDb2dVertex
 10
1.056604698318004
 20
0.6235856612490309
 30
0.0
  0
VERTEX
  5
2EC
330
2E4
100
AcDbEntity
  8
1
  6
Continuous
 62
     7
 48
2.0
100
AcDbVertex
100
AcDb2dVertex
 10
1.011750013965774
 20
0.657566484772083
 30
0.0
  0
VERTEX
  5
2ED
330
2E4
100
AcDbEntity
  8
1
  6
Continuous
 62
     7
 48
2.0
100
AcDbVertex
100
AcDb2dVertex
 10
0.9723322610500631
 20
0.6779549788859711
 30
0.0
  0
VERTEX
  5
2EE
330
2E4
100
AcDbEntity
  8
1
  6
Continuous
 62
     7
 48
2.0
100
AcDbVertex
100
AcDb2dVertex
 10
0.9342737409936248
 20
0.6888288424133364
 30
0.0
  0
VERTEX
  5
2EF
330
2E4
100
AcDbEntity
  8
1
  6
Continuous
 62
     7
 48
2.0
100
AcDbVertex
100
AcDb2dVertex
 10
0.8812636594864429
 20
0.691547308295192
 30
0.0
  0
VERTEX
  5
2F0
330
2E4
100
AcDbEntity
  8
1
  6
Continuous
 62
     7
 48
2.0
100
AcDbVertex
100
AcDb2dVertex
 10
0.822816646542627
 20
0.6888288424133364
 30
0.0
  0
VERTEX
  5
2F1
330
2E4
100
AcDbEntity
  8
1
  6
Continuous
 62
     7
 48
2.0
100
AcDbVertex
100
AcDb2dVertex
 10
0.6909710592041378
 20
0.6684403482995052
 30
0.0
  0
VERTEX
  5
2F2
330
2E4
100
AcDbEntity
  8
1
  6
Continuous
 62
     7
 48
2.0
100
AcDbVertex
100
AcDb2dVertex
 10
0.208443394202753
 20
0.580090207139456
 30
0.0
  0
VERTEX
  5
2F3
330
2E4
100
AcDbEntity
  8
1
  6
Continuous
 62
     7
 48
2.0
100
AcDbVertex
100
AcDb2dVertex
 10
0.0874716697376456
 20
0.5583424800847254
 30
0.0
  0
SEQEND
  5
2F4
330
2E4
100
AcDbEntity
  8
1
  6
Continuous
 62
     7
 48
2.0
370
     0
  0
POLYLINE
  5
2F5
330
1F
100
AcDbEntity
  8
1
  6
Continuous
 62
     7
 48
2.0
370
     0
100
AcDb2dPolyline
 66
     1
 10
0.0
 20
0.0
 30
0.0
 70
   128
  0
VERTEX
  5
2F6
330
2F5
100
AcDbEntity
  8
1
  6
Continuous
 62
     7
 48
2.0
100
AcDbVertex
100
AcDb2dVertex
 10
1.204761079966282
 20
0.7812566823961404
 30
0.0
  0
VERTEX
  5
2F7
330
2F5
100
AcDbEntity
  8
1
  6
Continuous
 62
     7
 48
2.0
100
AcDbVertex
100
AcDb2dVertex
 10
1.018546178261566
 20
0.7975674776872168
 30
0.0
  0
VERTEX
  5
2F8
330
2F5
100
AcDbEntity
  8
1
  6
Continuous
 62
     7
 48
2.0
100
AcDbVertex
100
AcDb2dVertex
 10
0.825535112260944
 20
0.8002859435690723
 30
0.0
  0
VERTEX
  5
2F9
330
2F5
100
AcDbEntity
  8
1
  6
Continuous
 62
     7
 48
2.0
100
AcDbVertex
100
AcDb2dVertex
 10
0.512911554654373
 20
0.7989267106281162
 30
0.0
  0
SEQEND
  5
2FA
330
2F5
100
AcDbEntity
  8
1
  6
Continuous
 62
     7
 48
2.0
370
     0
  0
LINE
  5
2FB
330
1F
100
AcDbEntity
  8
1
  6
Continuous
 62
     7
 48
2.0
370
     0
100
AcDbLine
 10
1.318936640135597
 20
0.8070821082736828
 30
0.0
 11
1.301266612966536
 21
0.8315483012102689
 31
0.0
  0
POLYLINE
  5
2FC
330
1F
100
AcDbEntity
  8
1
  6
Continuous
 62
     7
 48
2.0
370
     0
100
AcDb2dPolyline
 66
     1
 10
0.0
 20
0.0
 30
0.0
 70
   128
  0
VERTEX
  5
2FD
330
2FC
100
AcDbEntity
  8
1
  6
Continuous
 62
     7
 48
2.0
100
AcDbVertex
100
AcDb2dVertex
 10
0.0861124368784871
 20
0.6331002918354969
 30
0.0
  0
VERTEX
  5
2FE
330
2FC
100
AcDbEntity
  8
1
  6
Continuous
 62
     7
 48
2.0
100
AcDbVertex
100
AcDb2dVertex
 10
0.6882525934858208
 20
0.7200912000545898
 30
0.0
  0
VERTEX
  5
2FF
330
2FC
100
AcDbEntity
  8
1
  6
Continuous
 62
     7
 48
2.0
100
AcDbVertex
100
AcDb2dVertex
 10
0.961458398176795
 20
0.7540720235776419
 30
0.0
  0
VERTEX
  5
300
330
2FC
100
AcDbEntity
  8
1
  6
Continuous
 62
     7
 48
2.0
100
AcDbVertex
100
AcDb2dVertex
 10
0.9465068367260514
 20
0.7622274212232085
 30
0.0
  0
VERTEX
  5
301
330
2FC
100
AcDbEntity
  8
1
  6
Continuous
 62
     7
 48
2.0
100
AcDbVertex
100
AcDb2dVertex
 10
0.4449499116964475
 20
0.7812566823961404
 30
0.0
  0
VERTEX
  5
302
330
2FC
100
AcDbEntity
  8
1
  6
Continuous
 62
     7
 48
2.0
100
AcDbVertex
100
AcDb2dVertex
 10
0.0439762182445733
 20
0.7812566823961404
 30
0.0
  0
SEQEND
  5
303
330
2FC
100
AcDbEntity
  8
1
  6
Continuous
 62
     7
 48
2.0
370
     0
  0
POLYLINE
  5
304
330
1F
100
AcDbEntity
  8
1
  6
Continuous
 62
     7
 48
2.0
370
     0
100
AcDb2dPolyline
 66
     1
 10
0.0
 20
0.0
 30
0.0
 70
   128
  0
VERTEX
  5
305
330
304
100
AcDbEntity
  8
1
  6
Continuous
 62
     7
 48
2.0
100
AcDbVertex
100
AcDb2dVertex
 10
0.0494131496812074
 20
0.7703828188687751
 30
0.0
  0
VERTEX
  5
306
330
304
100
AcDbEntity
  8
1
  6
Continuous
 62
     7
 48
2.0
100
AcDbVertex
100
AcDb2dVertex
 10
0.446309144555606
 20
0.7717420518096745
 30
0.0
  0
VERTEX
  5
307
330
304
100
AcDbEntity
  8
1
  6
Continuous
 62
     7
 48
2.0
100
AcDbVertex
100
AcDb2dVertex
 10
0.7725250307537621
 20
0.7581497224004536
 30
0.0
  0
VERTEX
  5
308
330
304
100
AcDbEntity
  8
1
  6
Continuous
 62
     7
 48
2.0
100
AcDbVertex
100
AcDb2dVertex
 10
0.7983504550777738
 20
0.7486350918139877
 30
0.0
  0
VERTEX
  5
309
330
304
100
AcDbEntity
  8
1
  6
Continuous
 62
     7
 48
2.0
100
AcDbVertex
100
AcDb2dVertex
 10
0.8051466193735664
 20
0.7404796941684211
 30
0.0
  0
VERTEX
  5
30A
330
304
100
AcDbEntity
  8
1
  6
Continuous
 62
     7
 48
2.0
100
AcDbVertex
100
AcDb2dVertex
 10
0.4109690902174847
 20
0.6861103765314809
 30
0.0
  0
VERTEX
  5
30B
330
304
100
AcDbEntity
  8
1
  6
Continuous
 62
     7
 48
2.0
100
AcDbVertex
100
AcDb2dVertex
 10
0.4299983502457039
 20
0.7200912000545898
 30
0.0
  0
VERTEX
  5
30C
330
304
100
AcDbEntity
  8
1
  6
Continuous
 62
     7
 48
2.0
100
AcDbVertex
100
AcDb2dVertex
 10
0.4762122674570932
 20
0.7703828188687751
 30
0.0
  0
SEQEND
  5
30D
330
304
100
AcDbEntity
  8
1
  6
Continuous
 62
     7
 48
2.0
370
     0
  0
POLYLINE
  5
30E
330
1F
100
AcDbEntity
  8
1
  6
Continuous
 62
     7
 48
2.0
370
     0
100
AcDb2dPolyline
 66
     1
 10
0.0
 20
0.0
 30
0.0
 70
   128
  0
VERTEX
  5
30F
330
30E
100
AcDbEntity
  8
1
  6
Continuous
 62
     7
 48
2.0
100
AcDbVertex
100
AcDb2dVertex
 10
0.3552405429919858
 20
0.67251804712226
 30
0.0
  0
VERTEX
  5
310
330
30E
100
AcDbEntity
  8
1
  6
Continuous
 62
     7
 48
2.0
100
AcDbVertex
100
AcDb2dVertex
 10
0.3783475015976805
 20
0.7146542682908787
 30
0.0
  0
VERTEX
  5
311
330
30E
100
AcDbEntity
  8
1
  6
Continuous
 62
     7
 48
2.0
100
AcDbVertex
100
AcDb2dVertex
 10
0.4259206516682283
 20
0.7690235859278189
 30
0.0
  0
SEQEND
  5
312
330
30E
100
AcDbEntity
  8
1
  6
Continuous
 62
     7
 48
2.0
370
     0
  0
POLYLINE
  5
313
330
1F
100
AcDbEntity
  8
1
  6
Continuous
 62
     7
 48
2.0
370
     0
100
AcDb2dPolyline
 66
     1
 10
0.0
 20
0.0
 30
0.0
 70
   128
  0
VERTEX
  5
314
330
313
100
AcDbEntity
  8
1
  6
Continuous
 62
     7
 48
2.0
100
AcDbVertex
100
AcDb2dVertex
 10
1.100100149811077
 20
-0.0016614915756961
 30
0.0
  0
VERTEX
  5
315
330
313
100
AcDbEntity
  8
1
  6
Continuous
 62
     7
 48
2.0
100
AcDbVertex
100
AcDb2dVertex
 10
1.094663218374443
 20
0.158727995453269
 30
0.0
  0
VERTEX
  5
316
330
313
100
AcDbEntity
  8
1
  6
Continuous
 62
     7
 48
2.0
100
AcDbVertex
100
AcDb2dVertex
 10
1.078352424064541
 20
0.3014474542502015
 30
0.0
  0
VERTEX
  5
317
330
313
100
AcDbEntity
  8
1
  6
Continuous
 62
     7
 48
2.0
100
AcDbVertex
100
AcDb2dVertex
 10
1.043012369726419
 20
0.4699923389246763
 30
0.0
  0
VERTEX
  5
318
330
313
100
AcDbEntity
  8
1
  6
Continuous
 62
     7
 48
2.0
100
AcDbVertex
100
AcDb2dVertex
 10
0.9927207539374407
 20
0.6222264283081316
 30
0.0
  0
VERTEX
  5
319
330
313
100
AcDbEntity
  8
1
  6
Continuous
 62
     7
 48
2.0
100
AcDbVertex
100
AcDb2dVertex
 10
0.9655360967542705
 20
0.6752365130041156
 30
0.0
  0
SEQEND
  5
31A
330
313
100
AcDbEntity
  8
1
  6
Continuous
 62
     7
 48
2.0
370
     0
  0
POLYLINE
  5
31B
330
1F
100
AcDbEntity
  8
1
  6
Continuous
 62
     7
 48
2.0
370
     0
100
AcDb2dPolyline
 66
     1
 10
0.0
 20
0.0
 30
0.0
 70
   128
  0
VERTEX
  5
31C
330
31B
100
AcDbEntity
  8
1
  6
Continuous
 62
     7
 48
2.0
100
AcDbVertex
100
AcDb2dVertex
 10
0.966895329613429
 20
0.6697995812404045
 30
0.0
  0
VERTEX
  5
31D
330
31B
100
AcDbEntity
  8
1
  6
Continuous
 62
     7
 48
2.0
100
AcDbVertex
100
AcDb2dVertex
 10
0.8500013037257972
 20
0.6684403482995052
 30
0.0
  0
VERTEX
  5
31E
330
31B
100
AcDbEntity
  8
1
  6
Continuous
 62
     7
 48
2.0
100
AcDbVertex
100
AcDb2dVertex
 10
0.7548550035847015
 20
0.6562072518311837
 30
0.0
  0
VERTEX
  5
31F
330
31B
100
AcDbEntity
  8
1
  6
Continuous
 62
     7
 48
2.0
100
AcDbVertex
100
AcDb2dVertex
 10
0.136404052667352
 20
0.551546315380115
 30
0.0
  0
VERTEX
  5
320
330
31B
100
AcDbEntity
  8
1
  6
Continuous
 62
     7
 48
2.0
100
AcDbVertex
100
AcDb2dVertex
 10
0.1255301897940839
 20
0.5393132189117935
 30
0.0
  0
VERTEX
  5
321
330
31B
100
AcDbEntity
  8
1
  6
Continuous
 62
     7
 48
2.0
100
AcDbVertex
100
AcDb2dVertex
 10
0.1268894226532424
 20
0.5066916283296408
 30
0.0
  0
VERTEX
  5
322
330
31B
100
AcDbEntity
  8
1
  6
Continuous
 62
     7
 48
2.0
100
AcDbVertex
100
AcDb2dVertex
 10
0.1432002169631446
 20
0.1668833930987788
 30
0.0
  0
VERTEX
  5
323
330
31B
100
AcDbEntity
  8
1
  6
Continuous
 62
     7
 48
2.0
100
AcDbVertex
100
AcDb2dVertex
 10
0.315822790076389
 20
0.1016402119344733
 30
0.0
  0
VERTEX
  5
324
330
31B
100
AcDbEntity
  8
1
  6
Continuous
 62
     7
 48
2.0
100
AcDbVertex
100
AcDb2dVertex
 10
0.3199004886538646
 20
0.0010569743061595
 30
0.0
  0
SEQEND
  5
325
330
31B
100
AcDbEntity
  8
1
  6
Continuous
 62
     7
 48
2.0
370
     0
  0
LINE
  5
326
330
1F
100
AcDbEntity
  8
1
  6
Continuous
 62
     7
 48
2.0
370
     0
100
AcDbLine
 10
0.1078601626250233
 20
-0.0030207245166523
 30
0.0
 11
0.0997047654700722
 21
0.5556240142028699
 31
0.0
  0
POLYLINE
  5
327
330
1F
100
AcDbEntity
  8
1
  6
Continuous
 62
     7
 48
2.0
370
     0
100
AcDb2dPolyline
 66
     1
 10
0.0
 20
0.0
 30
0.0
 70
   128
  0
VERTEX
  5
328
330
327
100
AcDbEntity
  8
1
  6
Continuous
 62
     7
 48
2.0
100
AcDbVertex
100
AcDb2dVertex
 10
0.5890285947672496
 20
0.7663051200459634
 30
0.0
  0
VERTEX
  5
329
330
327
100
AcDbEntity
  8
1
  6
Continuous
 62
     7
 48
2.0
100
AcDbVertex
100
AcDb2dVertex
 10
0.6012616904996761
 20
0.7989267106281162
 30
0.0
  0
VERTEX
  5
32A
330
327
100
AcDbEntity
  8
1
  6
Continuous
 62
     7
 48
2.0
100
AcDbVertex
100
AcDb2dVertex
 10
0.6012616904996761
 20
0.8397036988558355
 30
0.0
  0
SEQEND
  5
32B
330
327
100
AcDbEntity
  8
1
  6
Continuous
 62
     7
 48
2.0
370
     0
  0
POLYLINE
  5
32C
330
1F
100
AcDbEntity
  8
1
  6
Continuous
 62
     7
 48
2.0
370
     0
100
AcDb2dPolyline
 66
     1
 10
0.0
 20
0.0
 30
0.0
 70
   128
  0
VERTEX
  5
32D
330
32C
100
AcDbEntity
  8
1
  6
Continuous
 62
     7
 48
2.0
100
AcDbVertex
100
AcDb2dVertex
 10
0.2876244055743413
 20
0.9896847529477739
 30
0.0
  0
VERTEX
  5
32E
330
32C
100
AcDbEntity
  8
1
  6
Continuous
 62
     7
 48
2.0
100
AcDbVertex
100
AcDb2dVertex
 10
0.3863677079695194
 20
0.7939154385741247
 30
0.0
  0
VERTEX
  5
32F
330
32C
100
AcDbEntity
  8
1
  6
Continuous
 62
     7
 48
2.0
100
AcDbVertex
100
AcDb2dVertex
 10
0.4739487240068669
 20
0.7999258999803445
 30
0.0
  0
VERTEX
  5
330
330
32C
100
AcDbEntity
  8
1
  6
Continuous
 62
     7
 48
2.0
100
AcDbVertex
100
AcDb2dVertex
 10
0.4885455600131294
 20
0.8059363613865074
 30
0.0
  0
VERTEX
  5
331
330
32C
100
AcDbEntity
  8
1
  6
Continuous
 62
     7
 48
2.0
100
AcDbVertex
100
AcDb2dVertex
 10
0.493697384485948
 20
0.8128054601364809
 30
0.0
  0
VERTEX
  5
332
330
32C
100
AcDbEntity
  8
1
  6
Continuous
 62
     7
 48
2.0
100
AcDbVertex
100
AcDb2dVertex
 10
0.4894041974253227
 20
0.8394232177925645
 30
0.0
  0
VERTEX
  5
333
330
32C
100
AcDbEntity
  8
1
  6
Continuous
 62
     7
 48
2.0
100
AcDbVertex
100
AcDb2dVertex
 10
0.419854567042556
 20
0.9656429073229518
 30
0.0
  0
VERTEX
  5
334
330
32C
100
AcDbEntity
  8
1
  6
Continuous
 62
     7
 48
2.0
100
AcDbVertex
100
AcDb2dVertex
 10
0.3940954446786904
 20
0.9931193023227891
 30
0.0
  0
VERTEX
  5
335
330
32C
100
AcDbEntity
  8
1
  6
Continuous
 62
     7
 48
2.0
100
AcDbVertex
100
AcDb2dVertex
 10
0.3683363223147111
 20
1.001705675760213
 30
0.0
  0
VERTEX
  5
336
330
32C
100
AcDbEntity
  8
1
  6
Continuous
 62
     7
 48
2.0
100
AcDbVertex
100
AcDb2dVertex
 10
0.3339908258293676
 20
1.002564313103967
 30
0.0
  0
VERTEX
  5
337
330
32C
100
AcDbEntity
  8
1
  6
Continuous
 62
     7
 48
2.0
100
AcDbVertex
100
AcDb2dVertex
 10
0.2893416803985005
 20
0.9905433902915277
 30
0.0
  0
SEQEND
  5
338
330
32C
100
AcDbEntity
  8
1
  6
Continuous
 62
     7
 48
2.0
370
     0
  0
POLYLINE
  5
339
330
1F
100
AcDbEntity
  8
1
  6
Continuous
 62
     7
 48
2.0
370
     0
100
AcDb2dPolyline
 66
     1
 10
0.0
 20
0.0
 30
0.0
 70
   128
  0
VERTEX
  5
33A
330
339
100
AcDbEntity
  8
1
  6
Continuous
 62
     7
 48
2.0
100
AcDbVertex
100
AcDb2dVertex
 10
0.3614672230176197
 20
0.841999129823769
 30
0.0
  0
VERTEX
  5
33B
330
339
100
AcDbEntity
  8
1
  6
Continuous
 62
     7
 48
2.0
100
AcDbVertex
100
AcDb2dVertex
 10
-0.1528565868494312
 20
0.846292316542538
 30
0.0
  0
VERTEX
  5
33C
330
339
100
AcDbEntity
  8
1
  6
Continuous
 62
     7
 48
2.0
100
AcDbVertex
100
AcDb2dVertex
 10
-0.5023220135871966
 20
0.847150953886235
 30
0.0
  0
VERTEX
  5
33D
330
339
100
AcDbEntity
  8
1
  6
Continuous
 62
     7
 48
2.0
100
AcDbVertex
100
AcDb2dVertex
 10
-0.8303215050216082
 20
0.841140492480072
 30
0.0
  0
SEQEND
  5
33E
330
339
100
AcDbEntity
  8
1
  6
Continuous
 62
     7
 48
2.0
370
     0
  0
POLYLINE
  5
33F
330
1F
100
AcDbEntity
  8
1
  6
Continuous
 62
     7
 48
2.0
370
     0
100
AcDb2dPolyline
 66
     1
 10
0.0
 20
0.0
 30
0.0
 70
   128
  0
VERTEX
  5
340
330
33F
100
AcDbEntity
  8
1
  6
Continuous
 62
     7
 48
2.0
100
AcDbVertex
100
AcDb2dVertex
 10
0.3674776849025179
 20
0.8231091082614128
 30
0.0
  0
VERTEX
  5
341
330
33F
100
AcDbEntity
  8
1
  6
Continuous
 62
     7
 48
2.0
100
AcDbVertex
100
AcDb2dVertex
 10
-0.1245215522490994
 20
0.8282609323238788
 30
0.0
  0
VERTEX
  5
342
330
33F
100
AcDbEntity
  8
1
  6
Continuous
 62
     7
 48
2.0
100
AcDbVertex
100
AcDb2dVertex
 10
-0.1562911364979769
 20
0.841999129823769
 30
0.0
  0
VERTEX
  5
343
330
33F
100
AcDbEntity
  8
1
  6
Continuous
 62
     7
 48
2.0
100
AcDbVertex
100
AcDb2dVertex
 10
-0.2558930763053482
 20
0.8428577671675228
 30
0.0
  0
VERTEX
  5
344
330
33F
100
AcDbEntity
  8
1
  6
Continuous
 62
     7
 48
2.0
100
AcDbVertex
100
AcDb2dVertex
 10
-0.3374636304577976
 20
0.8402818551363183
 30
0.0
  0
VERTEX
  5
345
330
33F
100
AcDbEntity
  8
1
  6
Continuous
 62
     7
 48
2.0
100
AcDbVertex
100
AcDb2dVertex
 10
-0.3855473255372104
 20
0.8196745588864545
 30
0.0
  0
VERTEX
  5
346
330
33F
100
AcDbEntity
  8
1
  6
Continuous
 62
     7
 48
2.0
100
AcDbVertex
100
AcDb2dVertex
 10
-0.365798665058243
 20
0.8110881854490302
 30
0.0
  0
VERTEX
  5
347
330
33F
100
AcDbEntity
  8
1
  6
Continuous
 62
     7
 48
2.0
100
AcDbVertex
100
AcDb2dVertex
 10
-0.3065526836211134
 20
0.8085122734177688
 30
0.0
  0
VERTEX
  5
348
330
33F
100
AcDbEntity
  8
1
  6
Continuous
 62
     7
 48
2.0
100
AcDbVertex
100
AcDb2dVertex
 10
-0.2919558476148509
 20
0.8196745588864545
 30
0.0
  0
VERTEX
  5
349
330
33F
100
AcDbEntity
  8
1
  6
Continuous
 62
     7
 48
2.0
100
AcDbVertex
100
AcDb2dVertex
 10
-0.2601862633659735
 20
0.8248263829489204
 30
0.0
  0
VERTEX
  5
34A
330
33F
100
AcDbEntity
  8
1
  6
Continuous
 62
     7
 48
2.0
100
AcDbVertex
100
AcDb2dVertex
 10
-0.2275580417049028
 20
0.8248263829489204
 30
0.0
  0
VERTEX
  5
34B
330
33F
100
AcDbEntity
  8
1
  6
Continuous
 62
     7
 48
2.0
100
AcDbVertex
100
AcDb2dVertex
 10
-0.2052334689894693
 20
0.822250470917659
 30
0.0
  0
VERTEX
  5
34C
330
33F
100
AcDbEntity
  8
1
  6
Continuous
 62
     7
 48
2.0
100
AcDbVertex
100
AcDb2dVertex
 10
-0.1863434459225815
 20
0.8119468227927271
 30
0.0
  0
VERTEX
  5
34D
330
33F
100
AcDbEntity
  8
1
  6
Continuous
 62
     7
 48
2.0
100
AcDbVertex
100
AcDb2dVertex
 10
-0.1374011134310891
 20
0.8153813721677423
 30
0.0
  0
VERTEX
  5
34E
330
33F
100
AcDbEntity
  8
1
  6
Continuous
 62
     7
 48
2.0
100
AcDbVertex
100
AcDb2dVertex
 10
-0.1245215522490994
 20
0.8265436576363712
 30
0.0
  0
SEQEND
  5
34F
330
33F
100
AcDbEntity
  8
1
  6
Continuous
 62
     7
 48
2.0
370
     0
  0
POLYLINE
  5
350
330
1F
100
AcDbEntity
  8
1
  6
Continuous
 62
     7
 48
2.0
370
     0
100
AcDb2dPolyline
 66
     1
 10
0.0
 20
0.0
 30
0.0
 70
   128
  0
VERTEX
  5
351
330
350
100
AcDbEntity
  8
1
  6
Continuous
 62
     7
 48
2.0
100
AcDbVertex
100
AcDb2dVertex
 10
0.052357754650096
 20
0.7810358784179883
 30
0.0
  0
VERTEX
  5
352
330
350
100
AcDbEntity
  8
1
  6
Continuous
 62
     7
 48
2.0
100
AcDbVertex
100
AcDb2dVertex
 10
-0.3975682493071204
 20
0.7750254170117685
 30
0.0
  0
VERTEX
  5
353
330
350
100
AcDbEntity
  8
1
  6
Continuous
 62
     7
 48
2.0
100
AcDbVertex
100
AcDb2dVertex
 10
-0.7281436529778844
 20
0.7612872195118214
 30
0.0
  0
VERTEX
  5
354
330
350
100
AcDbEntity
  8
1
  6
Continuous
 62
     7
 48
2.0
100
AcDbVertex
100
AcDb2dVertex
 10
-0.8672429137433042
 20
0.7569940327931093
 30
0.0
  0
SEQEND
  5
355
330
350
100
AcDbEntity
  8
1
  6
Continuous
 62
     7
 48
2.0
370
     0
  0
POLYLINE
  5
356
330
1F
100
AcDbEntity
  8
1
  6
Continuous
 62
     7
 48
2.0
370
     0
100
AcDb2dPolyline
 66
     1
 10
0.0
 20
0.0
 30
0.0
 70
   128
  0
VERTEX
  5
357
330
356
100
AcDbEntity
  8
1
  6
Continuous
 62
     7
 48
2.0
100
AcDbVertex
100
AcDb2dVertex
 10
0.0532163920621755
 20
0.7707322302930564
 30
0.0
  0
VERTEX
  5
358
330
356
100
AcDbEntity
  8
1
  6
Continuous
 62
     7
 48
2.0
100
AcDbVertex
100
AcDb2dVertex
 10
-0.3700918521188683
 20
0.7638631315430828
 30
0.0
  0
VERTEX
  5
359
330
356
100
AcDbEntity
  8
1
  6
Continuous
 62
     7
 48
2.0
100
AcDbVertex
100
AcDb2dVertex
 10
-0.5598507202000533
 20
0.7561353954493555
 30
0.0
  0
VERTEX
  5
35A
330
356
100
AcDbEntity
  8
1
  6
Continuous
 62
     7
 48
2.0
100
AcDbVertex
100
AcDb2dVertex
 10
-0.8732533756282024
 20
0.7406799232619576
 30
0.0
  0
SEQEND
  5
35B
330
356
100
AcDbEntity
  8
1
  6
Continuous
 62
     7
 48
2.0
370
     0
  0
POLYLINE
  5
35C
330
1F
100
AcDbEntity
  8
1
  6
Continuous
 62
     7
 48
2.0
370
     0
100
AcDb2dPolyline
 66
     1
 10
0.0
 20
0.0
 30
0.0
 70
   128
  0
VERTEX
  5
35D
330
35C
100
AcDbEntity
  8
1
  6
Continuous
 62
     7
 48
2.0
100
AcDbVertex
100
AcDb2dVertex
 10
-0.5057565632357424
 20
0.5938529374817065
 30
0.0
  0
VERTEX
  5
35E
330
35C
100
AcDbEntity
  8
1
  6
Continuous
 62
     7
 48
2.0
100
AcDbVertex
100
AcDb2dVertex
 10
-0.4413587573257942
 20
0.7595699448243707
 30
0.0
  0
VERTEX
  5
35F
330
35C
100
AcDbEntity
  8
1
  6
Continuous
 62
     7
 48
2.0
100
AcDbVertex
100
AcDb2dVertex
 10
-0.4490864940349653
 20
0.7698735929493026
 30
0.0
  0
VERTEX
  5
360
330
35C
100
AcDbEntity
  8
1
  6
Continuous
 62
     7
 48
2.0
100
AcDbVertex
100
AcDb2dVertex
 10
-0.452521043683511
 20
0.7784599663867269
 30
0.0
  0
VERTEX
  5
361
330
35C
100
AcDbEntity
  8
1
  6
Continuous
 62
     7
 48
2.0
100
AcDbVertex
100
AcDb2dVertex
 10
-0.4439346695622604
 20
0.807653636074015
 30
0.0
  0
VERTEX
  5
362
330
35C
100
AcDbEntity
  8
1
  6
Continuous
 62
     7
 48
2.0
100
AcDbVertex
100
AcDb2dVertex
 10
-0.4267619213195317
 20
0.8454336791987842
 30
0.0
  0
SEQEND
  5
363
330
35C
100
AcDbEntity
  8
1
  6
Continuous
 62
     7
 48
2.0
370
     0
  0
POLYLINE
  5
364
330
1F
100
AcDbEntity
  8
1
  6
Continuous
 62
     7
 48
2.0
370
     0
100
AcDb2dPolyline
 66
     1
 10
0.0
 20
0.0
 30
0.0
 70
   128
  0
VERTEX
  5
365
330
364
100
AcDbEntity
  8
1
  6
Continuous
 62
     7
 48
2.0
100
AcDbVertex
100
AcDb2dVertex
 10
0.0841273388989734
 20
0.6333502552939834
 30
0.0
  0
VERTEX
  5
366
330
364
100
AcDbEntity
  8
1
  6
Continuous
 62
     7
 48
2.0
100
AcDbVertex
100
AcDb2dVertex
 10
-0.0644169333998903
 20
0.6153188710753241
 30
0.0
  0
VERTEX
  5
367
330
364
100
AcDbEntity
  8
1
  6
Continuous
 62
     7
 48
2.0
100
AcDbVertex
100
AcDb2dVertex
 10
-0.2000816445166507
 20
0.6084497723254074
 30
0.0
  0
VERTEX
  5
368
330
364
100
AcDbEntity
  8
1
  6
Continuous
 62
     7
 48
2.0
100
AcDbVertex
100
AcDb2dVertex
 10
-0.5126256625327201
 20
0.5929943001380096
 30
0.0
  0
VERTEX
  5
369
330
364
100
AcDbEntity
  8
1
  6
Continuous
 62
     7
 48
2.0
100
AcDbVertex
100
AcDb2dVertex
 10
-0.8474942532642231
 20
0.5852665640442822
 30
0.0
  0
SEQEND
  5
36A
330
364
100
AcDbEntity
  8
1
  6
Continuous
 62
     7
 48
2.0
370
     0
  0
LINE
  5
36B
330
1F
100
AcDbEntity
  8
1
  6
Continuous
 62
     7
 48
2.0
370
     0
100
AcDbLine
 10
-0.4508037688592381
 20
0.5990047615441725
 30
0.0
 11
-0.373526401767414
 21
0.763004494199329
 31
0.0
  0
LINE
  5
36C
330
1F
100
AcDbEntity
  8
1
  6
Continuous
 62
     7
 48
2.0
370
     0
100
AcDbLine
 10
-0.5984894037460222
 20
0.5904183881067482
 30
0.0
 11
-0.543536609369518
 21
0.7535594834181509
 31
0.0
  0
POLYLINE
  5
36D
330
1F
100
AcDbEntity
  8
1
  6
Continuous
 62
     7
 48
2.0
370
     0
100
AcDb2dPolyline
 66
     1
 10
0.0
 20
0.0
 30
0.0
 70
   128
  0
VERTEX
  5
36E
330
36D
100
AcDbEntity
  8
1
  6
Continuous
 62
     7
 48
2.0
100
AcDbVertex
100
AcDb2dVertex
 10
0.0583682165349941
 20
0.6067324976378998
 30
0.0
  0
VERTEX
  5
36F
330
36D
100
AcDbEntity
  8
1
  6
Continuous
 62
     7
 48
2.0
100
AcDbVertex
100
AcDb2dVertex
 10
-0.0970451550608473
 20
0.591277025450502
 30
0.0
  0
VERTEX
  5
370
330
36D
100
AcDbEntity
  8
1
  6
Continuous
 62
     7
 48
2.0
100
AcDbVertex
100
AcDb2dVertex
 10
-0.220688942407925
 20
0.586125201388036
 30
0.0
  0
VERTEX
  5
371
330
36D
100
AcDbEntity
  8
1
  6
Continuous
 62
     7
 48
2.0
100
AcDbVertex
100
AcDb2dVertex
 10
-0.5289397733632555
 20
0.5749629159193503
 30
0.0
  0
VERTEX
  5
372
330
36D
100
AcDbEntity
  8
1
  6
Continuous
 62
     7
 48
2.0
100
AcDbVertex
100
AcDb2dVertex
 10
-0.8389078791429725
 20
0.5680938171694336
 30
0.0
  0
SEQEND
  5
373
330
36D
100
AcDbEntity
  8
1
  6
Continuous
 62
     7
 48
2.0
370
     0
  0
POLYLINE
  5
374
330
1F
100
AcDbEntity
  8
1
  6
Continuous
 62
     7
 48
2.0
370
     0
100
AcDb2dPolyline
 66
     1
 10
0.0
 20
0.0
 30
0.0
 70
   128
  0
VERTEX
  5
375
330
374
100
AcDbEntity
  8
1
  6
Continuous
 62
     7
 48
2.0
100
AcDbVertex
100
AcDb2dVertex
 10
0.0875618885475191
 20
0.5586488063881987
 30
0.0
  0
VERTEX
  5
376
330
374
100
AcDbEntity
  8
1
  6
Continuous
 62
     7
 48
2.0
100
AcDbVertex
100
AcDb2dVertex
 10
-0.183767533686229
 20
0.5354655981071303
 30
0.0
  0
VERTEX
  5
377
330
374
100
AcDbEntity
  8
1
  6
Continuous
 62
     7
 48
2.0
100
AcDbVertex
100
AcDb2dVertex
 10
-0.8277455927852557
 20
0.4908164562324444
 30
0.0
  0
SEQEND
  5
378
330
374
100
AcDbEntity
  8
1
  6
Continuous
 62
     7
 48
2.0
370
     0
  0
POLYLINE
  5
379
330
1F
100
AcDbEntity
  8
1
  6
Continuous
 62
     7
 48
2.0
370
     0
100
AcDb2dPolyline
 66
     1
 10
0.0
 20
0.0
 30
0.0
 70
   128
  0
VERTEX
  5
37A
330
379
100
AcDbEntity
  8
1
  6
Continuous
 62
     7
 48
2.0
100
AcDbVertex
100
AcDb2dVertex
 10
0.0987241749052359
 20
0.5371828727946379
 30
0.0
  0
VERTEX
  5
37B
330
379
100
AcDbEntity
  8
1
  6
Continuous
 62
     7
 48
2.0
100
AcDbVertex
100
AcDb2dVertex
 10
-0.1580084113222497
 20
0.5139996645135128
 30
0.0
  0
VERTEX
  5
37C
330
379
100
AcDbEntity
  8
1
  6
Continuous
 62
     7
 48
2.0
100
AcDbVertex
100
AcDb2dVertex
 10
-0.4877251775809341
 20
0.4899578188886906
 30
0.0
  0
VERTEX
  5
37D
330
379
100
AcDbEntity
  8
1
  6
Continuous
 62
     7
 48
2.0
100
AcDbVertex
100
AcDb2dVertex
 10
-0.8466356158521435

 20
0.4667746106076223
 30
0.0
  0
SEQEND
  5
37E
330
379
100
AcDbEntity
  8
1
  6
Continuous
 62
     7
 48
2.0
370
     0
  0
POLYLINE
  5
37F
330
1F
100
AcDbEntity
  8
1
  6
Continuous
 62
     7
 48
2.0
370
     0
100
AcDb2dPolyline
 66
     1
 10
0.0
 20
0.0
 30
0.0
 70
   128
  0
VERTEX
  5
380
330
37F
100
AcDbEntity
  8
1
  6
Continuous
 62
     7
 48
2.0
100
AcDbVertex
100
AcDb2dVertex
 10
-0.4018614363677457
 20
0.8205331962302083
 30
0.0
  0
VERTEX
  5
381
330
37F
100
AcDbEntity
  8
1
  6
Continuous
 62
     7
 48
2.0
100
AcDbVertex
100
AcDb2dVertex
 10
-0.6105103275158186
 20
0.8188159215427007
 30
0.0
  0
VERTEX
  5
382
330
37F
100
AcDbEntity
  8
1
  6
Continuous
 62
     7
 48
2.0
100
AcDbVertex
100
AcDb2dVertex
 10
-0.7290022903900777
 20
0.8162400095114393
 30
0.0
  0
VERTEX
  5
383
330
37F
100
AcDbEntity
  8
1
  6
Continuous
 62
     7
 48
2.0
100
AcDbVertex
100
AcDb2dVertex
 10
-0.9067402347013527
 20
0.8042190866990566
 30
0.0
  0
SEQEND
  5
384
330
37F
100
AcDbEntity
  8
1
  6
Continuous
 62
     7
 48
2.0
370
     0
  0
POLYLINE
  5
385
330
1F
100
AcDbEntity
  8
1
  6
Continuous
 62
     7
 48
2.0
370
     0
100
AcDb2dPolyline
 66
     1
 10
0.0
 20
0.0
 30
0.0
 70
   128
  0
VERTEX
  5
386
330
385
100
AcDbEntity
  8
1
  6
Continuous
 62
     7
 48
2.0
100
AcDbVertex
100
AcDb2dVertex
 10
-0.8258336188135686
 20
0.8412311514010824
 30
0.0
  0
VERTEX
  5
387
330
385
100
AcDbEntity
  8
1
  6
Continuous
 62
     7
 48
2.0
100
AcDbVertex
100
AcDb2dVertex
 10
-1.042621323147024
 20
0.8385657288064934
 30
0.0
  0
VERTEX
  5
388
330
385
100
AcDbEntity
  8
1
  6
Continuous
 62
     7
 48
2.0
100
AcDbVertex
100
AcDb2dVertex
 10
-1.294059521206101
 20
0.840342677202905
 30
0.0
  0
VERTEX
  5
389
330
385
100
AcDbEntity
  8
1
  6
Continuous
 62
     7
 48
2.0
100
AcDbVertex
100
AcDb2dVertex
 10
-1.565932625821098
 20
0.8421196255993166
 30
0.0
  0
VERTEX
  5
38A
330
385
100
AcDbEntity
  8
1
  6
Continuous
 62
     7
 48
2.0
100
AcDbVertex
100
AcDb2dVertex
 10
-1.673438003789762
 20
0.840342677202905
 30
0.0
  0
VERTEX
  5
38B
330
385
100
AcDbEntity
  8
1
  6
Continuous
 62
     7
 48
2.0
100
AcDbVertex
100
AcDb2dVertex
 10
-1.760508475202506
 20
0.8323464094190243
 30
0.0
  0
VERTEX
  5
38C
330
385
100
AcDbEntity
  8
1
  6
Continuous
 62
     7
 48
2.0
100
AcDbVertex
100
AcDb2dVertex
 10
-1.8404711530304
 20
0.814576925454908
 30
0.0
  0
VERTEX
  5
38D
330
385
100
AcDbEntity
  8
1
  6
Continuous
 62
     7
 48
2.0
100
AcDbVertex
100
AcDb2dVertex
 10
-1.959526695574233
 20
0.7781494833284981
 30
0.0
  0
VERTEX
  5
38E
330
385
100
AcDbEntity
  8
1
  6
Continuous
 62
     7
 48
2.0
100
AcDbVertex
100
AcDb2dVertex
 10
-2.0003965086863
 20
0.7612684735625592
 30
0.0
  0
VERTEX
  5
38F
330
385
100
AcDbEntity
  8
1
  6
Continuous
 62
     7
 48
2.0
100
AcDbVertex
100
AcDb2dVertex
 10
-2.016389044251902
 20
0.7408335670037971
 30
0.0
  0
SEQEND
  5
390
330
385
100
AcDbEntity
  8
1
  6
Continuous
 62
     7
 48
2.0
370
     0
  0
POLYLINE
  5
391
330
1F
100
AcDbEntity
  8
1
  6
Continuous
 62
     7
 48
2.0
370
     0
100
AcDb2dPolyline
 66
     1
 10
0.0
 20
0.0
 30
0.0
 70
   128
  0
VERTEX
  5
392
330
391
100
AcDbEntity
  8
1
  6
Continuous
 62
     7
 48
2.0
100
AcDbVertex
100
AcDb2dVertex
 10
-2.001284982884364
 20
0.7594915251661476
 30
0.0
  0
VERTEX
  5
393
330
391
100
AcDbEntity
  8
1
  6
Continuous
 62
     7
 48
2.0
100
AcDbVertex
100
AcDb2dVertex
 10
-1.737408146052168
 20
0.7923650704997911
 30
0.0
  0
VERTEX
  5
394
330
391
100
AcDbEntity
  8
1
  6
Continuous
 62
     7
 48
2.0
100
AcDbVertex
100
AcDb2dVertex
 10
-1.558824832236361
 20
0.8056921834728499
 30
0.0
  0
VERTEX
  5
395
330
391
100
AcDbEntity
  8
1
  6
Continuous
 62
     7
 48
2.0
100
AcDbVertex
100
AcDb2dVertex
 10
-0.8978000288586614
 20
0.8252386158333778
 30
0.0
  0
SEQEND
  5
396
330
391
100
AcDbEntity
  8
1
  6
Continuous
 62
     7
 48
2.0
370
     0
  0
POLYLINE
  5
397
330
1F
100
AcDbEntity
  8
1
  6
Continuous
 62
     7
 48
2.0
370
     0
100
AcDb2dPolyline
 66
     1
 10
0.0
 20
0.0
 30
0.0
 70
   128
  0
VERTEX
  5
398
330
397
100
AcDbEntity
  8
1
  6
Continuous
 62
     7
 48
2.0
100
AcDbVertex
100
AcDb2dVertex
 10
-1.342037127902906
 20
0.8394542030046708
 30
0.0
  0
VERTEX
  5
399
330
397
100
AcDbEntity
  8
1
  6
Continuous
 62
     7
 48
2.0
100
AcDbVertex
100
AcDb2dVertex
 10
-1.400676424976702
 20
0.8199077706441429
 30
0.0
  0
VERTEX
  5
39A
330
397
100
AcDbEntity
  8
1
  6
Continuous
 62
     7
 48
2.0
100
AcDbVertex
100
AcDb2dVertex
 10
-1.417557434740367
 20
0.811911502860319
 30
0.0
  0
VERTEX
  5
39B
330
397
100
AcDbEntity
  8
1
  6
Continuous
 62
     7
 48
2.0
100
AcDbVertex
100
AcDb2dVertex
 10
-1.421111331532735
 20
0.7905881221033795
 30
0.0
  0
VERTEX
  5
39C
330
397
100
AcDbEntity
  8
1
  6
Continuous
 62
     7
 48
2.0
100
AcDbVertex
100
AcDb2dVertex
 10
-1.416668960542303
 20
0.7692647413463831
 30
0.0
  0
VERTEX
  5
39D
330
397
100
AcDbEntity
  8
1
  6
Continuous
 62
     7
 48
2.0
100
AcDbVertex
100
AcDb2dVertex
 10
-1.400676424976702
 20
0.7665993187517941
 30
0.0
  0
VERTEX
  5
39E
330
397
100
AcDbEntity
  8
1
  6
Continuous
 62
     7
 48
2.0
100
AcDbVertex
100
AcDb2dVertex
 10
-1.360695086062698
 20
0.72928340242715
 30
0.0
  0
VERTEX
  5
39F
330
397
100
AcDbEntity
  8
1
  6
Continuous
 62
     7
 48
2.0
100
AcDbVertex
100
AcDb2dVertex
 10
-1.29761341799847
 20
0.6635363117599198
 30
0.0
  0
VERTEX
  5
3A0
330
397
100
AcDbEntity
  8
1
  6
Continuous
 62
     7
 48
2.0
100
AcDbVertex
100
AcDb2dVertex
 10
-1.238085646726496
 20
0.5782427887321049
 30
0.0
  0
VERTEX
  5
3A1
330
397
100
AcDbEntity
  8
1
  6
Continuous
 62
     7
 48
2.0
100
AcDbVertex
100
AcDb2dVertex
 10
-0.8480454737657297
 20
0.5853505823177514
 30
0.0
  0
SEQEND
  5
3A2
330
397
100
AcDbEntity
  8
1
  6
Continuous
 62
     7
 48
2.0
370
     0
  0
POLYLINE
  5
3A3
330
1F
100
AcDbEntity
  8
1
  6
Continuous
 62
     7
 48
2.0
370
     0
100
AcDb2dPolyline
 66
     1
 10
0.0
 20
0.0
 30
0.0
 70
   128
  0
VERTEX
  5
3A4
330
3A3
100
AcDbEntity
  8
1
  6
Continuous
 62
     7
 48
2.0
100
AcDbVertex
100
AcDb2dVertex
 10
-1.160788391492794
 20
0.5809082113267507
 30
0.0
  0
VERTEX
  5
3A5
330
3A3
100
AcDbEntity
  8
1
  6
Continuous
 62
     7
 48
2.0
100
AcDbVertex
100
AcDb2dVertex
 10
-1.231866327339823
 20
0.6679786827509204
 30
0.0
  0
VERTEX
  5
3A6
330
3A3
100
AcDbEntity
  8
1
  6
Continuous
 62
     7
 48
2.0
100
AcDbVertex
100
AcDb2dVertex
 10
-1.232754801538
 20
0.7221756088415034
 30
0.0
  0
VERTEX
  5
3A7
330
3A3
100
AcDbEntity
  8
1
  6
Continuous
 62
     7
 48
2.0
100
AcDbVertex
100
AcDb2dVertex
 10
-0.8738112255102592
 20
0.7408335670037971
 30
0.0
  0
SEQEND
  5
3A8
330
3A3
100
AcDbEntity
  8
1
  6
Continuous
 62
     7
 48
2.0
370
     0
  0
POLYLINE
  5
3A9
330
1F
100
AcDbEntity
  8
1
  6
Continuous
 62
     7
 48
2.0
370
     0
100
AcDb2dPolyline
 66
     1
 10
0.0
 20
0.0
 30
0.0
 70
   128
  0
VERTEX
  5
3AA
330
3A9
100
AcDbEntity
  8
1
  6
Continuous
 62
     7
 48
2.0
100
AcDbVertex
100
AcDb2dVertex
 10
-0.8658149577274585
 20
0.7568261025715017
 30
0.0
  0
VERTEX
  5
3AB
330
3A9
100
AcDbEntity
  8
1
  6
Continuous
 62
     7
 48
2.0
100
AcDbVertex
100
AcDb2dVertex
 10
-1.120807052578904
 20
0.7452759379948546
 30
0.0
  0
VERTEX
  5
3AC
330
3A9
100
AcDbEntity
  8
1
  6
Continuous
 62
     7
 48
2.0
100
AcDbVertex
100
AcDb2dVertex
 10
-1.318936798752567
 20
0.7275064540307383
 30
0.0
  0
VERTEX
  5
3AD
330
3A9
100
AcDbEntity
  8
1
  6
Continuous
 62
     7
 48
2.0
100
AcDbVertex
100
AcDb2dVertex
 10
-1.366914405449371
 20
0.7212871346432692
 30
0.0
  0
VERTEX
  5
3AE
330
3A9
100
AcDbEntity
  8
1
  6
Continuous
 62
     7
 48
2.0
100
AcDbVertex
100
AcDb2dVertex
 10
-1.425553702523167
 20
0.7088484958683878
 30
0.0
  0
VERTEX
  5
3AF
330
3A9
100
AcDbEntity
  8
1
  6
Continuous
 62
     7
 48
2.0
100
AcDbVertex
100
AcDb2dVertex
 10
-1.496631638370197
 20
0.6839712183186251
 30
0.0
  0
VERTEX
  5
3B0
330
3A9
100
AcDbEntity
  8
1
  6
Continuous
 62
     7
 48
2.0
100
AcDbVertex
100
AcDb2dVertex
 10
-1.573040419405835
 20
0.6519861471832158
 30
0.0
  0
VERTEX
  5
3B1
330
3A9
100
AcDbEntity
  8
1
  6
Continuous
 62
     7
 48
2.0
100
AcDbVertex
100
AcDb2dVertex
 10
-1.443323186484896
 20
0.5746888919392816
 30
0.0
  0
VERTEX
  5
3B2
330
3A9
100
AcDbEntity
  8
1
  6
Continuous
 62
     7
 48
2.0
100
AcDbVertex
100
AcDb2dVertex
 10
-1.241639543518865
 20
0.5791312629303391
 30
0.0
  0
SEQEND
  5
3B3
330
3A9
100
AcDbEntity
  8
1
  6
Continuous
 62
     7
 48
2.0
370
     0
  0
POLYLINE
  5
3B4
330
1F
100
AcDbEntity
  8
1
  6
Continuous
 62
     7
 48
2.0
370
     0
100
AcDb2dPolyline
 66
     1
 10
0.0
 20
0.0
 30
0.0
 70
   128
  0
VERTEX
  5
3B5
330
3B4
100
AcDbEntity
  8
1
  6
Continuous
 62
     7
 48
2.0
100
AcDbVertex
100
AcDb2dVertex
 10
-1.413115063749935
 20
0.5782427887321049
 30
0.0
  0
VERTEX
  5
3B6
330
3B4
100
AcDbEntity
  8
1
  6
Continuous
 62
     7
 48
2.0
100
AcDbVertex
100
AcDb2dVertex
 10
-1.443323186484896
 20
0.5880160049123972
 30
0.0
  0
VERTEX
  5
3B7
330
3B4
100
AcDbEntity
  8
1
  6
Continuous
 62
     7
 48
2.0
100
AcDbVertex
100
AcDb2dVertex
 10
-1.555270935444106
 20
0.6502091987868042
 30
0.0
  0
VERTEX
  5
3B8
330
3B4
100
AcDbEntity
  8
1
  6
Continuous
 62
     7
 48
2.0
100
AcDbVertex
100
AcDb2dVertex
 10
-1.461981144644803
 20
0.6857481667150367
 30
0.0
  0
VERTEX
  5
3B9
330
3B4
100
AcDbEntity
  8
1
  6
Continuous
 62
     7
 48
2.0
100
AcDbVertex
100
AcDb2dVertex
 10
-1.355364240874202
 20
0.7141793410576227
 30
0.0
  0
SEQEND
  5
3BA
330
3B4
100
AcDbEntity
  8
1
  6
Continuous
 62
     7
 48
2.0
370
     0
  0
POLYLINE
  5
3BB
330
1F
100
AcDbEntity
  8
1
  6
Continuous
 62
     7
 48
2.0
370
     0
100
AcDb2dPolyline
 66
     1
 10
0.0
 20
0.0
 30
0.0
 70
   128
  0
VERTEX
  5
3BC
330
3BB
100
AcDbEntity
  8
1
  6
Continuous
 62
     7
 48
2.0
100
AcDbVertex
100
AcDb2dVertex
 10
-0.8364953091905605
 20
0.5684695725518694
 30
0.0
  0
VERTEX
  5
3BD
330
3BB
100
AcDbEntity
  8
1
  6
Continuous
 62
     7
 48
2.0
100
AcDbVertex
100
AcDb2dVertex
 10
-1.283397830828996
 20
0.5569194079751654
 30
0.0
  0
VERTEX
  5
3BE
330
3BB
100
AcDbEntity
  8
1
  6
Continuous
 62
     7
 48
2.0
100
AcDbVertex
100
AcDb2dVertex
 10
-1.580148212990572
 20
0.544480769200284
 30
0.0
  0
VERTEX
  5
3BF
330
3BB
100
AcDbEntity
  8
1
  6
Continuous
 62
     7
 48
2.0
100
AcDbVertex
100
AcDb2dVertex
 10
-1.653003097233842
 20
0.5391499240110491
 30
0.0
  0
SEQEND
  5
3C0
330
3BB
100
AcDbEntity
  8
1
  6
Continuous
 62
     7
 48
2.0
370
     0
  0
POLYLINE
  5
3C1
330
1F
100
AcDbEntity
  8
1
  6
Continuous
 62
     7
 48
2.0
370
     0
100
AcDb2dPolyline
 66
     1
 10
0.0
 20
0.0
 30
0.0
 70
   128
  0
VERTEX
  5
3C2
330
3C1
100
AcDbEntity
  8
1
  6
Continuous
 62
     7
 48
2.0
100
AcDbVertex
100
AcDb2dVertex
 10
-0.8249451446153913
 20
0.490283843109701
 30
0.0
  0
VERTEX
  5
3C3
330
3C1
100
AcDbEntity
  8
1
  6
Continuous
 62
     7
 48
2.0
100
AcDbVertex
100
AcDb2dVertex
 10
-1.294059521206101
 20
0.4529679267850568
 30
0.0
  0
VERTEX
  5
3C4
330
3C1
100
AcDbEntity
  8
1
  6
Continuous
 62
     7
 48
2.0
100
AcDbVertex
100
AcDb2dVertex
 10
-1.573040419405835
 20
0.4298675976317057
 30
0.0
  0
SEQEND
  5
3C5
330
3C1
100
AcDbEntity
  8
1
  6
Continuous
 62
     7
 48
2.0
370
     0
  0
POLYLINE
  5
3C6
330
1F
100
AcDbEntity
  8
1
  6
Continuous
 62
     7
 48
2.0
370
     0
100
AcDb2dPolyline
 66
     1
 10
0.0
 20
0.0
 30
0.0
 70
   128
  0
VERTEX
  5
3C7
330
3C6
100
AcDbEntity
  8
1
  6
Continuous
 62
     7
 48
2.0
100
AcDbVertex
100
AcDb2dVertex
 10
-0.847156999567666
 20
0.4671835139563498
 30
0.0
  0
VERTEX
  5
3C8
330
3C6
100
AcDbEntity
  8
1
  6
Continuous
 62
     7
 48
2.0
100
AcDbVertex
100
AcDb2dVertex
 10
-1.117253155786536
 20
0.4449716590012329
 30
0.0
  0
VERTEX
  5
3C9
330
3C6
100
AcDbEntity
  8
1
  6
Continuous
 62
     7
 48
2.0
100
AcDbVertex
100
AcDb2dVertex
 10
-1.441546238088769
 20
0.4192059072532359
 30
0.0
  0
VERTEX
  5
3CA
330
3C6
100
AcDbEntity
  8
1
  6
Continuous
 62
     7
 48
2.0
100
AcDbVertex
100
AcDb2dVertex
 10
-1.571263471009708
 20
0.4094326910730004
 30
0.0
  0
SEQEND
  5
3CB
330
3C6
100
AcDbEntity
  8
1
  6
Continuous
 62
     7
 48
2.0
370
     0
  0
LINE
  5
3CC
330
1F
100
AcDbEntity
  8
1
  6
Continuous
 62
     7
 48
2.0
370
     0
100
AcDbLine
 10
-0.9057962966414621
 20
0.8039152350764383
 30
0.0
 11
-1.0808257136649
 21
0.7959189672926144
 31
0.0
  0
POLYLINE
  5
3CD
330
1F
100
AcDbEntity
  8
1
  6
Continuous
 62
     7
 48
2.0
370
     0
100
AcDb2dPolyline
 66
     1
 10
0.0
 20
0.0
 30
0.0
 70
   128
  0
VERTEX
  5
3CE
330
3CD
100
AcDbEntity
  8
1
  6
Continuous
 62
     7
 48
2.0
100
AcDbVertex
100
AcDb2dVertex
 10
-1.358918137666571
 20
0.7790379575266755
 30
0.0
  0
VERTEX
  5
3CF
330
3CD
100
AcDbEntity
  8
1
  6
Continuous
 62
     7
 48
2.0
100
AcDbVertex
100
AcDb2dVertex
 10
-1.564155677424971
 20
0.7665993187517941
 30
0.0
  0
VERTEX
  5
3D0
330
3CD
100
AcDbEntity
  8
1
  6
Continuous
 62
     7
 48
2.0
100
AcDbVertex
100
AcDb2dVertex
 10
-1.728523404071304
 20
0.7541606799769127
 30
0.0
  0
VERTEX
  5
3D1
330
3CD
100
AcDbEntity
  8
1
  6
Continuous
 62
     7
 48
2.0
100
AcDbVertex
100
AcDb2dVertex
 10
-1.805820659305006
 20
0.7479413605894436
 30
0.0
  0
VERTEX
  5
3D2
330
3CD
100
AcDbEntity
  8
1
  6
Continuous
 62
     7
 48
2.0
100
AcDbVertex
100
AcDb2dVertex
 10
-1.848467420813201
 20
0.7426105154002087
 30
0.0
  0
VERTEX
  5
3D3
330
3CD
100
AcDbEntity
  8
1
  6
Continuous
 62
     7
 48
2.0
100
AcDbVertex
100
AcDb2dVertex
 10
-1.892891130717636
 20
0.7301718766253273
 30
0.0
  0
VERTEX
  5
3D4
330
3CD
100
AcDbEntity
  8
1
  6
Continuous
 62
     7
 48
2.0
100
AcDbVertex
100
AcDb2dVertex
 10
-1.931983995433576
 20
0.7141793410576227
 30
0.0
  0
VERTEX
  5
3D5
330
3CD
100
AcDbEntity
  8
1
  6
Continuous
 62
     7
 48
2.0
100
AcDbVertex
100
AcDb2dVertex
 10
-1.960415169772297
 20
0.703517650679153
 30
0.0
  0
VERTEX
  5
3D6
330
3CD
100
AcDbEntity
  8
1
  6
Continuous
 62
     7
 48
2.0
100
AcDbVertex
100
AcDb2dVertex
 10
-1.996842611894046
 20
0.6093393856693368
 30
0.0
  0
VERTEX
  5
3D7
330
3CD
100
AcDbEntity
  8
1
  6
Continuous
 62
     7
 48
2.0
100
AcDbVertex
100
AcDb2dVertex
 10
-2.024385312034703
 20
0.5435922950021066
 30
0.0
  0
VERTEX
  5
3D8
330
3CD
100
AcDbEntity
  8
1
  6
Continuous
 62
     7
 48
2.0
100
AcDbVertex
100
AcDb2dVertex
 10
-1.974630756941771
 20
0.587127530714163
 30
0.0
  0
VERTEX
  5
3D9
330
3CD
100
AcDbEntity
  8
1
  6
Continuous
 62
     7
 48
2.0
100
AcDbVertex
100
AcDb2dVertex
 10
-1.935537892225831
 20
0.6182241276513949
 30
0.0
  0
VERTEX
  5
3DA
330
3CD
100
AcDbEntity
  8
1
  6
Continuous
 62
     7
 48
2.0
100
AcDbVertex
100
AcDb2dVertex
 10
-1.91332603727367
 20
0.6262203954352756
 30
0.0
  0
VERTEX
  5
3DB
330
3CD
100
AcDbEntity
  8
1
  6
Continuous
 62
     7
 48
2.0
100
AcDbVertex
100
AcDb2dVertex
 10
-1.82625556586104
 20
0.6333281890209221
 30
0.0
  0
VERTEX
  5
3DC
330
3CD
100
AcDbEntity
  8
1
  6
Continuous
 62
     7
 48
2.0
100
AcDbVertex
100
AcDb2dVertex
 10
-1.813816927087807
 20
0.6146702308585716
 30
0.0
  0
VERTEX
  5
3DD
330
3CD
100
AcDbEntity
  8
1
  6
Continuous
 62
     7
 48
2.0
100
AcDbVertex
100
AcDb2dVertex
 10
-1.643229881054801
 20
0.5435922950021066
 30
0.0
  0
VERTEX
  5
3DE
330
3CD
100
AcDbEntity
  8
1
  6
Continuous
 62
     7
 48
2.0
100
AcDbVertex
100
AcDb2dVertex
 10
-1.628125819687263
 20
0.5178265432541096
 30
0.0
  0
VERTEX
  5
3DF
330
3CD
100
AcDbEntity
  8
1
  6
Continuous
 62
     7
 48
2.0
100
AcDbVertex
100
AcDb2dVertex
 10
-1.608579387329293
 20
0.4680719881545841
 30
0.0
  0
VERTEX
  5
3E0
330
3CD
100
AcDbEntity
  8
1
  6
Continuous
 62
     7
 48
2.0
100
AcDbVertex
100
AcDb2dVertex
 10
-1.597029222754237
 20
0.3925516813070615
 30
0.0
  0
VERTEX
  5
3E1
330
3CD
100
AcDbEntity
  8
1
  6
Continuous
 62
     7
 48
2.0
100
AcDbVertex
100
AcDb2dVertex
 10
-1.597029222754237
 20
0.2077490480801956
 30
0.0
  0
SEQEND
  5
3E2
330
3CD
100
AcDbEntity
  8
1
  6
Continuous
 62
     7
 48
2.0
370
     0
  0
POLYLINE
  5
3E3
330
1F
100
AcDbEntity
  8
1
  6
Continuous
 62
     7
 48
2.0
370
     0
100
AcDb2dPolyline
 66
     1
 10
0.0
 20
0.0
 30
0.0
 70
   128
  0
VERTEX
  5
3E4
330
3E3
100
AcDbEntity
  8
1
  6
Continuous
 62
     7
 48
2.0
100
AcDbVertex
100
AcDb2dVertex
 10
-1.923987727650776
 20
0.6279973438316304
 30
0.0
  0
VERTEX
  5
3E5
330
3E3
100
AcDbEntity
  8
1
  6
Continuous
 62
     7
 48
2.0
100
AcDbVertex
100
AcDb2dVertex
 10
-1.891114182321509
 20
0.7044061248773872
 30
0.0
  0
VERTEX
  5
3E6
330
3E3
100
AcDbEntity
  8
1
  6
Continuous
 62
     7
 48
2.0
100
AcDbVertex
100
AcDb2dVertex
 10
-1.872456224161603
 20
0.731948825021739
 30
0.0
  0
VERTEX
  5
3E7
330
3E3
100
AcDbEntity
  8
1
  6
Continuous
 62
     7
 48
2.0
100
AcDbVertex
100
AcDb2dVertex
 10
-1.951530427791432
 20
0.7026291764809756
 30
0.0
  0
VERTEX
  5
3E8
330
3E3
100
AcDbEntity
  8
1
  6
Continuous
 62
     7
 48
2.0
100
AcDbVertex
100
AcDb2dVertex
 10
-1.962192118168538
 20
0.6857481667150367
 30
0.0
  0
VERTEX
  5
3E9
330
3E3
100
AcDbEntity
  8
1
  6
Continuous
 62
     7
 48
2.0
100
AcDbVertex
100
AcDb2dVertex
 10
-2.012835147459533
 20
0.5595848305698112
 30
0.0
  0
SEQEND
  5
3EA
330
3E3
100
AcDbEntity
  8
1
  6
Continuous
 62
     7
 48
2.0
370
     0
  0
POLYLINE
  5
3EB
330
1F
100
AcDbEntity
  8
1
  6
Continuous
 62
     7
 48
2.0
370
     0
100
AcDb2dPolyline
 66
     1
 10
0.0
 20
0.0
 30
0.0
 70
   128
  0
VERTEX
  5
3EC
330
3EB
100
AcDbEntity
  8
1
  6
Continuous
 62
     7
 48
2.0
100
AcDbVertex
100
AcDb2dVertex
 10
-1.921322305056471
 20
0.7079600216702104
 30
0.0
  0
VERTEX
  5
3ED
330
3EB
100
AcDbEntity
  8
1
  6
Continuous
 62
     7
 48
2.0
100
AcDbVertex
100
AcDb2dVertex
 10
-1.9390917890182
 20
0.6715325795437437
 30
0.0
  0
VERTEX
  5
3EE
330
3EB
100
AcDbEntity
  8
1
  6
Continuous
 62
     7
 48
2.0
100
AcDbVertex
100
AcDb2dVertex
 10
-1.963969066564665
 20
0.6031200662818677
 30
0.0
  0
VERTEX
  5
3EF
330
3EB
100
AcDbEntity
  8
1
  6
Continuous
 62
     7
 48
2.0
100
AcDbVertex
100
AcDb2dVertex
 10
-1.980850076328444
 20
0.5515885627859305
 30
0.0
  0
VERTEX
  5
3F0
330
3EB
100
AcDbEntity
  8
1
  6
Continuous
 62
     7
 48
2.0
100
AcDbVertex
100
AcDb2dVertex
 10
-1.997731086092109
 20
0.4805106269294654
 30
0.0
  0
SEQEND
  5
3F1
330
3EB
100
AcDbEntity
  8
1
  6
Continuous
 62
     7
 48
2.0
370
     0
  0
POLYLINE
  5
3F2
330
1F
100
AcDbEntity
  8
1
  6
Continuous
 62
     7
 48
2.0
370
     0
100
AcDb2dPolyline
 66
     1
 10
0.0
 20
0.0
 30
0.0
 70
   128
  0
VERTEX
  5
3F3
330
3F2
100
AcDbEntity
  8
1
  6
Continuous
 62
     7
 48
2.0
100
AcDbVertex
100
AcDb2dVertex
 10
-1.813816927087807
 20
0.6404359826065686
 30
0.0
  0
VERTEX
  5
3F4
330
3F2
100
AcDbEntity
  8
1
  6
Continuous
 62
     7
 48
2.0
100
AcDbVertex
100
AcDb2dVertex
 10
-1.776501010768108
 20
0.6786403731293902
 30
0.0
  0
VERTEX
  5
3F5
330
3F2
100
AcDbEntity
  8
1
  6
Continuous
 62
     7
 48
2.0
100
AcDbVertex
100
AcDb2dVertex
 10
-1.742738991240664
 20
0.7070715474719762
 30
0.0
  0
VERTEX
  5
3F6
330
3F2
100
AcDbEntity
  8
1
  6
Continuous
 62
     7
 48
2.0
100
AcDbVertex
100
AcDb2dVertex
 10
-1.679657323176436
 20
0.7452759379948546
 30
0.0
  0
SEQEND
  5
3F7
330
3F2
100
AcDbEntity
  8
1
  6
Continuous
 62
     7
 48
2.0
370
     0
  0
POLYLINE
  5
3F8
330
1F
100
AcDbEntity
  8
1
  6
Continuous
 62
     7
 48
2.0
370
     0
100
AcDb2dPolyline
 66
     1
 10
0.0
 20
0.0
 30
0.0
 70
   128
  0
VERTEX
  5
3F9
330
3F8
100
AcDbEntity
  8
1
  6
Continuous
 62
     7
 48
2.0
100
AcDbVertex
100
AcDb2dVertex
 10
-1.34559102469516
 20
0.7790379575266755
 30
0.0
  0
VERTEX
  5
3FA
330
3F8
100
AcDbEntity
  8
1
  6
Continuous
 62
     7
 48
2.0
100
AcDbVertex
100
AcDb2dVertex
 10
-1.335817808516232
 20
0.7888111737069678
 30
0.0
  0
VERTEX
  5
3FB
330
3F8
100
AcDbEntity
  8
1
  6
Continuous
 62
     7
 48
2.0
100
AcDbVertex
100
AcDb2dVertex
 10
-1.29761341799847
 20
0.800361338283615
 30
0.0
  0
VERTEX
  5
3FC
330
3F8
100
AcDbEntity
  8
1
  6
Continuous
 62
     7
 48
2.0
100
AcDbVertex
100
AcDb2dVertex
 10
-1.217650740170463
 20
0.8030267608782609
 30
0.0
  0
VERTEX
  5
3FD
330
3F8
100
AcDbEntity
  8
1
  6
Continuous
 62
     7
 48
2.0
100
AcDbVertex
100
AcDb2dVertex
 10
-1.143018907531065
 20
0.8021382866800266
 30
0.0
  0
VERTEX
  5
3FE
330
3F8
100
AcDbEntity
  8
1
  6
Continuous
 62
     7
 48
2.0
100
AcDbVertex
100
AcDb2dVertex
 10
-1.103037568617061
 20
0.7941420188962027
 30
0.0
  0
VERTEX
  5
3FF
330
3F8
100
AcDbEntity
  8
1
  6
Continuous
 62
     7
 48
2.0
100
AcDbVertex
100
AcDb2dVertex
 10
-1.108368413805557
 20
0.7799264317248529
 30
0.0
  0
VERTEX
  5
400
330
3F8
100
AcDbEntity
  8
1
  6
Continuous
 62
     7
 48
2.0
100
AcDbVertex
100
AcDb2dVertex
 10
-1.149238226917625
 20
0.7737071123374406
 30
0.0
  0
VERTEX
  5
401
330
3F8
100
AcDbEntity
  8
1
  6
Continuous
 62
     7
 48
2.0
100
AcDbVertex
100
AcDb2dVertex
 10
-1.170561607671836
 20
0.7781494833284981
 30
0.0
  0
VERTEX
  5
402
330
3F8
100
AcDbEntity
  8
1
  6
Continuous
 62
     7
 48
2.0
100
AcDbVertex
100
AcDb2dVertex
 10
-1.188331091633565
 20
0.7870342253105562
 30
0.0
  0
VERTEX
  5
403
330
3F8
100
AcDbEntity
  8
1
  6
Continuous
 62
     7
 48
2.0
100
AcDbVertex
100
AcDb2dVertex
 10
-1.2247585337552
 20
0.7888111737069678
 30
0.0
  0
VERTEX
  5
404
330
3F8
100
AcDbEntity
  8
1
  6
Continuous
 62
     7
 48
2.0
100
AcDbVertex
100
AcDb2dVertex
 10
-1.253189708094034
 20
0.786145751112322
 30
0.0
  0
VERTEX
  5
405
330
3F8
100
AcDbEntity
  8
1
  6
Continuous
 62
     7
 48
2.0
100
AcDbVertex
100
AcDb2dVertex
 10
-1.273624614650068
 20
0.7834803285176761
 30
0.0
  0
VERTEX
  5
406
330
3F8
100
AcDbEntity
  8
1
  6
Continuous
 62
     7
 48
2.0
100
AcDbVertex
100
AcDb2dVertex
 10
-1.282509356630932
 20
0.7754840607338522
 30
0.0
  0
VERTEX
  5
407
330
3F8
100
AcDbEntity
  8
1
  6
Continuous
 62
     7
 48
2.0
100
AcDbVertex
100
AcDb2dVertex
 10
-1.308275108375462
 20
0.7710416897428516
 30
0.0
  0
VERTEX
  5
408
330
3F8
100
AcDbEntity
  8
1
  6
Continuous
 62
     7
 48
2.0
100
AcDbVertex
100
AcDb2dVertex
 10
-1.326044592337304
 20
0.7710416897428516
 30
0.0
  0
VERTEX
  5
409
330
3F8
100
AcDbEntity
  8
1
  6
Continuous
 62
     7
 48
2.0
100
AcDbVertex
100
AcDb2dVertex
 10
-1.342925602100969
 20
0.7772610091302639
 30
0.0
  0
SEQEND
  5
40A
330
3F8
100
AcDbEntity
  8
1
  6
Continuous
 62
     7
 48
2.0
370
     0
  0
POLYLINE
  5
40B
330
1F
100
AcDbEntity
  8
1
  6
Continuous
 62
     7
 48
2.0
370
     0
100
AcDb2dPolyline
 66
     1
 10
0.0
 20
0.0
 30
0.0
 70
   128
  0
VERTEX
  5
40C
330
40B
100
AcDbEntity
  8
1
  6
Continuous
 62
     7
 48
2.0
100
AcDbVertex
100
AcDb2dVertex
 10
-2.160213877050161
 20
0.0024432882237946
 30
0.0
  0
VERTEX
  5
40D
330
40B
100
AcDbEntity
  8
1
  6
Continuous
 62
     7
 48
2.0
100
AcDbVertex
100
AcDb2dVertex
 10
-2.153205538990711
 20
0.3148149283519004
 30
0.0
  0
VERTEX
  5
40E
330
40B
100
AcDbEntity
  8
1
  6
Continuous
 62
     7
 48
2.0
100
AcDbVertex
100
AcDb2dVertex
 10
-2.147198392082693
 20
0.4429673960967833
 30
0.0
  0
VERTEX
  5
40F
330
40B
100
AcDbEntity
  8
1
  6
Continuous
 62
     7
 48
2.0
100
AcDbVertex
100
AcDb2dVertex
 10
-2.110154319482923
 20
0.4980329095809068
 30
0.0
  0
VERTEX
  5
410
330
40B
100
AcDbEntity
  8
1
  6
Continuous
 62
     7
 48
2.0
100
AcDbVertex
100
AcDb2dVertex
 10
-2.088128114153371
 20
0.525065070745832
 30
0.0
  0
VERTEX
  5
411
330
40B
100
AcDbEntity
  8
1
  6
Continuous
 62
     7
 48
2.0
100
AcDbVertex
100
AcDb2dVertex
 10
-2.073110246883154
 20
0.5360781734426681
 30
0.0
  0
VERTEX
  5
412
330
40B
100
AcDbEntity
  8
1
  6
Continuous
 62
     7
 48
2.0
100
AcDbVertex
100
AcDb2dVertex
 10
-2.049081659250966
 20
0.544087702676741
 30
0.0
  0
VERTEX
  5
413
330
40B
100
AcDbEntity
  8
1
  6
Continuous
 62
     7
 48
2.0
100
AcDbVertex
100
AcDb2dVertex
 10
-2.025053071618665
 20
0.5450888938310143
 30
0.0
  0
SEQEND
  5
414
330
40B
100
AcDbEntity
  8
1
  6
Continuous
 62
     7
 48
2.0
370
     0
  0
POLYLINE
  5
415
330
1F
100
AcDbEntity
  8
1
  6
Continuous
 62
     7
 48
2.0
370
     0
100
AcDb2dPolyline
 66
     1
 10
0.0
 20
0.0
 30
0.0
 70
   128
  0
VERTEX
  5
416
330
415
100
AcDbEntity
  8
1
  6
Continuous
 62
     7
 48
2.0
100
AcDbVertex
100
AcDb2dVertex
 10
-2.073110246883154
 20
0.544087702676741
 30
0.0
  0
VERTEX
  5
417
330
415
100
AcDbEntity
  8
1
  6
Continuous
 62
     7
 48
2.0
100
AcDbVertex
100
AcDb2dVertex
 10
-2.049081659250966
 20
0.6261853773257897
 30
0.0
  0
VERTEX
  5
418
330
415
100
AcDbEntity
  8
1
  6
Continuous
 62
     7
 48
2.0
100
AcDbVertex
100
AcDb2dVertex
 10
-2.012037586651196
 20
0.7092842431291118
 30
0.0
  0
VERTEX
  5
419
330
415
100
AcDbEntity
  8
1
  6
Continuous
 62
     7
 48
2.0
100
AcDbVertex
100
AcDb2dVertex
 10
-1.987007807867577
 20
0.7493318892993628
 30
0.0
  0
SEQEND
  5
41A
330
415
100
AcDbEntity
  8
1
  6
Continuous
 62
     7
 48
2.0
370
     0
  0
POLYLINE
  5
41B
330
1F
100
AcDbEntity
  8
1
  6
Continuous
 62
     7
 48
2.0
370
     0
100
AcDb2dPolyline
 66
     1
 10
0.0
 20
0.0
 30
0.0
 70
   128
  0
VERTEX
  5
41C
330
41B
100
AcDbEntity
  8
1
  6
Continuous
 62
     7
 48
2.0
100
AcDbVertex
100
AcDb2dVertex
 10
-1.926936338786938
 20
0.6211794215544799
 30
0.0
  0
VERTEX
  5
41D
330
41B
100
AcDbEntity
  8
1
  6
Continuous
 62
     7
 48
2.0
100
AcDbVertex
100
AcDb2dVertex
 10
-1.964981602538025
 20
0.520059114974579
 30
0.0
  0
VERTEX
  5
41E
330
41B
100
AcDbEntity
  8
1
  6
Continuous
 62
     7
 48
2.0
100
AcDbVertex
100
AcDb2dVertex
 10
-1.988008999018895
 20
0.4149340437775848
 30
0.0
  0
VERTEX
  5
41F
330
41B
100
AcDbEntity
  8
1
  6
Continuous
 62
     7
 48
2.0
100
AcDbVertex
100
AcDb2dVertex
 10
-2.015041160105262
 20
0.2797732379529592
 30
0.0
  0
VERTEX
  5
420
330
41B
100
AcDbEntity
  8
1
  6
Continuous
 62
     7
 48
2.0
100
AcDbVertex
100
AcDb2dVertex
 10
-2.024051880467347
 20
0.1496183878995296
 30
0.0
  0
VERTEX
  5
421
330
41B
100
AcDbEntity
  8
1
  6
Continuous
 62
     7
 48
2.0
100
AcDbVertex
100
AcDb2dVertex
 10
-2.030059027375366
 20
0.0034444793780679
 30
0.0
  0
SEQEND
  5
422
330
41B
100
AcDbEntity
  8
1
  6
Continuous
 62
     7
 48
2.0
370
     0
  0
POLYLINE
  5
423
330
1F
100
AcDbEntity
  8
1
  6
Continuous
 62
     7
 48
2.0
370
     0
100
AcDb2dPolyline
 66
     1
 10
0.0
 20
0.0
 30
0.0
 70
   128
  0
VERTEX
  5
424
330
423
100
AcDbEntity
  8
1
  6
Continuous
 62
     7
 48
2.0
100
AcDbVertex
100
AcDb2dVertex
 10
-2.021048307013281
 20
0.0034444793780679
 30
0.0
  0
VERTEX
  5
425
330
423
100
AcDbEntity
  8
1
  6
Continuous
 62
     7
 48
2.0
100
AcDbVertex
100
AcDb2dVertex
 10
-2.010035204348561
 20
0.2367220183198882
 30
0.0
  0
VERTEX
  5
426
330
423
100
AcDbEntity
  8
1
  6
Continuous
 62
     7
 48
2.0
100
AcDbVertex
100
AcDb2dVertex
 10
-2.000023292835046
 20
0.3248268398944631
 30
0.0
  0
VERTEX
  5
427
330
423
100
AcDbEntity
  8
1
  6
Continuous
 62
     7
 48
2.0
100
AcDbVertex
100
AcDb2dVertex
 10
-1.963980411386707
 20
0.4519781164851295
 30
0.0
  0
VERTEX
  5
428
330
423
100
AcDbEntity
  8
1
  6
Continuous
 62
     7
 48
2.0
100
AcDbVertex
100
AcDb2dVertex
 10
-1.943956588359789
 20
0.4820138511128178
 30
0.0
  0
VERTEX
  5
429
330
423
100
AcDbEntity
  8
1
  6
Continuous
 62
     7
 48
2.0
100
AcDbVertex
100
AcDb2dVertex
 10
-1.92593514763562
 20
0.4940281449638704
 30
0.0
  0
VERTEX
  5
42A
330
423
100
AcDbEntity
  8
1
  6
Continuous
 62
     7
 48
2.0
100
AcDbVertex
100
AcDb2dVertex
 10
-1.909916089214086
 20
0.4990341007351802
 30
0.0
  0
VERTEX
  5
42B
330
423
100
AcDbEntity
  8
1
  6
Continuous
 62
     7
 48
2.0
100
AcDbVertex
100
AcDb2dVertex
 10
-1.8768767812197
 20
0.5040400565064331
 30
0.0
  0
VERTEX
  5
42C
330
423
100
AcDbEntity
  8
1
  6
Continuous
 62
     7
 48
2.0
100
AcDbVertex
100
AcDb2dVertex
 10
-1.787770768750171
 20
0.4519781164851295
 30
0.0
  0
SEQEND
  5
42D
330
423
100
AcDbEntity
  8
1
  6
Continuous
 62
     7
 48
2.0
370
     0
  0
POLYLINE
  5
42E
330
1F
100
AcDbEntity
  8
1
  6
Continuous
 62
     7
 48
2.0
370
     0
100
AcDb2dPolyline
 66
     1
 10
0.0
 20
0.0
 30
0.0
 70
   128
  0
VERTEX
  5
42F
330
42E
100
AcDbEntity
  8
1
  6
Continuous
 62
     7
 48
2.0
100
AcDbVertex
100
AcDb2dVertex
 10
-1.95597088217594
 20
0.5370793645969414
 30
0.0
  0
VERTEX
  5
430
330
42E
100
AcDbEntity
  8
1
  6
Continuous
 62
     7
 48
2.0
100
AcDbVertex
100
AcDb2dVertex
 10
-1.926936338786938
 20
0.5551008053735771
 30
0.0
  0
VERTEX
  5
431
330
42E
100
AcDbEntity
  8
1
  6
Continuous
 62
     7
 48
2.0
100
AcDbVertex
100
AcDb2dVertex
 10
-1.8958994130953
 20
0.5611079522991034
 30
0.0
  0
VERTEX
  5
432
330
42E
100
AcDbEntity
  8
1
  6
Continuous
 62
     7
 48
2.0
100
AcDbVertex
100
AcDb2dVertex
 10
-1.839832708620044
 20
0.5510960407565406
 30
0.0
  0
VERTEX
  5
433
330
42E
100
AcDbEntity
  8
1
  6
Continuous
 62
     7
 48
2.0
100
AcDbVertex
100
AcDb2dVertex
 10
-1.722693343912717
 20
0.5090460122777429
 30
0.0
  0
SEQEND
  5
434
330
42E
100
AcDbEntity
  8
1
  6
Continuous
 62
     7
 48
2.0
370
     0
  0
POLYLINE
  5
435
330
1F
100
AcDbEntity
  8
1
  6
Continuous
 62
     7
 48
2.0
370
     0
100
AcDb2dPolyline
 66
     1
 10
0.0
 20
0.0
 30
0.0
 70
   128
  0
VERTEX
  5
436
330
435
100
AcDbEntity
  8
1
  6
Continuous
 62
     7
 48
2.0
100
AcDbVertex
100
AcDb2dVertex
 10
-1.856852958192896
 20
0.0014420970695213
 30
0.0
  0
VERTEX
  5
437
330
435
100
AcDbEntity
  8
1
  6
Continuous
 62
     7
 48
2.0
100
AcDbVertex
100
AcDb2dVertex
 10
-1.851847002436081
 20
0.1786529313730014
 30
0.0
  0
VERTEX
  5
438
330
435
100
AcDbEntity
  8
1
  6
Continuous
 62
     7
 48
2.0
100
AcDbVertex
100
AcDb2dVertex
 10
-1.846841046679494
 20
0.2527410767879772
 30
0.0
  0
VERTEX
  5
439
330
435
100
AcDbEntity
  8
1
  6
Continuous
 62
     7
 48
2.0
100
AcDbVertex
100
AcDb2dVertex
 10
-1.831823179409277
 20
0.3248268398944631
 30
0.0
  0
VERTEX
  5
43A
330
435
100
AcDbEntity
  8
1
  6
Continuous
 62
     7
 48
2.0
100
AcDbVertex
100
AcDb2dVertex
 10
-1.796781489112256
 20
0.4219423818573844
 30
0.0
  0
VERTEX
  5
43B
330
435
100
AcDbEntity
  8
1
  6
Continuous
 62
     7
 48
2.0
100
AcDbVertex
100
AcDb2dVertex
 10
-1.788771959901489
 20
0.4519781164851295
 30
0.0
  0
VERTEX
  5
43C
330
435
100
AcDbEntity
  8
1
  6
Continuous
 62
     7
 48
2.0
100
AcDbVertex
100
AcDb2dVertex
 10
-1.758736225361169
 20
0.4820138511128178
 30
0.0
  0
VERTEX
  5
43D
330
435
100
AcDbEntity
  8
1
  6
Continuous
 62
     7
 48
2.0
100
AcDbVertex
100
AcDb2dVertex
 10
-1.720690961610082
 20
0.5090460122777429
 30
0.0
  0
VERTEX
  5
43E
330
435
100
AcDbEntity
  8
1
  6
Continuous
 62
     7
 48
2.0
100
AcDbVertex
100
AcDb2dVertex
 10
-1.687651653615696
 20
0.5260662619001053
 30
0.0
  0
VERTEX
  5
43F
330
435
100
AcDbEntity
  8
1
  6
Continuous
 62
     7
 48
2.0
100
AcDbVertex
100
AcDb2dVertex
 10
-1.651608772167357
 20
0.5380805557512147
 30
0.0
  0
SEQEND
  5
440
330
435
100
AcDbEntity
  8
1
  6
Continuous
 62
     7
 48
2.0
370
     0
  0
POLYLINE
  5
441
330
1F
100
AcDbEntity
  8
1
  6
Continuous
 62
     7
 48
2.0
370
     0
100
AcDb2dPolyline
 66
     1
 10
0.0
 20
0.0
 30
0.0
 70
   128
  0
VERTEX
  5
442
330
441
100
AcDbEntity
  8
1
  6
Continuous
 62
     7
 48
2.0
100
AcDbVertex
100
AcDb2dVertex
 10
-1.727699299669531
 20
0.0004409059152479
 30
0.0
  0
VERTEX
  5
443
330
441
100
AcDbEntity
  8
1
  6
Continuous
 62
     7
 48
2.0
100
AcDbVertex
100
AcDb2dVertex
 10
-1.732705255426232
 20
0.1155778886548049
 30
0.0
  0
VERTEX
  5
444
330
441
100
AcDbEntity
  8
1
  6
Continuous
 62
     7
 48
2.0
100
AcDbVertex
100
AcDb2dVertex
 10
-1.744719549242383
 20
0.1946719898410905
 30
0.0
  0
VERTEX
  5
445
330
441
100
AcDbEntity
  8
1
  6
Continuous
 62
     7
 48
2.0
100
AcDbVertex
100
AcDb2dVertex
 10
-1.735708828880185
 20
0.2987958698838113
 30
0.0
  0
VERTEX
  5
446
330
441
100
AcDbEntity
  8
1
  6
Continuous
 62
     7
 48
2.0
100
AcDbVertex
100
AcDb2dVertex
 10
-1.720690961610082
 20
0.3838971179956232
 30
0.0
  0
VERTEX
  5
447
330
441
100
AcDbEntity
  8
1
  6
Continuous
 62
     7
 48
2.0
100
AcDbVertex
100
AcDb2dVertex
 10
-1.698664756280529
 20
0.4569840722563825
 30
0.0
  0
VERTEX
  5
448
330
441
100
AcDbEntity
  8
1
  6
Continuous
 62
     7
 48
2.0
100
AcDbVertex
100
AcDb2dVertex
 10
-1.670631404042844
 20
0.5040400565064331
 30
0.0
  0
VERTEX
  5
449
330
441
100
AcDbEntity
  8
1
  6
Continuous
 62
     7
 48
2.0
100
AcDbVertex
100
AcDb2dVertex
 10
-1.646602816410542
 20
0.5380805557512147
 30
0.0
  0
SEQEND
  5
44A
330
441
100
AcDbEntity
  8
1
  6
Continuous
 62
     7
 48
2.0
370
     0
  0
LINE
  5
44B
330
1F
100
AcDbEntity
  8
1
  6
Continuous
 62
     7
 48
2.0
370
     0
100
AcDbLine
 10
-1.595542067691987
 20
0.2086886660006897
 30
0.0
 11
-1.593539685389352
 21
0.0004409059152479
 31
0.0
  0
LINE
  5
44C
330
1F
100
AcDbEntity
  8
1
  6
Continuous
 62
     7
 48
2.0
370
     0
100
AcDbLine
 10
-2.000240522409946
 20
0.0010569743061595
 30
0.0
 11
-2.22859164274869
 21
0.0010569743061595
 31
0.0
  0
LINE
  5
44D
330
1F
100
AcDbEntity
  8
1
  6
Continuous
 62
     7
 48
2.0
370
     0
100
AcDbLine
 10
0.6014605590180722
 20
0.8395216998153003
 30
0.0
 11
0.6014605590180722
 21
0.843261248046538
 31
0.0
  0
POLYLINE
  5
44E
330
1F
100
AcDbEntity
  8
1
  6
Continuous
 62
     7
 48
2.0
370
     0
100
AcDb2dPolyline
 66
     1
 10
0.0
 20
0.0
 30
0.0
 70
   128
  0
VERTEX
  5
44F
330
44E
100
AcDbEntity
  8
1
  6
Continuous
 62
     7
 48
2.0
100
AcDbVertex
100
AcDb2dVertex
 10
0.9654432694437887
 20
0.6762280937193808
 30
0.0
  0
VERTEX
  5
450
330
44E
100
AcDbEntity
  8
1
  6
Continuous
 62
     7
 48
2.0
100
AcDbVertex
100
AcDb2dVertex
 10
0.9641967533122155
 20
0.6743583196037619
 30
0.0
  0
VERTEX
  5
451
330
44E
100
AcDbEntity
  8
1
  6
Continuous
 62
     7
 48
2.0
100
AcDbVertex
100
AcDb2dVertex
 10
0.9560943984568198
 20
0.6824606741046821
 30
0.0
  0
SEQEND
  5
452
330
44E
100
AcDbEntity
  8
1
  6
Continuous
 62
     7
 48
2.0
370
     0
  0
POLYLINE
  5
453
330
1F
100
AcDbEntity
  8
1
  6
Continuous
 62
     7
 48
2.0
370
     0
100
AcDb2dPolyline
 66
     1
 10
0.0
 20
0.0
 30
0.0
 70
   128
  0
VERTEX
  5
454
330
453
100
AcDbEntity
  8
1
  6
Continuous
 62
     7
 48
2.0
100
AcDbVertex
100
AcDb2dVertex
 10
-0.3846886881251308
 20
0.8359886684176061
 30
0.0
  0
VERTEX
  5
455
330
453
100
AcDbEntity
  8
1
  6
Continuous
 62
     7
 48
2.0
100
AcDbVertex
100
AcDb2dVertex
 10
-0.650007648473867
 20
0.8342713937300985
 30
0.0
  0
VERTEX
  5
456
330
453
100
AcDbEntity
  8
1
  6
Continuous
 62
     7
 48
2.0
100
AcDbVertex
100
AcDb2dVertex
 10
-0.8509467518865463
 20
0.8280137750910583
 30
0.0
  0
SEQEND
  5
457
330
453
100
AcDbEntity
  8
1
  6
Continuous
 62
     7
 48
2.0
370
     0
  0
LINE
  5
458
330
1F
100
AcDbEntity
  8
1
  6
Continuous
 62
     7
 48
2.0
370
     0
100
AcDbLine
 10
-0.850670467054762
 20
0.8280756954711777
 30
0.0
 11
-0.8988602469072262
 21
0.8251947847533145
 31
0.0
  0
LINE
  5
459
330
1F
100
AcDbEntity
  8
1
  6
Continuous
 62
     7
 48
2.0
370
     0
100
AcDbLine
 10
-2.053892155861014
 20
0.6709225765056388
 30
0.0
 11
-2.016688956515829
 21
0.7405285648793622
 31
0.0
  0
POLYLINE
  5
45A
330
1F
100
AcDbEntity
  8
1
  6
Continuous
 62
     7
 48
2.0
370
     0
100
AcDb2dPolyline
 66
     1
 10
0.0
 20
0.0
 30
0.0
 70
   128
  0
VERTEX
  5
45B
330
45A
100
AcDbEntity
  8
1
  6
Continuous
 62
     7
 48
2.0
100
AcDbVertex
100
AcDb2dVertex
 10
-2.053766153742551
 20
0.6709132805198763
 30
0.0
  0
VERTEX
  5
45C
330
45A
100
AcDbEntity
  8
1
  6
Continuous
 62
     7
 48
2.0
100
AcDbVertex
100
AcDb2dVertex
 10
-2.12517218675314
 20
0.5410841292139779
 30
0.0
  0
VERTEX
  5
45D
330
45A
100
AcDbEntity
  8
1
  6
Continuous
 62
     7
 48
2.0
100
AcDbVertex
100
AcDb2dVertex
 10
-2.140190054023243
 20
0.5050412476607065
 30
0.0
  0
VERTEX
  5
45E
330
45A
100
AcDbEntity
  8
1
  6
Continuous
 62
     7
 48
2.0
100
AcDbVertex
100
AcDb2dVertex
 10
-2.157210303596095
 20
0.4109292791606052
 30
0.0
  0
VERTEX
  5
45F
330
45A
100
AcDbEntity
  8
1
  6
Continuous
 62
     7
 48
2.0
100
AcDbVertex
100
AcDb2dVertex
 10
-2.165219832806862
 20
0.2677589441018497
 30
0.0
  0
VERTEX
  5
460
330
45A
100
AcDbEntity
  8
1
  6
Continuous
 62
     7
 48
2.0
100
AcDbVertex
100
AcDb2dVertex
 10
-2.171255519081889
 20
0.0340916604903967
 30
0.0
  0
SEQEND
  5
461
330
45A
100
AcDbEntity
  8
1
  6
Continuous
 62
     7
 48
2.0
370
     0
  0
LINE
  5
462
330
1F
100
AcDbEntity
  8
1
  6
Continuous
 62
     7
 48
2.0
370
     0
100
AcDbLine
 10
-2.172224500788936
 20
-0.0034217742789835
 30
0.0
 11
-2.172228170866312
 21
-0.0035638587017317
 31
0.0
  0
LINE
  5
463
330
1F
100
AcDbEntity
  8
1
  6
Continuous
 62
     7
 48
2.0
370
     0
100
AcDbLine
 10
-2.096137643364138
 20
0.0004409059152479
 30
0.0
 11
-2.096132133802577
 21
0.0014601748076828
 31
0.0
  0
POLYLINE
  5
464
330
1F
100
AcDbEntity
  8
1
  6
Continuous
 62
     7
 48
2.0
370
     0
100
AcDb2dPolyline
 66
     1
 10
0.0
 20
0.0
 30
0.0
 70
   128
  0
VERTEX
  5
465
330
464
100
AcDbEntity
  8
1
  6
Continuous
 62
     7
 48
2.0
100
AcDbVertex
100
AcDb2dVertex
 10
-2.095995273852033
 20
0.026779265719945
 30
0.0
  0
VERTEX
  5
466
330
464
100
AcDbEntity
  8
1
  6
Continuous
 62
     7
 48
2.0
100
AcDbVertex
100
AcDb2dVertex
 10
-2.09513645221282
 20
0.185661269452801
 30
0.0
  0
VERTEX
  5
467
330
464
100
AcDbEntity
  8
1
  6
Continuous
 62
     7
 48
2.0
100
AcDbVertex
100
AcDb2dVertex
 10
-2.085124540699304
 20
0.3218232664317
 30
0.0
  0
VERTEX
  5
468
330
464
100
AcDbEntity
  8
1
  6
Continuous
 62
     7
 48
2.0
100
AcDbVertex
100
AcDb2dVertex
 10
-2.060094761915799
 20
0.4539804987936193
 30
0.0
  0
VERTEX
  5
469
330
464
100
AcDbEntity
  8
1
  6
Continuous
 62
     7
 48
2.0
100
AcDbVertex
100
AcDb2dVertex
 10
-2.034063791980749
 20
0.544087702676741
 30
0.0
  0
SEQEND
  5
46A
330
464
100
AcDbEntity
  8
1
  6
Continuous
 62
     7
 48
2.0
370
     0
  0
LINE
  5
46B
330
1F
100
AcDbEntity
  8
1
  6
Continuous
 62
     7
 48
2.0
370
     0
100
AcDbLine
 10
-2.089129305304688
 20
0.0034444793780679
 30
0.0
 11
-2.08912098774065
 21
0.0035980770622999
 31
0.0
  0
POLYLINE
  5
46C
330
1F
100
AcDbEntity
  8
1
  6
Continuous
 62
     7
 48
2.0
370
     0
100
AcDb2dPolyline
 66
     1
 10
0.0
 20
0.0
 30
0.0
 70
   128
  0
VERTEX
  5
46D
330
46C
100
AcDbEntity
  8
1
  6
Continuous
 62
     7
 48
2.0
100
AcDbVertex
100
AcDb2dVertex
 10
-2.087221830980617
 20
0.0386691719983858
 30
0.0
  0
VERTEX
  5
46E
330
46C
100
AcDbEntity
  8
1
  6
Continuous
 62
     7
 48
2.0
100
AcDbVertex
100
AcDb2dVertex
 10
-2.074111438034585
 20
0.2807744291071756
 30
0.0
  0
VERTEX
  5
46F
330
46C
100
AcDbEntity
  8
1
  6
Continuous
 62
     7
 48
2.0
100
AcDbVertex
100
AcDb2dVertex
 10
-2.070106673429201
 20
0.3068053991178843
 30
0.0
  0
VERTEX
  5
470
330
46C
100
AcDbEntity
  8
1
  6
Continuous
 62
     7
 48
2.0
100
AcDbVertex
100
AcDb2dVertex
 10
-2.032061409678114
 20
0.3949102206924593
 30
0.0
  0
VERTEX
  5
471
330
46C
100
AcDbEntity
  8
1
  6
Continuous
 62
     7
 48
2.0
100
AcDbVertex
100
AcDb2dVertex
 10
-2.026054262770096
 20
0.3879018826126597
 30
0.0
  0
VERTEX
  5
472
330
46C
100
AcDbEntity
  8
1
  6
Continuous
 62
     7
 48
2.0
100
AcDbVertex
100
AcDb2dVertex
 10
-2.051084041553601
 20
0.2227053421602889
 30
0.0
  0
VERTEX
  5
473
330
46C
100
AcDbEntity
  8
1
  6
Continuous
 62
     7
 48
2.0
100
AcDbVertex
100
AcDb2dVertex
 10
-2.058392803498101
 20
0.0407983776818881
 30
0.0
  0
SEQEND
  5
474
330
46C
100
AcDbEntity
  8
1
  6
Continuous
 62
     7
 48
2.0
370
     0
  0
POLYLINE
  5
475
330
1F
100
AcDbEntity
  8
1
  6
Continuous
 62
     7
 48
2.0
370
     0
100
AcDb2dPolyline
 66
     1
 10
0.0
 20
0.0
 30
0.0
 70
   128
  0
VERTEX
  5
476
330
475
100
AcDbEntity
  8
1
  6
Continuous
 62
     7
 48
2.0
100
AcDbVertex
100
AcDb2dVertex
 10
-2.039870136872516
 20
0.0411078717163562
 30
0.0
  0
VERTEX
  5
477
330
475
100
AcDbEntity
  8
1
  6
Continuous
 62
     7
 48
2.0
100
AcDbVertex
100
AcDb2dVertex
 10
-2.03506498313218
 20
0.1996779456124003
 30
0.0
  0
VERTEX
  5
478
330
475
100
AcDbEntity
  8
1
  6
Continuous
 62
     7
 48
2.0
100
AcDbVertex
100
AcDb2dVertex
 10
-2.021048307013281
 20
0.3248268398944631
 30
0.0
  0
VERTEX
  5
479
330
475
100
AcDbEntity
  8
1
  6
Continuous
 62
     7
 48
2.0
100
AcDbVertex
100
AcDb2dVertex
 10
-2.010035204348561
 20
0.4079257056977852
 30
0.0
  0
VERTEX
  5
47A
330
475
100
AcDbEntity
  8
1
  6
Continuous
 62
     7
 48
2.0
100
AcDbVertex
100
AcDb2dVertex
 10
-1.997019719381093
 20
0.4810126599585445
 30
0.0
  0
SEQEND
  5
47B
330
475
100
AcDbEntity
  8
1
  6
Continuous
 62
     7
 48
2.0
370
     0
  0
LINE
  5
47C
330
1F
100
AcDbEntity
  8
1
  6
Continuous
 62
     7
 48
2.0
370
     0
100
AcDbLine
 10
-2.096110462486628
 20
0.0289115813607808
 30
0.0
 11
-2.096110462486628
 21
0.0014617063066638
 31
0.0
  0
LINE
  5
47D
330
1F
100
AcDbEntity
  8
1
  6
Continuous
 62
     7
 48
2.0
370
     0
100
AcDbLine
 10
-2.171140114754827
 20
0.034706554983309
 30
0.0
 11
-2.171750111927714
 21
0.0054266882589289
 31
0.0
  0
LINE
  5
47E
330
1F
100
AcDbEntity
  8
1
  6
Continuous
 62
     7
 48
2.0
370
     0
100
AcDbLine
 10
-2.087265503479422
 20
0.0398915313824162
 30
0.0
 11
-2.088790496411754
 21
-0.0021982770338624
 31
0.0
  0
LINE
  5
47F
330
1F
100
AcDbEntity
  8
1
  6
Continuous
 62
     7
 48
2.0
370
     0
100
AcDbLine
 10
-2.05981563069836
 20
0.0035966965886658
 30
0.0
 11
-2.058290637766142
 21
0.0417215230526793
 31
0.0
  0
LINE
  5
480
330
1F
100
AcDbEntity
  8
1
  6
Continuous
 62
     7
 48
2.0
370
     0
100
AcDbLine
 10
-2.039990722578729
 20
0.0423315202761003
 30
0.0
 11
-2.04060071975173
 21
-0.0000632867518604
 31
0.0
  0
LINE
  5
481
330
1F
100
AcDbEntity
  8
1
  6
Continuous
 62
     7
 48
2.0
370
     0
100
AcDbLine
 10
-2.029925769225748
 20
0.0048166910355079
 30
0.0
 11
-2.029925769225748
 21
-0.0018932784221235
 31
0.0
  0
POLYLINE
  5
482
330
1F
100
AcDbEntity
  8
1
  6
Continuous
 62
     7
 48
2.0
370
     0
100
AcDb2dPolyline
 66
     1
 10
0.0
 20
0.0
 30
0.0
 70
   128
  0
VERTEX
  5
483
330
482
100
AcDbEntity
  8
1
  6
Continuous
 62
     7
 48
2.0
100
AcDbVertex
100
AcDb2dVertex
 10
1.812706744654655
 20
0.0187416973261705
 30
0.0
  0
VERTEX
  5
484
330
482
100
AcDbEntity
  8
1
  6
Continuous
 62
     7
 48
2.0
100
AcDbVertex
100
AcDb2dVertex
 10
1.806901236573729
 20
0.1940680519172773
 30
0.0
  0
VERTEX
  5
485
330
482
100
AcDbEntity
  8
1
  6
Continuous
 62
     7
 48
2.0
100
AcDbVertex
100
AcDb2dVertex
 10
1.798745839418778
 20
0.3068843860139125
 30
0.0
  0
VERTEX
  5
486
330
482
100
AcDbEntity
  8
1
  6
Continuous
 62
     7
 48
2.0
100
AcDbVertex
100
AcDb2dVertex
 10
1.743017292193166
 20
0.4237784189333027
 30
0.0
  0
VERTEX
  5
487
330
482
100
AcDbEntity
  8
1
  6
Continuous
 62
     7
 48
2.0
100
AcDbVertex
100
AcDb2dVertex
 10
1.605734773418156
 20
0.6276633600717858
 30
0.0
  0
VERTEX
  5
488
330
482
100
AcDbEntity
  8
1
  6
Continuous
 62
     7
 48
2.0
100
AcDbVertex
100
AcDb2dVertex
 10
1.526899267586963
 20
0.7160135012318349
 30
0.0
  0
VERTEX
  5
489
330
482
100
AcDbEntity
  8
1
  6
Continuous
 62
     7
 48
2.0
100
AcDbVertex
100
AcDb2dVertex
 10
1.479326117516415
 20
0.7540720235776419
 30
0.0
  0
VERTEX
  5
48A
330
482
100
AcDbEntity
  8
1
  6
Continuous
 62
     7
 48
2.0
100
AcDbVertex
100
AcDb2dVertex
 10
1.41680140599501
 20
0.7798974494551842
 30
0.0
  0
SEQEND
  5
48B
330
482
100
AcDbEntity
  8
1
  6
Continuous
 62
     7
 48
2.0
370
     0
  0
POLYLINE
  5
48C
330
1F
100
AcDbEntity
  8
1
  6
Continuous
 62
     7
 48
2.0
370
     0
100
AcDb2dPolyline
 66
     1
 10
0.0
 20
0.0
 30
0.0
 70
   128
  0
VERTEX
  5
48D
330
48C
100
AcDbEntity
  8
1
  6
Continuous
 62
     7
 48
2.0
100
AcDbVertex
100
AcDb2dVertex
 10
1.813522047962373
 20
-0.0028629044380111
 30
0.0
  0
VERTEX
  5
48E
330
48C
100
AcDbEntity
  8
1
  6
Continuous
 62
     7
 48
2.0
100
AcDbVertex
100
AcDb2dVertex
 10
1.807260935992893
 20
-0.191948497289097
 30
0.0
  0
VERTEX
  5
48F
330
48C
100
AcDbEntity
  8
1
  6
Continuous
 62
     7
 48
2.0
100
AcDbVertex
100
AcDb2dVertex
 10
1.799105538837942
 20
-0.3047648313857323
 30
0.0
  0
VERTEX
  5
490
330
48C
100
AcDbEntity
  8
1
  6
Continuous
 62
     7
 48
2.0
100
AcDbVertex
100
AcDb2dVertex
 10
1.743376991612443
 20
-0.4216588643051224
 30
0.0
  0
VERTEX
  5
491
330
48C
100
AcDbEntity
  8
1
  6
Continuous
 62
     7
 48
2.0
100
AcDbVertex
100
AcDb2dVertex
 10
1.606094472837434
 20
-0.6255438054436055
 30
0.0
  0
VERTEX
  5
492
330
48C
100
AcDbEntity
  8
1
  6
Continuous
 62
     7
 48
2.0
100
AcDbVertex
100
AcDb2dVertex
 10
1.527258967006127
 20
-0.7138939466036547
 30
0.0
  0
VERTEX
  5
493
330
48C
100
AcDbEntity
  8
1
  6
Continuous
 62
     7
 48
2.0
100
AcDbVertex
100
AcDb2dVertex
 10
1.479685816935579
 20
-0.7519524689494617
 30
0.0
  0
VERTEX
  5
494
330
48C
100
AcDbEntity
  8
1
  6
Continuous
 62
     7
 48
2.0
100
AcDbVertex
100
AcDb2dVertex
 10
1.417161105414287
 20
-0.777777894827004
 30
0.0
  0
SEQEND
  5
495
330
48C
100
AcDbEntity
  8
1
  6
Continuous
 62
     7
 48
2.0
370
     0
  0
POLYLINE
  5
496
330
1F
100
AcDbEntity
  8
1
  6
Continuous
 62
     7
 48
2.0
370
     0
100
AcDb2dPolyline
 66
     1
 10
0.0
 20
0.0
 30
0.0
 70
   128
  0
VERTEX
  5
497
330
496
100
AcDbEntity
  8
1
  6
Continuous
 62
     7
 48
2.0
100
AcDbVertex
100
AcDb2dVertex
 10
1.820567698274338
 20
-0.0055513869279409
 30
0.0
  0
VERTEX
  5
498
330
496
100
AcDbEntity
  8
1
  6
Continuous
 62
     7
 48
2.0
100
AcDbVertex
100
AcDb2dVertex
 10
1.814057100288686
 20
-0.2802986384490893
 30
0.0
  0
VERTEX
  5
499
330
496
100
AcDbEntity
  8
1
  6
Continuous
 62
     7
 48
2.0
100
AcDbVertex
100
AcDb2dVertex
 10
1.808620168852052
 20
-0.3401048878497406
 30
0.0
  0
VERTEX
  5
49A
330
496
100
AcDbEntity
  8
1
  6
Continuous
 62
     7
 48
2.0
100
AcDbVertex
100
AcDb2dVertex
 10
1.789590908823833
 20
-0.4787466478239182
 30
0.0
  0
VERTEX
  5
49B
330
496
100
AcDbEntity
  8
1
  6
Continuous
 62
     7
 48
2.0
100
AcDbVertex
100
AcDb2dVertex
 10
1.743376991612443
 20
-0.5725337207476215
 30
0.0
  0
VERTEX
  5
49C
330
496
100
AcDbEntity
  8
1
  6
Continuous
 62
     7
 48
2.0
100
AcDbVertex
100
AcDb2dVertex
 10
1.668619184358725
 20
-0.6771946571986902
 30
0.0
  0
VERTEX
  5
49D
330
496
100
AcDbEntity
  8
1
  6
Continuous
 62
     7
 48
2.0
100
AcDbVertex
100
AcDb2dVertex
 10
1.633279130020604
 20
-0.7138939466036547
 30
0.0
  0
VERTEX
  5
49E
330
496
100
AcDbEntity
  8
1
  6
Continuous
 62
     7
 48
2.0
100
AcDbVertex
100
AcDb2dVertex
 10
1.589783678527418
 20
-0.7505932360085623
 30
0.0
  0
VERTEX
  5
49F
330
496
100
AcDbEntity
  8
1
  6
Continuous
 62
     7
 48
2.0
100
AcDbVertex
100
AcDb2dVertex
 10
1.544928994175187
 20
-0.7750594289452053
 30
0.0
  0
VERTEX
  5
4A0
330
496
100
AcDbEntity
  8
1
  6
Continuous
 62
     7
 48
2.0
100
AcDbVertex
100
AcDb2dVertex
 10
1.494637378386322
 20
-0.7981663889408921
 30
0.0
  0
VERTEX
  5
4A1
330
496
100
AcDbEntity
  8
1
  6
Continuous
 62
     7
 48
2.0
100
AcDbVertex
100
AcDb2dVertex
 10
1.429394201146714
 20
-0.8144771842319685
 30
0.0
  0
VERTEX
  5
4A2
330
496
100
AcDbEntity
  8
1
  6
Continuous
 62
     7
 48
2.0
100
AcDbVertex
100
AcDb2dVertex
 10
1.334247901005618
 20
-0.82671028070029
 30
0.0
  0
VERTEX
  5
4A3
330
496
100
AcDbEntity
  8
1
  6
Continuous
 62
     7
 48
2.0
100
AcDbVertex
100
AcDb2dVertex
 10
1.202402313667243
 20
-0.8389433771686114
 30
0.0
  0
VERTEX
  5
4A4
330
496
100
AcDbEntity
  8
1
  6
Continuous
 62
     7
 48
2.0
100
AcDbVertex
100
AcDb2dVertex
 10
0.8068655516518888
 20
-0.8430210759913663
 30
0.0
  0
VERTEX
  5
4A5
330
496
100
AcDbEntity
  8
1
  6
Continuous
 62
     7
 48
2.0
100
AcDbVertex
100
AcDb2dVertex
 10
0.4888050626087974
 20
-0.8403026101095108
 30
0.0
  0
SEQEND
  5
4A6
330
496
100
AcDbEntity
  8
1
  6
Continuous
 62
     7
 48
2.0
370
     0
  0
POLYLINE
  5
4A7
330
1F
100
AcDbEntity
  8
1
  6
Continuous
 62
     7
 48
2.0
370
     0
100
AcDb2dPolyline
 66
     1
 10
0.0
 20
0.0
 30
0.0
 70
   128
  0
VERTEX
  5
4A8
330
4A7
100
AcDbEntity
  8
1
  6
Continuous
 62
     7
 48
2.0
100
AcDbVertex
100
AcDb2dVertex
 10
1.784602022406169
 20
0.0032684543529697
 30
0.0
  0
VERTEX
  5
4A9
330
4A7
100
AcDbEntity
  8
1
  6
Continuous
 62
     7
 48
2.0
100
AcDbVertex
100
AcDb2dVertex
 10
1.768842716517291
 20
0.2606704660224821
 30
0.0
  0
VERTEX
  5
4AA
330
4A7
100
AcDbEntity
  8
1
  6
Continuous
 62
     7
 48
2.0
100
AcDbVertex
100
AcDb2dVertex
 10
1.740298826474849
 20
0.3231951813049889
 30
0.0
  0
VERTEX
  5
4AB
330
4A7
100
AcDbEntity
  8
1
  6
Continuous
 62
     7
 48
2.0
100
AcDbVertex
100
AcDb2dVertex
 10
1.688647977826825
 20
0.4061083907012701
 30
0.0
  0
VERTEX
  5
4AC
330
4A7
100
AcDbEntity
  8
1
  6
Continuous
 62
     7
 48
2.0
100
AcDbVertex
100
AcDb2dVertex
 10
1.646511759192911
 20
0.4645554071609652
 30
0.0
  0
SEQEND
  5
4AD
330
4A7
100
AcDbEntity
  8
1
  6
Continuous
 62
     7
 48
2.0
370
     0
  0
POLYLINE
  5
4AE
330
1F
100
AcDbEntity
  8
1
  6
Continuous
 62
     7
 48
2.0
370
     0
100
AcDb2dPolyline
 66
     1
 10
0.0
 20
0.0
 30
0.0
 70
   128
  0
VERTEX
  5
4AF
330
4AE
100
AcDbEntity
  8
1
  6
Continuous
 62
     7
 48
2.0
100
AcDbVertex
100
AcDb2dVertex
 10
1.784960905982778
 20
-0.0011622251539549
 30
0.0
  0
VERTEX
  5
4B0
330
4AE
100
AcDbEntity
  8
1
  6
Continuous
 62
     7
 48
2.0
100
AcDbVertex
100
AcDb2dVertex
 10
1.769202415936455
 20
-0.2585509113943019
 30
0.0
  0
VERTEX
  5
4B1
330
4AE
100
AcDbEntity
  8
1
  6
Continuous
 62
     7
 48
2.0
100
AcDbVertex
100
AcDb2dVertex
 10
1.740658525894126
 20
-0.3210756266768087
 30
0.0
  0
VERTEX
  5
4B2
330
4AE
100
AcDbEntity
  8
1
  6
Continuous
 62
     7
 48
2.0
100
AcDbVertex
100
AcDb2dVertex
 10
1.689007677246103
 20
-0.4039888360730899
 30
0.0
  0
VERTEX
  5
4B3
330
4AE
100
AcDbEntity
  8
1
  6
Continuous
 62
     7
 48
2.0
100
AcDbVertex
100
AcDb2dVertex
 10
1.646871458612189
 20
-0.4624358525328418
 30
0.0
  0
SEQEND
  5
4B4
330
4AE
100
AcDbEntity
  8
1
  6
Continuous
 62
     7
 48
2.0
370
     0
  0
POLYLINE
  5
4B5
330
1F
100
AcDbEntity
  8
1
  6
Continuous
 62
     7
 48
2.0
370
     0
100
AcDb2dPolyline
 66
     1
 10
0.0
 20
0.0
 30
0.0
 70
   128
  0
VERTEX
  5
4B6
330
4B5
100
AcDbEntity
  8
1
  6
Continuous
 62
     7
 48
2.0
100
AcDbVertex
100
AcDb2dVertex
 10
1.768192551627997
 20
-0.0021853214897689
 30
0.0
  0
VERTEX
  5
4B7
330
4B5
100
AcDbEntity
  8
1
  6
Continuous
 62
     7
 48
2.0
100
AcDbVertex
100
AcDb2dVertex
 10
1.762406251640662
 20
-0.0519475043739632
 30
0.0
  0
VERTEX
  5
4B8
330
4B5
100
AcDbEntity
  8
1
  6
Continuous
 62
     7
 48
2.0
100
AcDbVertex
100
AcDb2dVertex
 10
1.754250854485711
 20
-0.0696175326059958
 30
0.0
  0
VERTEX
  5
4B9
330
4B5
100
AcDbEntity
  8
1
  6
Continuous
 62
     7
 48
2.0
100
AcDbVertex
100
AcDb2dVertex
 10
1.735221594457492
 20
-0.0791321631924617
 30
0.0
  0
VERTEX
  5
4BA
330
4B5
100
AcDbEntity
  8
1
  6
Continuous
 62
     7
 48
2.0
100
AcDbVertex
100
AcDb2dVertex
 10
1.712114635851798
 20
-0.0804913961333611
 30
0.0
  0
VERTEX
  5
4BB
330
4B5
100
AcDbEntity
  8
1
  6
Continuous
 62
     7
 48
2.0
100
AcDbVertex
100
AcDb2dVertex
 10
1.698522307260212
 20
-0.0668990667241403
 30
0.0
  0
VERTEX
  5
4BC
330
4B5
100
AcDbEntity
  8
1
  6
Continuous
 62
     7
 48
2.0
100
AcDbVertex
100
AcDb2dVertex
 10
1.697163074401054
 20
0.0037810462038763
 30
0.0
  0
SEQEND
  5
4BD
330
4B5
100
AcDbEntity
  8
1
  6
Continuous
 62
     7
 48
2.0
370
     0
  0
POLYLINE
  5
4BE
330
1F
100
AcDbEntity
  8
1
  6
Continuous
 62
     7
 48
2.0
370
     0
100
AcDb2dPolyline
 66
     1
 10
0.0
 20
0.0
 30
0.0
 70
   128
  0
VERTEX
  5
4BF
330
4BE
100
AcDbEntity
  8
1
  6
Continuous
 62
     7
 48
2.0
100
AcDbVertex
100
AcDb2dVertex
 10
1.737580360756532
 20
0.0785332519387865
 30
0.0
  0
VERTEX
  5
4C0
330
4BE
100
AcDbEntity
  8
1
  6
Continuous
 62
     7
 48
2.0
100
AcDbVertex
100
AcDb2dVertex
 10
1.722628799305788
 20
0.0703778542932199
 30
0.0
  0
VERTEX
  5
4C1
330
4BE
100
AcDbEntity
  8
1
  6
Continuous
 62
     7
 48
2.0
100
AcDbVertex
100
AcDb2dVertex
 10
1.717191867869154
 20
0.0445524284156775
 30
0.0
  0
VERTEX
  5
4C2
330
4BE
100
AcDbEntity
  8
1
  6
Continuous
 62
     7
 48
2.0
100
AcDbVertex
100
AcDb2dVertex
 10
1.716007106757296
 20
0.0042705481881242
 30
0.0
  0
SEQEND
  5
4C3
330
4BE
100
AcDbEntity
  8
1
  6
Continuous
 62
     7
 48
2.0
370
     0
  0
POLYLINE
  5
4C4
330
1F
100
AcDbEntity
  8
1
  6
Continuous
 62
     7
 48
2.0
370
     0
100
AcDb2dPolyline
 66
     1
 10
0.0
 20
0.0
 30
0.0
 70
   128
  0
VERTEX
  5
4C5
330
4C4
100
AcDbEntity
  8
1
  6
Continuous
 62
     7
 48
2.0
100
AcDbVertex
100
AcDb2dVertex
 10
1.767719080337223
 20
0.0052833142715443
 30
0.0
  0
VERTEX
  5
4C6
330
4C4
100
AcDbEntity
  8
1
  6
Continuous
 62
     7
 48
2.0
100
AcDbVertex
100
AcDb2dVertex
 10
1.762046552221499
 20
0.0540670590021435
 30
0.0
  0
VERTEX
  5
4C7
330
4C4
100
AcDbEntity
  8
1
  6
Continuous
 62
     7
 48
2.0
100
AcDbVertex
100
AcDb2dVertex
 10
1.753891155066434
 20
0.071737087234176
 30
0.0
  0
VERTEX
  5
4C8
330
4C4
100
AcDbEntity
  8
1
  6
Continuous
 62
     7
 48
2.0
100
AcDbVertex
100
AcDb2dVertex
 10
1.734861895038215
 20
0.081251717820642
 30
0.0
  0
VERTEX
  5
4C9
330
4C4
100
AcDbEntity
  8
1
  6
Continuous
 62
     7
 48
2.0
100
AcDbVertex
100
AcDb2dVertex
 10
1.71175493643252
 20
0.0826109507615413
 30
0.0
  0
VERTEX
  5
4CA
330
4C4
100
AcDbEntity
  8
1
  6
Continuous
 62
     7
 48
2.0
100
AcDbVertex
100
AcDb2dVertex
 10
1.698162607840935
 20
0.0690186213523205
 30
0.0
  0
VERTEX
  5
4CB
330
4C4
100
AcDbEntity
  8
1
  6
Continuous
 62
     7
 48
2.0
100
AcDbVertex
100
AcDb2dVertex
 10
1.697247494177326
 20
0.0214327079817238
 30
0.0
  0
SEQEND
  5
4CC
330
4C4
100
AcDbEntity
  8
1
  6
Continuous
 62
     7
 48
2.0
370
     0
  0
LINE
  5
4CD
330
1F
100
AcDbEntity
  8
1
  6
Continuous
 62
     7
 48
2.0
370
     0
100
AcDbLine
 10
1.812750062091617
 20
0.0194709832342213
 30
0.0
 11
1.813486037040455
 21
-0.003098913647527
 31
0.0
  0
LINE
  5
4CE
330
1F
100
AcDbEntity
  8
1
  6
Continuous
 62
     7
 48
2.0
370
     0
100
AcDbLine
 10
1.820355136561965
 20
0.0013169357423592
 30
0.0
 11
1.820600461544835
 21
-0.0057974882747018
 31
0.0
  0
LINE
  5
4CF
330
1F
100
AcDbEntity
  8
1
  6
Continuous
 62
     7
 48
2.0
370
     0
100
AcDbLine
 10
1.784537689056741
 20
0.0035248604373308
 30
0.0
 11
1.785028339022595
 21
-0.0006456639865107
 31
0.0
  0
LINE
  5
4D0
330
1F
100
AcDbEntity
  8
1
  6
Continuous
 62
     7
 48
2.0
370
     0
100
AcDbLine
 10
1.767610265235838
 20
0.004751485267839
 30
0.0
 11
1.768100915201579
 21
-0.0008909889525555
 31
0.0
  0
LINE
  5
4D1
330
1F
100
AcDbEntity
  8
1
  6
Continuous
 62
     7
 48
2.0
370
     0
100
AcDbLine
 10
1.69720199513997
 20
0.0224148828274977
 30
0.0
 11
1.69720199513997
 21
0.0030342105051275
 31
0.0
  0
LINE
  5
4D2
330
1F
100
AcDbEntity
  8
1
  6
Continuous
 62
     7
 48
2.0
370
     0
100
AcDbLine
 10
1.690087570635477
 20
0.0042608353356357
 30
0.0
 11
1.690087570635477
 21
-0.0018722888170188
 31
0.0
  0
POLYLINE
  5
4D3
330
1F
100
AcDbEntity
  8
1
  6
Continuous
 62
     7
 48
2.0
370
     0
100
AcDb2dPolyline
 66
     1
 10
0.0
 20
0.0
 30
0.0
 70
   128
  0
VERTEX
  5
4D4
330
4D3
100
AcDbEntity
  8
1
  6
Continuous
 62
     7
 48
2.0
100
AcDbVertex
100
AcDb2dVertex
 10
1.234692002607879
 20
-0.0063023088032352
 30
0.0
  0
VERTEX
  5
4D5
330
4D3
100
AcDbEntity
  8
1
  6
Continuous
 62
     7
 48
2.0
100
AcDbVertex
100
AcDb2dVertex
 10
1.230946203709571
 20
-0.1661230714115547
 30
0.0
  0
VERTEX
  5
4D6
330
4D3
100
AcDbEntity
  8
1
  6
Continuous
 62
     7
 48
2.0
100
AcDbVertex
100
AcDb2dVertex
 10
1.215994642258828
 20
-0.2748617066853782
 30
0.0
  0
VERTEX
  5
4D7
330
4D3
100
AcDbEntity
  8
1
  6
Continuous
 62
     7
 48
2.0
100
AcDbVertex
100
AcDb2dVertex
 10
1.196965382230609
 20
-0.3604933819635718
 30
0.0
  0
VERTEX
  5
4D8
330
4D3
100
AcDbEntity
  8
1
  6
Continuous
 62
     7
 48
2.0
100
AcDbVertex
100
AcDb2dVertex
 10
1.15890686217417
 20
-0.4733097160602071
 30
0.0
  0
VERTEX
  5
4D9
330
4D3
100
AcDbEntity
  8
1
  6
Continuous
 62
     7
 48
2.0
100
AcDbVertex
100
AcDb2dVertex
 10
1.104537547807716
 20
-0.5684560219248667
 30
0.0
  0
VERTEX
  5
4DA
330
4D3
100
AcDbEntity
  8
1
  6
Continuous
 62
     7
 48
2.0
100
AcDbVertex
100
AcDb2dVertex
 10
1.056964397737168
 20
-0.6214661066208507
 30
0.0
  0
VERTEX
  5
4DB
330
4D3
100
AcDbEntity
  8
1
  6
Continuous
 62
     7
 48
2.0
100
AcDbVertex
100
AcDb2dVertex
 10
1.012109713384937
 20
-0.6554469301439596
 30
0.0
  0
VERTEX
  5
4DC
330
4D3
100
AcDbEntity
  8
1
  6
Continuous
 62
     7
 48
2.0
100
AcDbVertex
100
AcDb2dVertex
 10
0.9726919604693407
 20
-0.6758354242577909
 30
0.0
  0
VERTEX
  5
4DD
330
4D3
100
AcDbEntity
  8
1
  6
Continuous
 62
     7
 48
2.0
100
AcDbVertex
100
AcDb2dVertex
 10
0.9346334404129024
 20
-0.6867092877851562
 30
0.0
  0
VERTEX
  5
4DE
330
4D3
100
AcDbEntity
  8
1
  6
Continuous
 62
     7
 48
2.0
100
AcDbVertex
100
AcDb2dVertex
 10
0.8816233589057205
 20
-0.6894277536670117
 30
0.0
  0
VERTEX
  5
4DF
330
4D3
100
AcDbEntity
  8
1
  6
Continuous
 62
     7
 48
2.0
100
AcDbVertex
100
AcDb2dVertex
 10
0.8231763459617909
 20
-0.6867092877851562
 30
0.0
  0
VERTEX
  5
4E0
330
4D3
100
AcDbEntity
  8
1
  6
Continuous
 62
     7
 48
2.0
100
AcDbVertex
100
AcDb2dVertex
 10
0.6913307586234154
 20
-0.6663207936713249
 30
0.0
  0
VERTEX
  5
4E1
330
4D3
100
AcDbEntity
  8
1
  6
Continuous
 62
     7
 48
2.0
100
AcDbVertex
100
AcDb2dVertex
 10
0.2088030936220306
 20
-0.5779706525112758
 30
0.0
  0
VERTEX
  5
4E2
330
4D3
100
AcDbEntity
  8
1
  6
Continuous
 62
     7
 48
2.0
100
AcDbVertex
100
AcDb2dVertex
 10
0.0878313691568096
 20
-0.5562229254565452
 30
0.0
  0
SEQEND
  5
4E3
330
4D3
100
AcDbEntity
  8
1
  6
Continuous
 62
     7
 48
2.0
370
     0
  0
ENDSEC
  0
SECTION
  2
OBJECTS
  0
DICTIONARY
  5
C
330
0
100
AcDbDictionary
281
     1
  3
ACAD_DETAILVIEWSTYLE
350
520
  3
ACAD_GROUP
350
D
  3
ACAD_IMAGE_VARS
350
95
  3
ACAD_LAYOUT
350
1A
  3
ACAD_MATERIAL
350
91
  3
ACAD_MLEADERSTYLE
350
51E
  3
ACAD_MLINESTYLE
350
17
  3
ACAD_PLOTSETTINGS
350
19
  3
ACAD_PLOTSTYLENAME
350
E
  3
ACAD_SCALELIST
350
6F
  3
ACAD_SECTIONVIEWSTYLE
350
521
  3
ACAD_TABLESTYLE
350
51D
  3
ACAD_VISUALSTYLE
350
56
  3
AcDbVariableDictionary
350
4E
  0
DICTIONARY
  5
4E4
330
8
100
AcDbDictionary
280
     1
281
     1
  3
ACAD_XREC_ROUNDTRIP
360
4E5
  0
DICTIONARY
  5
520
102
{ACAD_REACTORS
330
C
102
}
330
C
100
AcDbDictionary
281
     1
  0
DICTIONARY
  5
D
102
{ACAD_REACTORS
330
C
102
}
330
C
100
AcDbDictionary
281
     1
  0
RASTERVARIABLES
  5
95
102
{ACAD_REACTORS
330
C
102
}
330
C
100
AcDbRasterVariables
 90
        0
 70
     0
 71
     1
 72
     5
  0
DICTIONARY
  5
1A
102
{ACAD_REACTORS
330
C
102
}
330
C
100
AcDbDictionary
281
     1
  3
Layout1
350
1E
  3
Model
350
22
  0
DICTIONARY
  5
91
102
{ACAD_REACTORS
330
C
102
}
330
C
100
AcDbDictionary
281
     1
  3
ByBlock
350
93
  3
ByLayer
350
92
  3
Global
350
94
  0
DICTIONARY
  5
51E
102
{ACAD_REACTORS
330
C
102
}
330
C
100
AcDbDictionary
281
     1
  0
DICTIONARY
  5
17
102
{ACAD_REACTORS
330
C
102
}
330
C
100
AcDbDictionary
281
     1
  3
Standard
350
18
  0
DICTIONARY
  5
19
102
{ACAD_REACTORS
330
C
102
}
330
C
100
AcDbDictionary
281
     1
  0
ACDBDICTIONARYWDFLT
  5
E
102
{ACAD_REACTORS
330
C
102
}
330
C
100
AcDbDictionary
281
     1
  3
Normal
350
F
100
AcDbDictionaryWithDefault
340
F
  0
DICTIONARY
  5
6F
102
{ACAD_REACTORS
330
C
102
}
330
C
100
AcDbDictionary
281
     1
  3
A0
350
70
  3
A1
350
71
  3
A2
350
72
  3
A3
350
73
  3
A4
350
74
  3
A5
350
75
  3
A6
350
76
  3
A7
350
77
  3
A8
350
78
  3
A9
350
79
  3
B0
350
7A
  3
B1
350
7B
  3
B2
350
7C
  3
B3
350
7D
  3
B4
350
7E
  3
B5
350
7F
  3
B6
350
80
  3
B7
350
81
  3
B8
350
82
  3
B9
350
83
  3
C0
350
84
  3
C1
350
85
  3
C2
350
86
  3
C3
350
87
  3
C4
350
88
  3
C5
350
89
  3
C6
350
8A
  3
C7
350
8B
  3
C8
350
8C
  3
C9
350
8D
  3
D0
350
8E
  3
D1
350
8F
  3
D2
350
90
  0
DICTIONARY
  5
521
102
{ACAD_REACTORS
330
C
102
}
330
C
100
AcDbDictionary
281
     1
  0
DICTIONARY
  5
51D
102
{ACAD_REACTORS
330
C
102
}
330
C
100
AcDbDictionary
281
     1
  0
DICTIONARY
  5
56
102
{ACAD_REACTORS
330
C
102
}
330
C
100
AcDbDictionary
281
     1
  3
2dWireframe
350
5B
  3
Basic
350
5E
  3
Brighten
350
62
  3
ColorChange
350
66
  3
Conceptual
350
60
  3
Dim
350
61
  3
EdgeColorOff
350
69
  3
Facepattern
350
65
  3
Flat
350
57
  3
FlatWithEdges
350
58
  3
Gouraud
350
59
  3
GouraudWithEdges
350
5A
  3
Hidden
350
5D
  3
JitterOff
350
67
  3
Linepattern
350
64
  3
OverhangOff
350
68
  3
Realistic
350
5F
  3
Shaded
350
6E
  3
Shaded with edges
350
6D
  3
Shades of Gray
350
6A
  3
Sketchy
350
6B
  3
Thicken
350
63
  3
Wireframe
350
5C
  3
X-Ray
350
6C
  0
DICTIONARY
  5
4E
102
{ACAD_REACTORS
330
C
102
}
330
C
100
AcDbDictionary
281
     1
  3
CANNOSCALE
350
4E6
  3
DIMASSOC
350
4F
  3
MSLTSCALE
350
51F
  0
XRECORD
  5
4E5
102
{ACAD_REACTORS
330
4E4
102
}
330
4E4
100
AcDbXrecord
280
     1
102
VTR_0.000_0.000_1.000_1.000_VISUALSTYLE
340
5B
102
VTR_0.000_0.000_1.000_1.000_GRIDDISPLAY
 70
     3
102
VTR_0.000_0.000_1.000_1.000_GRIDMAJOR
 70
     5
102
VTR_0.000_0.000_1.000_1.000_DEFAULTLIGHTING
280
     1
102
VTR_0.000_0.000_1.000_1.000_DEFAULTLIGHTINGTYPE
 70
     1
102
VTR_0.000_0.000_1.000_1.000_BRIGHTNESS
141
0.0
102
VTR_0.000_0.000_1.000_1.000_CONTRAST
142
0.0
  0
LAYOUT
  5
1E
102
{ACAD_REACTORS
330
1A
102
}
330
1A
100
AcDbPlotSettings
  1

  2
HP DeskJet 720C v10.3
  4

  6

 40
0.0
 41
0.0
 42
0.0
 43
0.0
 44
0.0
 45
0.0
 46
0.0
 47
0.0
 48
0.0
 49
0.0
140
0.0
141
0.0
142
1.0
143
1.0
 70
   688
 72
     0
 73
     0
 74
     5
  7

 75
    16
 76
     0
 77
     2
 78
   300
147
1.0
148
0.0
149
0.0
100
AcDbLayout
  1
Layout1
 70
     1
 71
     1
 10
0.0
 20
0.0
 11
12.0
 21
9.0
 12
0.0
 22
0.0
 32
0.0
 14
1.000000000000000E+20
 24
1.000000000000000E+20
 34
1.000000000000000E+20
 15
-1.000000000000000E+20
 25
-1.000000000000000E+20
 35
-1.000000000000000E+20
146
0.0
 13
0.0
 23
0.0
 33
0.0
 16
1.0
 26
0.0
 36
0.0
 17
0.0
 27
1.0
 37
0.0
 76
     0
330
1B
  0
LAYOUT
  5
22
102
{ACAD_REACTORS
330
1A
102
}
330
1A
100
AcDbPlotSettings
  1

  2
None
  4
Custom Paper
  6

 40
0.5
 41
0.5
 42
0.5
 43
0.5
 44
296.926
 45
209.9733333333333
 46
0.0000000000000284
 47
32.38758564748724
 48
0.0
 49
0.0
140
0.0
141
0.0
142
1.0
143
0.0152797369092098
 70
  5796
 72
     1
 73
     0
 74
     0
  7

 75
     0
 76
     0
 77
     2
 78
   300
147
65.4461530288033
148
2.260835712297413
149
1.101654989368865
100
AcDbLayout
  1
Model
 70
     1
 71
     0
 10
0.0
 20
0.0
 11
12.0
 21
9.0
 12
0.0
 22
0.0
 32
0.0
 14
-2.22859164274869
 24
-1.000444758475787
 34
0.0000000000125
 15
1.882018743246611
 25
1.002564313103967
 35
-0.0000000000125
146
0.0
 13
0.0
 23
0.0
 33
0.0
 16
1.0
 26
0.0
 36
0.0
 17
0.0
 27
1.0
 37
0.0
 76
     0
330
1F
331
55
  0
MATERIAL
  5
93
102
{ACAD_REACTORS
330
91
102
}
102
{ACAD_XDICTIONARY
360
519
102
}
330
91
100
AcDbMaterial
  1
ByBlock
  0
MATERIAL
  5
92
102
{ACAD_REACTORS
330
91
102
}
102
{ACAD_XDICTIONARY
360
517
102
}
330
91
100
AcDbMaterial
  1
ByLayer
  0
MATERIAL
  5
94
102
{ACAD_REACTORS
330
91
102
}
102
{ACAD_XDICTIONARY
360
51B
102
}
330
91
100
AcDbMaterial
  1
Global
  0
MLINESTYLE
  5
18
102
{ACAD_REACTORS
330
17
102
}
330
17
100
AcDbMlineStyle
  2
STANDARD
 70
     0
  3

 62
   256
 51
90.0
 52
90.0
 71
     2
 49
0.5
 62
   256
  6
BYLAYER
 49
-0.5
 62
   256
  6
BYLAYER
  0
ACDBPLACEHOLDER
  5
F
102
{ACAD_REACTORS
330
E
102
}
330
E
  0
SCALE
  5
70
102
{ACAD_REACTORS
330
6F
102
}
330
6F
100
AcDbScale
 70
     0
300
1:1
140
1.0
141
1.0
290
     1
  0
SCALE
  5
71
102
{ACAD_REACTORS
330
6F
102
}
330
6F
100
AcDbScale
 70
     0
300
1:2
140
1.0
141
2.0
290
     0
  0
SCALE
  5
72
102
{ACAD_REACTORS
330
6F
102
}
330
6F
100
AcDbScale
 70
     0
300
1:4
140
1.0
141
4.0
290
     0
  0
SCALE
  5
73
102
{ACAD_REACTORS
330
6F
102
}
330
6F
100
AcDbScale
 70
     0
300
1:5
140
1.0
141
5.0
290
     0
  0
SCALE
  5
74
102
{ACAD_REACTORS
330
6F
102
}
330
6F
100
AcDbScale
 70
     0
300
1:8
140
1.0
141
8.0
290
     0
  0
SCALE
  5
75
102
{ACAD_REACTORS
330
6F
102
}
330
6F
100
AcDbScale
 70
     0
300
1:10
140
1.0
141
10.0
290
     0
  0
SCALE
  5
76
102
{ACAD_REACTORS
330
6F
102
}
330
6F
100
AcDbScale
 70
     0
300
1:16
140
1.0
141
16.0
290
     0
  0
SCALE
  5
77
102
{ACAD_REACTORS
330
6F
102
}
330
6F
100
AcDbScale
 70
     0
300
1:20
140
1.0
141
20.0
290
     0
  0
SCALE
  5
78
102
{ACAD_REACTORS
330
6F
102
}
330
6F
100
AcDbScale
 70
     0
300
1:30
140
1.0
141
30.0
290
     0
  0
SCALE
  5
79
102
{ACAD_REACTORS
330
6F
102
}
330
6F
100
AcDbScale
 70
     0
300
1:40
140
1.0
141
40.0
290
     0
  0
SCALE
  5
7A
102
{ACAD_REACTORS
330
6F
102
}
330
6F
100
AcDbScale
 70
     0
300
1:50
140
1.0
141
50.0
290
     0
  0
SCALE
  5
7B
102
{ACAD_REACTORS
330
6F
102
}
330
6F
100
AcDbScale
 70
     0
300
1:100
140
1.0
141
100.0
290
     0
  0
SCALE
  5
7C
102
{ACAD_REACTORS
330
6F
102
}
330
6F
100
AcDbScale
 70
     0
300
2:1
140
2.0
141
1.0
290
     0
  0
SCALE
  5
7D
102
{ACAD_REACTORS
330
6F
102
}
330
6F
100
AcDbScale
 70
     0
300
4:1
140
4.0
141
1.0
290
     0
  0
SCALE
  5
7E
102
{ACAD_REACTORS
330
6F
102
}
330
6F
100
AcDbScale
 70
     0
300
8:1
140
8.0
141
1.0
290
     0
  0
SCALE
  5
7F
102
{ACAD_REACTORS
330
6F
102
}
330
6F
100
AcDbScale
 70
     0
300
10:1
140
10.0
141
1.0
290
     0
  0
SCALE
  5
80
102
{ACAD_REACTORS
330
6F
102
}
330
6F
100
AcDbScale
 70
     0
300
100:1
140
100.0
141
1.0
290
     0
  0
SCALE
  5
81
102
{ACAD_REACTORS
330
6F
102
}
330
6F
100
AcDbScale
 70
     0
300
1/128" = 1'-0"
140
0.0078125
141
12.0
290
     0
  0
SCALE
  5
82
102
{ACAD_REACTORS
330
6F
102
}
330
6F
100
AcDbScale
 70
     0
300
1/64" = 1'-0"
140
0.015625
141
12.0
290
     0
  0
SCALE
  5
83
102
{ACAD_REACTORS
330
6F
102
}
330
6F
100
AcDbScale
 70
     0
300
1/32" = 1'-0"
140
0.03125
141
12.0
290
     0
  0
SCALE
  5
84
102
{ACAD_REACTORS
330
6F
102
}
330
6F
100
AcDbScale
 70
     0
300
1/16" = 1'-0"
140
0.0625
141
12.0
290
     0
  0
SCALE
  5
85
102
{ACAD_REACTORS
330
6F
102
}
330
6F
100
AcDbScale
 70
     0
300
3/32" = 1'-0"
140
0.09375
141
12.0
290
     0
  0
SCALE
  5
86
102
{ACAD_REACTORS
330
6F
102
}
330
6F
100
AcDbScale
 70
     0
300
1/8" = 1'-0"
140
0.125
141
12.0
290
     0
  0
SCALE
  5
87
102
{ACAD_REACTORS
330
6F
102
}
330
6F
100
AcDbScale
 70
     0
300
3/16" = 1'-0"
140
0.1875
141
12.0
290
     0
  0
SCALE
  5
88
102
{ACAD_REACTORS
330
6F
102
}
330
6F
100
AcDbScale
 70
     0
300
1/4" = 1'-0"
140
0.25
141
12.0
290
     0
  0
SCALE
  5
89
102
{ACAD_REACTORS
330
6F
102
}
330
6F
100
AcDbScale
 70
     0
300
3/8" = 1'-0"
140
0.375
141
12.0
290
     0
  0
SCALE
  5
8A
102
{ACAD_REACTORS
330
6F
102
}
330
6F
100
AcDbScale
 70
     0
300
1/2" = 1'-0"
140
0.5
141
12.0
290
     0
  0
SCALE
  5
8B
102
{ACAD_REACTORS
330
6F
102
}
330
6F
100
AcDbScale
 70
     0
300
3/4" = 1'-0"
140
0.75
141
12.0
290
     0
  0
SCALE
  5
8C
102
{ACAD_REACTORS
330
6F
102
}
330
6F
100
AcDbScale
 70
     0
300
1" = 1'-0"
140
1.0
141
12.0
290
     0
  0
SCALE
  5
8D
102
{ACAD_REACTORS
330
6F
102
}
330
6F
100
AcDbScale
 70
     0
300
1-1/2" = 1'-0"
140
1.5
141
12.0
290
     0
  0
SCALE
  5
8E
102
{ACAD_REACTORS
330
6F
102
}
330
6F
100
AcDbScale
 70
     0
300
3" = 1'-0"
140
3.0
141
12.0
290
     0
  0
SCALE
  5
8F
102
{ACAD_REACTORS
330
6F
102
}
330
6F
100
AcDbScale
 70
     0
300
6" = 1'-0"
140
6.0
141
12.0
290
     0
  0
SCALE
  5
90
102
{ACAD_REACTORS
330
6F
102
}
330
6F
100
AcDbScale
 70
     0
300
1'-0" = 1'-0"
140
12.0
141
12.0
290
     0
  0
VISUALSTYLE
  5
5B
102
{ACAD_REACTORS
330
56
102
}
102
{ACAD_XDICTIONARY
360
4EF
102
}
330
56
100
AcDbVisualStyle
  2
2dWireframe
 70
     4
 71
     0
 72
     2
 73
     0
 90
        0
 40
0.6
 41
30.0
 62
     5
 63
     7
421
 16777215
 74
     1
 91
        4
 64
     7
 65
   257
 75
     1
175
     1
 42
1.0
 92
        0
 66
   257
 43
1.0
 76
     1
 77
     6
 78
     2
 67
     7
 79
     5
170
     0
171
     0
290
     0
174
     0
 93
        1
 44
0.0
173
     0
291
     0
 45
0.0
1001
ACAD
1000
AcDbSavedByObjectVersion
1070
     0
  0
VISUALSTYLE
  5
5E
102
{ACAD_REACTORS
330
56
102
}
102
{ACAD_XDICTIONARY
360
4F5
102
}
330
56
100
AcDbVisualStyle
  2
Basic
 70
     7
 71
     1
 72
     0
 73
     1
 90
        0
 40
0.6
 41
30.0
 62
     5
 63
     7
421
 16777215
 74
     0
 91
        4
 64
     7
 65
   257
 75
     1
175
     1
 42
1.0
 92
        8
 66
     7
 43
1.0
 76
     1
 77
     6
 78
     2
 67
     7
 79
     5
170
     0
171
     0
290
     0
174
     0
 93
        1
 44
0.0
173
     0
291
     1
 45
0.0
1001
ACAD
1000
AcDbSavedByObjectVersion
1070
     0
  0
VISUALSTYLE
  5
62
102
{ACAD_REACTORS
330
56
102
}
102
{ACAD_XDICTIONARY
360
4FD
102
}
330
56
100
AcDbVisualStyle
  2
Brighten
 70
    12
 71
     2
 72
     2
 73
     0
 90
        0
 40
0.6
 41
30.0
 62
     5
 63
     7
421
 16777215
 74
     1
 91
        4
 64
     7
 65
   257
 75
     1
175
     1
 42
1.0
 92
        8
 66
     7
 43
1.0
 76
     1
 77
     6
 78
     2
 67
     7
 79
     5
170
     0
171
     0
290
     0
174
     0
 93
        1
 44
50.0
173
     0
291
     1
 45
0.0
1001
ACAD
1000
AcDbSavedByObjectVersion
1070
     0
  0
VISUALSTYLE
  5
66
102
{ACAD_REACTORS
330
56
102
}
102
{ACAD_XDICTIONARY
360
505
102
}
330
56
100
AcDbVisualStyle
  2
ColorChange
 70
    16
 71
     2
 72
     2
 73
     3
 90
        0
 40
0.6
 41
30.0
 62
     5
 63
     8
421
  8421504
 74
     1
 91
        4
 64
     7
 65
   257
 75
     1
175
     1
 42
1.0
 92
        8
 66
     8
424
  8421504
 43
1.0
 76
     1
 77
     6
 78
     2
 67
     7
 79
     5
170
     0
171
     0
290
     0
174
     0
 93
        1
 44
0.0
173
     0
291
     1
 45
0.0
1001
ACAD
1000
AcDbSavedByObjectVersion
1070
     0
  0
VISUALSTYLE
  5
60
102
{ACAD_REACTORS
330
56
102
}
102
{ACAD_XDICTIONARY
360
4F9
102
}
330
56
100
AcDbVisualStyle
  2
Conceptual
 70
     9
 71
     3
 72
     2
 73
     0
 90
        0
 40
0.6
 41
30.0
 62
     5
 63
     7
421
 16777215
 74
     2
 91
        2
 64
     7
 65
   257
 75
     1
175
     1
 42
179.0
 92
        8
 66
     7
 43
1.0
 76
     1
 77
     6
 78
     2
 67
     7
 79
     3
170
     0
171
     0
290
     0
174
     0
 93
        1
 44
0.0
173
     0
291
     0
 45
0.0
1001
ACAD
1000
AcDbSavedByObjectVersion
1070
     0
  0
VISUALSTYLE
  5
61
102
{ACAD_REACTORS
330
56
102
}
102
{ACAD_XDICTIONARY
360
4FB
102
}
330
56
100
AcDbVisualStyle
  2
Dim
 70
    11
 71
     2
 72
     2
 73
     0
 90
        0
 40
0.6
 41
30.0
 62
     5
 63
     7
421
 16777215
 74
     1
 91
        4
 64
     7
 65
   257
 75
     1
175
     1
 42
1.0
 92
        8
 66
     7
 43
1.0
 76
     1
 77
     6
 78
     2
 67
     7
 79
     5
170
     0
171
     0
290
     0
174
     0
 93
        1
 44
-50.0
173
     0
291
     1
 45
0.0
1001
ACAD
1000
AcDbSavedByObjectVersion
1070
     0
  0
VISUALSTYLE
  5
69
102
{ACAD_REACTORS
330
56
102
}
102
{ACAD_XDICTIONARY
360
50B
102
}
330
56
100
AcDbVisualStyle
  2
EdgeColorOff
 70
    22
 71
     2
 72
     2
 73
     0
 90
        0
 40
0.6
 41
30.0
 62
     5
 63
     7
421
 16777215
 74
     1
 91
        4
 64
     7
 65
   257
 75
     1
175
     1
 42
1.0
 92
        8
 66
     7
 43
1.0
 76
     1
 77
     6
 78
     2
 67
     7
 79
     5
170
     0
171
     0
290
     0
174
     0
 93
        1
 44
0.0
173
     0
291
     1
 45
0.0
1001
ACAD
1000
AcDbSavedByObjectVersion
1070
     0
  0
VISUALSTYLE
  5
65
102
{ACAD_REACTORS
330
56
102
}
102
{ACAD_XDICTIONARY
360
503
102
}
330
56
100
AcDbVisualStyle
  2
Facepattern
 70
    15
 71
     2
 72
     2
 73
     0
 90
        0
 40
0.6
 41
30.0
 62
     5
 63
     7
421
 16777215
 74
     1
 91
        4
 64
     7
 65
   257
 75
     1
175
     1
 42
1.0
 92
        8
 66
     7
 43
1.0
 76
     1
 77
     6
 78
     2
 67
     7
 79
     5
170
     0
171
     0
290
     0
174
     0
 93
        1
 44
0.0
173
     0
291
     1
 45
0.0
1001
ACAD
1000
AcDbSavedByObjectVersion
1070
     0
  0
VISUALSTYLE
  5
57
102
{ACAD_REACTORS
330
56
102
}
102
{ACAD_XDICTIONARY
360
4E7
102
}
330
56
100
AcDbVisualStyle
  2
Flat
 70
     0
 71
     2
 72
     1
 73
     1
 90
        2
 40
0.6
 41
30.0
 62
     5
 63
     7
421
 16777215
 74
     0
 91
        0
 64
     7
 65
   257
 75
     1
175
     1
 42
1.0
 92
        8
 66
     7
 43
1.0
 76
     1
 77
     6
 78
     2
 67
     7
 79
     5
170
     0
171
     0
290
     0
174
     0
 93
       13
 44
0.0
173
     0
291
     1
 45
0.0
1001
ACAD
1000
AcDbSavedByObjectVersion
1070
     0
  0
VISUALSTYLE
  5
58
102
{ACAD_REACTORS
330
56
102
}
102
{ACAD_XDICTIONARY
360
4E9
102
}
330
56
100
AcDbVisualStyle
  2
FlatWithEdges
 70
     1
 71
     2
 72
     1
 73
     1
 90
        2
 40
0.6
 41
30.0
 62
     5
 63
     7
421
 16777215
 74
     1
 91
        0
 64
     7
 65
   257
 75
     1
175
     1
 42
1.0
 92
        0
 66
   257
 43
1.0
 76
     1
 77
     6
 78
     2
 67
     7
 79
     5
170
     0
171
     0
290
     0
174
     0
 93
       13
 44
0.0
173
     0
291
     1
 45
0.0
1001
ACAD
1000
AcDbSavedByObjectVersion
1070
     0
  0
VISUALSTYLE
  5
59
102
{ACAD_REACTORS
330
56
102
}
102
{ACAD_XDICTIONARY
360
4EB
102
}
330
56
100
AcDbVisualStyle
  2
Gouraud
 70
     2
 71
     2
 72
     2
 73
     1
 90
        2
 40
0.6
 41
30.0
 62
     5
 63
     7
421
 16777215
 74
     0
 91
        0
 64
     7
 65
   257
 75
     1
175
     1
 42
1.0
 92
        0
 66
     7
 43
1.0
 76
     1
 77
     6
 78
     2
 67
     7
 79
     5
170
     0
171
     0
290
     0
174
     0
 93
       13
 44
0.0
173
     0
291
     1
 45
0.0
1001
ACAD
1000
AcDbSavedByObjectVersion
1070
     0
  0
VISUALSTYLE
  5
5A
102
{ACAD_REACTORS
330
56
102
}
102
{ACAD_XDICTIONARY
360
4ED
102
}
330
56
100
AcDbVisualStyle
  2
GouraudWithEdges
 70
     3
 71
     2
 72
     2
 73
     1
 90
        2
 40
0.6
 41
30.0
 62
     5
 63
     7
421
 16777215
 74
     1
 91
        0
 64
     7
 65
   257
 75
     1
175
     1
 42
1.0
 92
        0
 66
   257
 43
1.0
 76
     1
 77
     6
 78
     2
 67
     7
 79
     5
170
     0
171
     0
290
     0
174
     0
 93
       13
 44
0.0
173
     0
291
     1
 45
0.0
1001
ACAD
1000
AcDbSavedByObjectVersion
1070
     0
  0
VISUALSTYLE
  5
5D
102
{ACAD_REACTORS
330
56
102
}
102
{ACAD_XDICTIONARY
360
4F3
102
}
330
56
100
AcDbVisualStyle
  2
Hidden
 70
     6
 71
     1
 72
     2
 73
     2
 90
        0
 40
0.6
 41
30.0
 62
     5
 63
     7
421
 16777215
 74
     2
 91
        2
 64
     7
 65
   257
 75
     2
175
     1
 42
40.0
 92
        0
 66
   257
 43
1.0
 76
     1
 77
     6
 78
     2
 67
     7
 79
     3
170
     0
171
     0
290
     0
174
     0
 93
        1
 44
0.0
173
     0
291
     0
 45
0.0
1001
ACAD
1000
AcDbSavedByObjectVersion
1070
     0
  0
VISUALSTYLE
  5
67
102
{ACAD_REACTORS
330
56
102
}
102
{ACAD_XDICTIONARY
360
507
102
}
330
56
100
AcDbVisualStyle
  2
JitterOff
 70
    20
 71
     2
 72
     2
 73
     0
 90
        0
 40
0.6
 41
30.0
 62
     5
 63
     7
421
 16777215
 74
     1
 91
        4
 64
     7
 65
   257
 75
     1
175
     1
 42
1.0
 92
       10
 66
     7
 43
1.0
 76
     1
 77
     6
 78
     2
 67
     7
 79
     5
170
     0
171
     0
290
     0
174
     0
 93
        1
 44
0.0
173
     0
291
     1
 45
0.0
1001
ACAD
1000
AcDbSavedByObjectVersion
1070
     0
  0
VISUALSTYLE
  5
64
102
{ACAD_REACTORS
330
56
102
}
102
{ACAD_XDICTIONARY
360
501
102
}
330
56
100
AcDbVisualStyle
  2
Linepattern
 70
    14
 71
     2
 72
     2
 73
     0
 90
        0
 40
0.6
 41
30.0
 62
     5
 63
     7
421
 16777215
 74
     1
 91
        4
 64
     7
 65
   257
 75
     7
175
     7
 42
1.0
 92
        8
 66
     7
 43
1.0
 76
     1
 77
     6
 78
     2
 67
     7
 79
     5
170
     0
171
     0
290
     0
174
     0
 93
        1
 44
0.0
173
     0
291
     1
 45
0.0
1001
ACAD
1000
AcDbSavedByObjectVersion
1070
     0
  0
VISUALSTYLE
  5
68
102
{ACAD_REACTORS
330
56
102
}
102
{ACAD_XDICTIONARY
360
509
102
}
330
56
100
AcDbVisualStyle
  2
OverhangOff
 70
    21
 71
     2
 72
     2
 73
     0
 90
        0
 40
0.6
 41
30.0
 62
     5
 63
     7
421
 16777215
 74
     1
 91
        4
 64
     7
 65
   257
 75
     1
175
     1
 42
1.0
 92
        9
 66
     7
 43
1.0
 76
     1
 77
     6
 78
     2
 67
     7
 79
     5
170
     0
171
     0
290
     0
174
     0
 93
        1
 44
0.0
173
     0
291
     1
 45
0.0
1001
ACAD
1000
AcDbSavedByObjectVersion
1070
     0
  0
VISUALSTYLE
  5
5F
102
{ACAD_REACTORS
330
56
102
}
102
{ACAD_XDICTIONARY
360
4F7
102
}
330
56
100
AcDbVisualStyle
  2
Realistic
 70
     8
 71
     2
 72
     3
 73
     0
 90
        2
 40
0.6
 41
30.0
 62
     5
 63
     7
421
 16777215
 74
     0
 91
        0
 64
     7
 65
   257
 75
     1
175
     1
 42
1.0
 92
        8
 66
   257
 43
1.0
 76
     1
 77
     6
 78
     2
 67
     7
 79
     3
170
     0
171
     0
290
     0
174
     0
 93
       13
 44
0.0
173
     0
291
     0
 45
0.0
1001
ACAD
1000
AcDbSavedByObjectVersion
1070
     0
  0
VISUALSTYLE
  5
6E
102
{ACAD_REACTORS
330
56
102
}
102
{ACAD_XDICTIONARY
360
515
102
}
330
56
100
AcDbVisualStyle
  2
Shaded
 70
    27
 71
     2
 72
     2
 73
     1
 90
        2
 40
0.6
 41
30.0
 62
     5
 63
     7
421
 16777215
 74
     0
 91
        4
 64
     7
 65
   257
 75
     1
175
     1
 42
1.0
 92
        8
 66
   257
 43
1.0
 76
     1
 77
     6
 78
     2
 67
     8
425
  7895160
 79
     3
170
     0
171
     0
290
     0
174
     0
 93
        5
 44
0.0
173
     0
291
     0
 45
0.0
1001
ACAD
1000
AcDbSavedByObjectVersion
1070
     0
  0
VISUALSTYLE
  5
6D
102
{ACAD_REACTORS
330
56
102
}
102
{ACAD_XDICTIONARY
360
513
102
}
330
56
100
AcDbVisualStyle
  2
Shaded with edges
 70
    26
 71
     2
 72
     2
 73
     1
 90
        2
 40
0.6
 41
30.0
 62
     5
 63
     7
421
 16777215
 74
     1
 91
       10
 64
     7
 65
   257
 75
     2
175
     1
 42
1.0
 92
        8
 66
   257
 43
1.0
 76
     1
 77
     6
 78
     2
 67
     7
 79
     3
170
     0
171
     0
290
     0
174
     0
 93
        5
 44
0.0
173
     0
291
     0
 45
0.0
1001
ACAD
1000
AcDbSavedByObjectVersion
1070
     0
  0
VISUALSTYLE
  5
6A
102
{ACAD_REACTORS
330
56
102
}
102
{ACAD_XDICTIONARY
360
50D
102
}
330
56
100
AcDbVisualStyle
  2
Shades of Gray
 70
    23
 71
     2
 72
     2
 73
     3
 90
        0
 40
0.6
 41
30.0
 62
     5
 63
     7
421
 16777215
 74
     2
 91
        2
 64
     7
 65
     7
 75
     1
175
     1
 42
40.0
 92
        8
 66
     7
 43
1.0
 76
     1
 77
     6
 78
     2
 67
     7
 79
     3
170
     0
171
     0
290
     0
174
     0
 93
        1
 44
0.0
173
     0
291
     0
 45
0.0
1001
ACAD
1000
AcDbSavedByObjectVersion
1070
     0
  0
VISUALSTYLE
  5
6B
102
{ACAD_REACTORS
330
56
102
}
102
{ACAD_XDICTIONARY
360
50F
102
}
330
56
100
AcDbVisualStyle
  2
Sketchy
 70
    24
 71
     1
 72
     2
 73
     2
 90
        0
 40
0.6
 41
30.0
 62
     5
 63
     7
421
 16777215
 74
     2
 91
        2
 64
     7
 65
     7
 75
     1
175
     1
 42
40.0
 92
       11
 66
     7
 43
1.0
 76
     1
 77
     6
 78
     2
 67
     7
 79
     6
170
     0
171
     0
290
     0
174
     0
 93
        1
 44
0.0
173
     0
291
     0
 45
0.0
1001
ACAD
1000
AcDbSavedByObjectVersion
1070
     0
  0
VISUALSTYLE
  5
63
102
{ACAD_REACTORS
330
56
102
}
102
{ACAD_XDICTIONARY
360
4FF
102
}
330
56
100
AcDbVisualStyle
  2
Thicken
 70
    13
 71
     2
 72
     2
 73
     0
 90
        0
 40
0.6
 41
30.0
 62
     5
 63
     7
421
 16777215
 74
     1
 91
        4
 64
     7
 65
   257
 75
     1
175
     1
 42
1.0
 92
       12
 66
     7
 43
1.0
 76
     1
 77
     6
 78
     2
 67
     7
 79
     5
170
     0
171
     0
290
     0
174
     0
 93
        1
 44
0.0
173
     0
291
     1
 45
0.0
1001
ACAD
1000
AcDbSavedByObjectVersion
1070
     0
  0
VISUALSTYLE
  5
5C
102
{ACAD_REACTORS
330
56
102
}
102
{ACAD_XDICTIONARY
360
4F1
102
}
330
56
100
AcDbVisualStyle
  2
Wireframe
 70
     5
 71
     0
 72
     2
 73
     0
 90
        0
 40
0.6
 41
30.0
 62
     5
 63
     7
421
 16777215
 74
     1
 91
        4
 64
     7
 65
   257
 75
     1
175
     1
 42
1.0
 92
        0
 66
   257
 43
1.0
 76
     1
 77
     6
 78
     2
 67
     7
 79
     3
170
     0
171
     0
290
     0
174
     0
 93
        1
 44
0.0
173
     0
291
     0
 45
0.0
1001
ACAD
1000
AcDbSavedByObjectVersion
1070
     0
  0
VISUALSTYLE
  5
6C
102
{ACAD_REACTORS
330
56
102
}
102
{ACAD_XDICTIONARY
360
511
102
}
330
56
100
AcDbVisualStyle
  2
X-Ray
 70
    25
 71
     2
 72
     2
 73
     1
 90
        1
 40
0.5
 41
30.0
 62
     5
 63
     7
421
 16777215
 74
     1
 91
        0
 64
     7
 65
   257
 75
     1
175
     1
 42
1.0
 92
        8
 66
     7
 43
1.0
 76
     1
 77
     6
 78
     2
 67
     7
 79
     3
170
     0
171
     0
290
     0
174
     0
 93
       13
 44
0.0
173
     0
291
     0
 45
0.0
1001
ACAD
1000
AcDbSavedByObjectVersion
1070
     0
  0
DICTIONARYVAR
  5
4E6
102
{ACAD_REACTORS
330
4E
102
}
330
4E
100
DictionaryVariables
280
     0
  1
1:1
  0
DICTIONARYVAR
  5
4F
102
{ACAD_REACTORS
330
4E
102
}
330
4E
100
DictionaryVariables
280
     0
  1
1
  0
DICTIONARYVAR
  5
51F
102
{ACAD_REACTORS
330
4E
102
}
330
4E
100
DictionaryVariables
280
     0
  1
0
  0
DICTIONARY
  5
519
330
93
100
AcDbDictionary
280
     1
281
     1
  3
ACAD_XREC_ROUNDTRIP
360
51A
  0
DICTIONARY
  5
517
330
92
100
AcDbDictionary
280
     1
281
     1
  3
ACAD_XREC_ROUNDTRIP
360
518
  0
DICTIONARY
  5
51B
330
94
100
AcDbDictionary
280
     1
281
     1
  3
ACAD_XREC_ROUNDTRIP
360
51C
  0
DICTIONARY
  5
4EF
330
5B
100
AcDbDictionary
280
     1
281
     1
  3
ACAD_XREC_ROUNDTRIP
360
4F0
  0
DICTIONARY
  5
4F5
330
5E
100
AcDbDictionary
280
     1
281
     1
  3
ACAD_XREC_ROUNDTRIP
360
4F6
  0
DICTIONARY
  5
4FD
330
62
100
AcDbDictionary
280
     1
281
     1
  3
ACAD_XREC_ROUNDTRIP
360
4FE
  0
DICTIONARY
  5
505
330
66
100
AcDbDictionary
280
     1
281
     1
  3
ACAD_XREC_ROUNDTRIP
360
506
  0
DICTIONARY
  5
4F9
330
60
100
AcDbDictionary
280
     1
281
     1
  3
ACAD_XREC_ROUNDTRIP
360
4FA
  0
DICTIONARY
  5
4FB
330
61
100
AcDbDictionary
280
     1
281
     1
  3
ACAD_XREC_ROUNDTRIP
360
4FC
  0
DICTIONARY
  5
50B
330
69
100
AcDbDictionary
280
     1
281
     1
  3
ACAD_XREC_ROUNDTRIP
360
50C
  0
DICTIONARY
  5
503
330
65
100
AcDbDictionary
280
     1
281
     1
  3
ACAD_XREC_ROUNDTRIP
360
504
  0
DICTIONARY
  5
4E7
330
57
100
AcDbDictionary
280
     1
281
     1
  3
ACAD_XREC_ROUNDTRIP
360
4E8
  0
DICTIONARY
  5
4E9
330
58
100
AcDbDictionary
280
     1
281
     1
  3
ACAD_XREC_ROUNDTRIP
360
4EA
  0
DICTIONARY
  5
4EB
330
59
100
AcDbDictionary
280
     1
281
     1
  3
ACAD_XREC_ROUNDTRIP
360
4EC
  0
DICTIONARY
  5
4ED
330
5A
100
AcDbDictionary
280
     1
281
     1
  3
ACAD_XREC_ROUNDTRIP
360
4EE
  0
DICTIONARY
  5
4F3
330
5D
100
AcDbDictionary
280
     1
281
     1
  3
ACAD_XREC_ROUNDTRIP
360
4F4
  0
DICTIONARY
  5
507
330
67
100
AcDbDictionary
280
     1
281
     1
  3
ACAD_XREC_ROUNDTRIP
360
508
  0
DICTIONARY
  5
501
330
64
100
AcDbDictionary
280
     1
281
     1
  3
ACAD_XREC_ROUNDTRIP
360
502
  0
DICTIONARY
  5
509
330
68
100
AcDbDictionary
280
     1
281
     1
  3
ACAD_XREC_ROUNDTRIP
360
50A
  0
DICTIONARY
  5
4F7
330
5F
100
AcDbDictionary
280
     1
281
     1
  3
ACAD_XREC_ROUNDTRIP
360
4F8
  0
DICTIONARY
  5
515
330
6E
100
AcDbDictionary
280
     1
281
     1
  3
ACAD_XREC_ROUNDTRIP
360
516
  0
DICTIONARY
  5
513
330
6D
100
AcDbDictionary
280
     1
281
     1
  3
ACAD_XREC_ROUNDTRIP
360
514
  0
DICTIONARY
  5
50D
330
6A
100
AcDbDictionary
280
     1
281
     1
  3
ACAD_XREC_ROUNDTRIP
360
50E
  0
DICTIONARY
  5
50F
330
6B
100
AcDbDictionary
280
     1
281
     1
  3
ACAD_XREC_ROUNDTRIP
360
510
  0
DICTIONARY
  5
4FF
330
63
100
AcDbDictionary
280
     1
281
     1
  3
ACAD_XREC_ROUNDTRIP
360
500
  0
DICTIONARY
  5
4F1
330
5C
100
AcDbDictionary
280
     1
281
     1
  3
ACAD_XREC_ROUNDTRIP
360
4F2
  0
DICTIONARY
  5
511
330
6C
100
AcDbDictionary
280
     1
281
     1
  3
ACAD_XREC_ROUNDTRIP
360
512
  0
XRECORD
  5
51A
102
{ACAD_REACTORS
330
519
102
}
330
519
100
AcDbXrecord
280
     1
102
MATERIAL
148
0.0
149
0.0
149
0.0
 93
        0
 94
      127
282
     0
 72
     1
 77
     1
171
     1
175
     1
179
     1
273
     0
  0
XRECORD
  5
518
102
{ACAD_REACTORS
330
517
102
}
330
517
100
AcDbXrecord
280
     1
102
MATERIAL
148
0.0
149
0.0
149
0.0
 93
        0
 94
      127
282
     0
 72
     1
 77
     1
171
     1
175
     1
179
     1
273
     0
  0
XRECORD
  5
51C
102
{ACAD_REACTORS
330
51B
102
}
330
51B
100
AcDbXrecord
280
     1
102
MATERIAL
148
0.0
149
0.0
149
0.0
 93
        0
 94
      127
282
     0
 72
     1
 77
     1
171
     1
175
     1
179
     1
273
     0
  0
XRECORD
  5
4F0
102
{ACAD_REACTORS
330
4EF
102
}
330
4EF
100
AcDbXrecord
280
     1
102
RTVSPropertyOp0
 70
     1
102
RTVSPropertyOp1
 70
     1
102
RTVSPropertyOp2
 70
     1
102
RTVSPropertyOp3
 70
     1
102
RTVSPropertyOp4
 70
     1
102
RTVSPropertyOp5
 70
     1
102
RTVSPropertyOp6
 70
     1
102
RTVSPropertyOp7
 70
     1
102
RTVSPropertyOp8
 70
     1
102
RTVSPropertyOp9
 70
     1
102
RTVSPropertyOp10
 70
     1
102
RTVSPropertyOp11
 70
     1
102
RTVSPropertyOp12
 70
     1
102
RTVSPropertyOp13
 70
     1
102
RTVSPropertyOp14
 70
     1
102
RTVSPropertyOp15
 70
     1
102
RTVSPropertyOp16
 70
     1
102
RTVSPropertyOp17
 70
     1
102
RTVSPropertyOp18
 70
     1
102
RTVSPropertyOp19
 70
     1
102
RTVSPropertyOp20
 70
     1
102
RTVSPropertyOp21
 70
     1
102
RTVSPropertyOp22
 70
     1
102
RTVSPropertyOp23
 70
     1
102
RTVSPropertyOp24
 70
     1
102
RTVSPropertyOp25
 70
     1
102
RTVSPropertyOp26
 70
     1
102
RTVSPropertyOp27
 70
     1
102
RTVSPropertyOp28
 70
     1
102
RTVSPropertyOp29
 70
     1
102
RTVSPropertyOp30
 70
     1
102
RTVSPropertyOp31
 70
     1
102
RTVSPropertyOp32
 70
     1
102
RTVSPropertyOp33
 70
     1
102
RTVSPropertyOp34
 70
     1
102
RTVSPropertyOp35
 70
     1
102
RTVSPropertyOp36
 70
     1
102
RTVSPropertyOp37
 70
     1
102
RTVSPropertyOp38
 70
     1
102
RTVSPropertyOp39
 70
     1
102
RTVSPropertyOp40
 70
     1
102
RTVSPropertyOp41
 70
     1
102
RTVSPropertyOp42
 70
     1
102
RTVSPropertyOp43
 70
     1
102
RTVSPropertyOp44
 70
     1
102
RTVSPropertyOp45
 70
     1
102
RTVSPropertyOp46
 70
     1
102
RTVSPropertyOp47
 70
     1
102
RTVSPropertyOp48
 70
     1
102
RTVSPropertyOp49
 70
     1
102
RTVSPropertyOp50
 70
     1
102
RTVSPropertyOp51
 70
     0
102
RTVSPropertyOp52
 70
     0
102
RTVSPropertyOp53
 70
     1
102
RTVSPropertyOp54
 70
     1
102
RTVSPropertyOp55
 70
     1
102
RTVSPropertyOp56
 70
     1
102
RTVSPropertyOp57
 70
     1
102
RTVSPost2010Prop28
280
     1
102
RTVSPost2010PropOp28
 70
     1
102
RTVSPost2010Prop29
280
     1
102
RTVSPost2010PropOp29
 70
     1
102
RTVSPost2010Prop30
280
     0
102
RTVSPost2010PropOp30
 70
     1
102
RTVSPost2010Prop31
280
     0
102
RTVSPost2010PropOp31
 70
     1
102
RTVSPost2010Prop32
280
     0
102
RTVSPost2010PropOp32
 70
     1
102
RTVSPost2010Prop33
280
     0
102
RTVSPost2010PropOp33
 70
     1
102
RTVSPost2010Prop34
280
     0
102
RTVSPost2010PropOp34
 70
     1
102
RTVSPost2010Prop35
280
     0
102
RTVSPost2010PropOp35
 70
     1
102
RTVSPost2010Prop36
280
     0
102
RTVSPost2010PropOp36
 70
     1
102
RTVSPost2010Prop37
 90
       50
102
RTVSPost2010PropOp37
 70
     1
102
RTVSPost2010Prop38
140
0.0
102
RTVSPost2010PropOp38
 70
     1
102
RTVSPost2010Prop39
140
1.0
102
RTVSPost2010PropOp39
 70
     1
102
RTVSPost2010Prop40
 90
        0
102
RTVSPost2010PropOp40
 70
     1
102
RTVSPost2010Prop41ColorIndex
 90
       18
102
RTVSPost2010Prop41ColorRGB
 90
        0
102
RTVSPost2010PropOp41
 70
     1
102
RTVSPost2010Prop42
 90
       50
102
RTVSPost2010PropOp42
 70
     1
102
RTVSPost2010Prop43
 90
        3
102
RTVSPost2010PropOp43
 70
     1
102
RTVSPost2010Prop44ColorIndex
 90
        5
102
RTVSPost2010Prop44ColorRGB
 90
      255
102
RTVSPost2010PropOp44
 70
     1
102
RTVSPost2010Prop45
280
     0
102
RTVSPost2010PropOp45
 70
     1
102
RTVSPost2010Prop46
 90
       50
102
RTVSPost2010PropOp46
 70
     1
102
RTVSPost2010Prop47
 90
       50
102
RTVSPost2010PropOp47
 70
     1
102
RTVSPost2010Prop48
 90
       50
102
RTVSPost2010PropOp48
 70
     1
102
RTVSPost2010Prop49
280
     0
102
RTVSPost2010PropOp49
 70
     1
102
RTVSPost2010Prop50
 90
       50
102
RTVSPost2010PropOp50
 70
     1
102
RTVSPost2010Prop51ColorIndex
 90
      256
102
RTVSPost2010Prop51ColorRGB
 90
-16777216
102
RTVSPost2010PropOp51
 70
     0
102
RTVSPost2010Prop52
140
1.0
102
RTVSPost2010PropOp52
 70
     0
102
RTVSPost2010Prop53
 90
        2
102
RTVSPost2010PropOp53
 70
     1
102
RTVSPost2010Prop54
  1
strokes_ogs.tif
102
RTVSPost2010PropOp54
 70
     1
102
RTVSPost2010Prop55
280
     0
102
RTVSPost2010PropOp55
 70
     1
102
RTVSPost2010Prop56
140
1.0
102
RTVSPost2010PropOp56
 70
     1
102
RTVSPost2010Prop57
140
1.0
102
RTVSPost2010PropOp57
 70
     1
  0
XRECORD
  5
4F6
102
{ACAD_REACTORS
330
4F5
102
}
330
4F5
100
AcDbXrecord
280
     1
102
RTVSPropertyOp0
 70
     1
102
RTVSPropertyOp1
 70
     1
102
RTVSPropertyOp2
 70
     1
102
RTVSPropertyOp3
 70
     1
102
RTVSPropertyOp4
 70
     1
102
RTVSPropertyOp5
 70
     1
102
RTVSPropertyOp6
 70
     1
102
RTVSPropertyOp7
 70
     1
102
RTVSPropertyOp8
 70
     1
102
RTVSPropertyOp9
 70
     1
102
RTVSPropertyOp10
 70
     1
102
RTVSPropertyOp11
 70
     1
102
RTVSPropertyOp12
 70
     1
102
RTVSPropertyOp13
 70
     1
102
RTVSPropertyOp14
 70
     1
102
RTVSPropertyOp15
 70
     1
102
RTVSPropertyOp16
 70
     1
102
RTVSPropertyOp17
 70
     1
102
RTVSPropertyOp18
 70
     1
102
RTVSPropertyOp19
 70
     1
102
RTVSPropertyOp20
 70
     1
102
RTVSPropertyOp21
 70
     1
102
RTVSPropertyOp22
 70
     1
102
RTVSPropertyOp23
 70
     1
102
RTVSPropertyOp24
 70
     1
102
RTVSPropertyOp25
 70
     1
102
RTVSPropertyOp26
 70
     1
102
RTVSPropertyOp27
 70
     1
102
RTVSPropertyOp28
 70
     1
102
RTVSPropertyOp29
 70
     1
102
RTVSPropertyOp30
 70
     1
102
RTVSPropertyOp31
 70
     1
102
RTVSPropertyOp32
 70
     1
102
RTVSPropertyOp33
 70
     1
102
RTVSPropertyOp34
 70
     1
102
RTVSPropertyOp35
 70
     1
102
RTVSPropertyOp36
 70
     1
102
RTVSPropertyOp37
 70
     1
102
RTVSPropertyOp38
 70
     1
102
RTVSPropertyOp39
 70
     1
102
RTVSPropertyOp40
 70
     1
102
RTVSPropertyOp41
 70
     1
102
RTVSPropertyOp42
 70
     1
102
RTVSPropertyOp43
 70
     1
102
RTVSPropertyOp44
 70
     1
102
RTVSPropertyOp45
 70
     1
102
RTVSPropertyOp46
 70
     1
102
RTVSPropertyOp47
 70
     1
102
RTVSPropertyOp48
 70
     1
102
RTVSPropertyOp49
 70
     1
102
RTVSPropertyOp50
 70
     1
102
RTVSPropertyOp51
 70
     0
102
RTVSPropertyOp52
 70
     0
102
RTVSPropertyOp53
 70
     1
102
RTVSPropertyOp54
 70
     1
102
RTVSPropertyOp55
 70
     1
102
RTVSPropertyOp56
 70
     1
102
RTVSPropertyOp57
 70
     1
102
RTVSPost2010Prop28
280
     0
102
RTVSPost2010PropOp28
 70
     1
102
RTVSPost2010Prop29
280
     1
102
RTVSPost2010PropOp29
 70
     1
102
RTVSPost2010Prop30
280
     1
102
RTVSPost2010PropOp30
 70
     1
102
RTVSPost2010Prop31
280
     0
102
RTVSPost2010PropOp31
 70
     1
102
RTVSPost2010Prop32
280
     0
102
RTVSPost2010PropOp32
 70
     1
102
RTVSPost2010Prop33
280
     0
102
RTVSPost2010PropOp33
 70
     1
102
RTVSPost2010Prop34
280
     0
102
RTVSPost2010PropOp34
 70
     1
102
RTVSPost2010Prop35
280
     0
102
RTVSPost2010PropOp35
 70
     1
102
RTVSPost2010Prop36
280
     0
102
RTVSPost2010PropOp36
 70
     1
102
RTVSPost2010Prop37
 90
       50
102
RTVSPost2010PropOp37
 70
     1
102
RTVSPost2010Prop38
140
0.0
102
RTVSPost2010PropOp38
 70
     1
102
RTVSPost2010Prop39
140
1.0
102
RTVSPost2010PropOp39
 70
     1
102
RTVSPost2010Prop40
 90
        0
102
RTVSPost2010PropOp40
 70
     1
102
RTVSPost2010Prop41ColorIndex
 90
       18
102
RTVSPost2010Prop41ColorRGB
 90
        0
102
RTVSPost2010PropOp41
 70
     1
102
RTVSPost2010Prop42
 90
       50
102
RTVSPost2010PropOp42
 70
     1
102
RTVSPost2010Prop43
 90
        3
102
RTVSPost2010PropOp43
 70
     1
102
RTVSPost2010Prop44ColorIndex
 90
        5
102
RTVSPost2010Prop44ColorRGB
 90
      255
102
RTVSPost2010PropOp44
 70
     1
102
RTVSPost2010Prop45
280
     0
102
RTVSPost2010PropOp45
 70
     1
102
RTVSPost2010Prop46
 90
       50
102
RTVSPost2010PropOp46
 70
     1
102
RTVSPost2010Prop47
 90
       50
102
RTVSPost2010PropOp47
 70
     1
102
RTVSPost2010Prop48
 90
       50
102
RTVSPost2010PropOp48
 70
     1
102
RTVSPost2010Prop49
280
     0
102
RTVSPost2010PropOp49
 70
     1
102
RTVSPost2010Prop50
 90
       50
102
RTVSPost2010PropOp50
 70
     1
102
RTVSPost2010Prop51ColorIndex
 90
      256
102
RTVSPost2010Prop51ColorRGB
 90
-16777216
102
RTVSPost2010PropOp51
 70
     0
102
RTVSPost2010Prop52
140
1.0
102
RTVSPost2010PropOp52
 70
     0
102
RTVSPost2010Prop53
 90
        2
102
RTVSPost2010PropOp53
 70
     1
102
RTVSPost2010Prop54
  1
strokes_ogs.tif
102
RTVSPost2010PropOp54
 70
     1
102
RTVSPost2010Prop55
280
     0
102
RTVSPost2010PropOp55
 70
     1
102
RTVSPost2010Prop56
140
1.0
102
RTVSPost2010PropOp56
 70
     1
102
RTVSPost2010Prop57
140
1.0
102
RTVSPost2010PropOp57
 70
     1
  0
XRECORD
  5
4FE
102
{ACAD_REACTORS
330
4FD
102
}
330
4FD
100
AcDbXrecord
280
     1
102
RTVSPropertyOp0
 70
     1
102
RTVSPropertyOp1
 70
     1
102
RTVSPropertyOp2
 70
     1
102
RTVSPropertyOp3
 70
     1
102
RTVSPropertyOp4
 70
     1
102
RTVSPropertyOp5
 70
     1
102
RTVSPropertyOp6
 70
     1
102
RTVSPropertyOp7
 70
     1
102
RTVSPropertyOp8
 70
     1
102
RTVSPropertyOp9
 70
     1
102
RTVSPropertyOp10
 70
     1
102
RTVSPropertyOp11
 70
     1
102
RTVSPropertyOp12
 70
     1
102
RTVSPropertyOp13
 70
     1
102
RTVSPropertyOp14
 70
     1
102
RTVSPropertyOp15
 70
     1
102
RTVSPropertyOp16
 70
     1
102
RTVSPropertyOp17
 70
     1
102
RTVSPropertyOp18
 70
     1
102
RTVSPropertyOp19
 70
     1
102
RTVSPropertyOp20
 70
     1
102
RTVSPropertyOp21
 70
     1
102
RTVSPropertyOp22
 70
     1
102
RTVSPropertyOp23
 70
     1
102
RTVSPropertyOp24
 70
     1
102
RTVSPropertyOp25
 70
     1
102
RTVSPropertyOp26
 70
     1
102
RTVSPropertyOp27
 70
     1
102
RTVSPropertyOp28
 70
     1
102
RTVSPropertyOp29
 70
     1
102
RTVSPropertyOp30
 70
     1
102
RTVSPropertyOp31
 70
     1
102
RTVSPropertyOp32
 70
     1
102
RTVSPropertyOp33
 70
     1
102
RTVSPropertyOp34
 70
     1
102
RTVSPropertyOp35
 70
     1
102
RTVSPropertyOp36
 70
     1
102
RTVSPropertyOp37
 70
     1
102
RTVSPropertyOp38
 70
     1
102
RTVSPropertyOp39
 70
     1
102
RTVSPropertyOp40
 70
     1
102
RTVSPropertyOp41
 70
     1
102
RTVSPropertyOp42
 70
     1
102
RTVSPropertyOp43
 70
     1
102
RTVSPropertyOp44
 70
     1
102
RTVSPropertyOp45
 70
     1
102
RTVSPropertyOp46
 70
     1
102
RTVSPropertyOp47
 70
     1
102
RTVSPropertyOp48
 70
     1
102
RTVSPropertyOp49
 70
     1
102
RTVSPropertyOp50
 70
     1
102
RTVSPropertyOp51
 70
     0
102
RTVSPropertyOp52
 70
     0
102
RTVSPropertyOp53
 70
     1
102
RTVSPropertyOp54
 70
     1
102
RTVSPropertyOp55
 70
     1
102
RTVSPropertyOp56
 70
     1
102
RTVSPropertyOp57
 70
     1
102
RTVSPost2010Prop28
280
     0
102
RTVSPost2010PropOp28
 70
     1
102
RTVSPost2010Prop29
280
     1
102
RTVSPost2010PropOp29
 70
     1
102
RTVSPost2010Prop30
280
     1
102
RTVSPost2010PropOp30
 70
     1
102
RTVSPost2010Prop31
280
     0
102
RTVSPost2010PropOp31
 70
     1
102
RTVSPost2010Prop32
280
     0
102
RTVSPost2010PropOp32
 70
     1
102
RTVSPost2010Prop33
280
     0
102
RTVSPost2010PropOp33
 70
     1
102
RTVSPost2010Prop34
280
     0
102
RTVSPost2010PropOp34
 70
     1
102
RTVSPost2010Prop35
280
     0
102
RTVSPost2010PropOp35
 70
     1
102
RTVSPost2010Prop36
280
     0
102
RTVSPost2010PropOp36
 70
     1
102
RTVSPost2010Prop37
 90
       50
102
RTVSPost2010PropOp37
 70
     1
102
RTVSPost2010Prop38
140
0.0
102
RTVSPost2010PropOp38
 70
     1
102
RTVSPost2010Prop39
140
1.0
102
RTVSPost2010PropOp39
 70
     1
102
RTVSPost2010Prop40
 90
        0
102
RTVSPost2010PropOp40
 70
     1
102
RTVSPost2010Prop41ColorIndex
 90
       18
102
RTVSPost2010Prop41ColorRGB
 90
        0
102
RTVSPost2010PropOp41
 70
     1
102
RTVSPost2010Prop42
 90
       50
102
RTVSPost2010PropOp42
 70
     1
102
RTVSPost2010Prop43
 90
        3
102
RTVSPost2010PropOp43
 70
     1
102
RTVSPost2010Prop44ColorIndex
 90
        5
102
RTVSPost2010Prop44ColorRGB
 90
      255
102
RTVSPost2010PropOp44
 70
     1
102
RTVSPost2010Prop45
280
     0
102
RTVSPost2010PropOp45
 70
     1
102
RTVSPost2010Prop46
 90
       50
102
RTVSPost2010PropOp46
 70
     1
102
RTVSPost2010Prop47
 90
       50
102
RTVSPost2010PropOp47
 70
     1
102
RTVSPost2010Prop48
 90
       50
102
RTVSPost2010PropOp48
 70
     1
102
RTVSPost2010Prop49
280
     0
102
RTVSPost2010PropOp49
 70
     1
102
RTVSPost2010Prop50
 90
       50
102
RTVSPost2010PropOp50
 70
     1
102
RTVSPost2010Prop51ColorIndex
 90
      256
102
RTVSPost2010Prop51ColorRGB
 90
-16777216
102
RTVSPost2010PropOp51
 70
     0
102
RTVSPost2010Prop52
140
1.0
102
RTVSPost2010PropOp52
 70
     0
102
RTVSPost2010Prop53
 90
        2
102
RTVSPost2010PropOp53
 70
     1
102
RTVSPost2010Prop54
  1
strokes_ogs.tif
102
RTVSPost2010PropOp54
 70
     1
102
RTVSPost2010Prop55
280
     0
102
RTVSPost2010PropOp55
 70
     1
102
RTVSPost2010Prop56
140
1.0
102
RTVSPost2010PropOp56
 70
     1
102
RTVSPost2010Prop57
140
1.0
102
RTVSPost2010PropOp57
 70
     1
  0
XRECORD
  5
506
102
{ACAD_REACTORS
330
505
102
}
330
505
100
AcDbXrecord
280
     1
102
RTVSPropertyOp0
 70
     1
102
RTVSPropertyOp1
 70
     1
102
RTVSPropertyOp2
 70
     1
102
RTVSPropertyOp3
 70
     1
102
RTVSPropertyOp4
 70
     1
102
RTVSPropertyOp5
 70
     1
102
RTVSPropertyOp6
 70
     1
102
RTVSPropertyOp7
 70
     1
102
RTVSPropertyOp8
 70
     1
102
RTVSPropertyOp9
 70
     1
102
RTVSPropertyOp10
 70
     1
102
RTVSPropertyOp11
 70
     1
102
RTVSPropertyOp12
 70
     1
102
RTVSPropertyOp13
 70
     1
102
RTVSPropertyOp14
 70
     1
102
RTVSPropertyOp15
 70
     1
102
RTVSPropertyOp16
 70
     1
102
RTVSPropertyOp17
 70
     1
102
RTVSPropertyOp18
 70
     1
102
RTVSPropertyOp19
 70
     1
102
RTVSPropertyOp20
 70
     1
102
RTVSPropertyOp21
 70
     1
102
RTVSPropertyOp22
 70
     1
102
RTVSPropertyOp23
 70
     1
102
RTVSPropertyOp24
 70
     1
102
RTVSPropertyOp25
 70
     1
102
RTVSPropertyOp26
 70
     1
102
RTVSPropertyOp27
 70
     1
102
RTVSPropertyOp28
 70
     1
102
RTVSPropertyOp29
 70
     1
102
RTVSPropertyOp30
 70
     1
102
RTVSPropertyOp31
 70
     1
102
RTVSPropertyOp32
 70
     1
102
RTVSPropertyOp33
 70
     1
102
RTVSPropertyOp34
 70
     1
102
RTVSPropertyOp35
 70
     1
102
RTVSPropertyOp36
 70
     1
102
RTVSPropertyOp37
 70
     1
102
RTVSPropertyOp38
 70
     1
102
RTVSPropertyOp39
 70
     1
102
RTVSPropertyOp40
 70
     1
102
RTVSPropertyOp41
 70
     1
102
RTVSPropertyOp42
 70
     1
102
RTVSPropertyOp43
 70
     1
102
RTVSPropertyOp44
 70
     1
102
RTVSPropertyOp45
 70
     1
102
RTVSPropertyOp46
 70
     1
102
RTVSPropertyOp47
 70
     1
102
RTVSPropertyOp48
 70
     1
102
RTVSPropertyOp49
 70
     1
102
RTVSPropertyOp50
 70
     1
102
RTVSPropertyOp51
 70
     0
102
RTVSPropertyOp52
 70
     0
102
RTVSPropertyOp53
 70
     1
102
RTVSPropertyOp54
 70
     1
102
RTVSPropertyOp55
 70
     1
102
RTVSPropertyOp56
 70
     1
102
RTVSPropertyOp57
 70
     1
102
RTVSPost2010Prop28
280
     0
102
RTVSPost2010PropOp28
 70
     1
102
RTVSPost2010Prop29
280
     1
102
RTVSPost2010PropOp29
 70
     1
102
RTVSPost2010Prop30
280
     1
102
RTVSPost2010PropOp30
 70
     1
102
RTVSPost2010Prop31
280
     0
102
RTVSPost2010PropOp31
 70
     1
102
RTVSPost2010Prop32
280
     0
102
RTVSPost2010PropOp32
 70
     1
102
RTVSPost2010Prop33
280
     0
102
RTVSPost2010PropOp33
 70
     1
102
RTVSPost2010Prop34
280
     0
102
RTVSPost2010PropOp34
 70
     1
102
RTVSPost2010Prop35
280
     0
102
RTVSPost2010PropOp35
 70
     1
102
RTVSPost2010Prop36
280
     0
102
RTVSPost2010PropOp36
 70
     1
102
RTVSPost2010Prop37
 90
       50
102
RTVSPost2010PropOp37
 70
     1
102
RTVSPost2010Prop38
140
0.0
102
RTVSPost2010PropOp38
 70
     1
102
RTVSPost2010Prop39
140
1.0
102
RTVSPost2010PropOp39
 70
     1
102
RTVSPost2010Prop40
 90
        0
102
RTVSPost2010PropOp40
 70
     1
102
RTVSPost2010Prop41ColorIndex
 90
       18
102
RTVSPost2010Prop41ColorRGB
 90
        0
102
RTVSPost2010PropOp41
 70
     1
102
RTVSPost2010Prop42
 90
       50
102
RTVSPost2010PropOp42
 70
     1
102
RTVSPost2010Prop43
 90
        3
102
RTVSPost2010PropOp43
 70
     1
102
RTVSPost2010Prop44ColorIndex
 90
        5
102
RTVSPost2010Prop44ColorRGB
 90
      255
102
RTVSPost2010PropOp44
 70
     1
102
RTVSPost2010Prop45
280
     0
102
RTVSPost2010PropOp45
 70
     1
102
RTVSPost2010Prop46
 90
       50
102
RTVSPost2010PropOp46
 70
     1
102
RTVSPost2010Prop47
 90
       50
102
RTVSPost2010PropOp47
 70
     1
102
RTVSPost2010Prop48
 90
       50
102
RTVSPost2010PropOp48
 70
     1
102
RTVSPost2010Prop49
280
     0
102
RTVSPost2010PropOp49
 70
     1
102
RTVSPost2010Prop50
 90
       50
102
RTVSPost2010PropOp50
 70
     1
102
RTVSPost2010Prop51ColorIndex
 90
      256
102
RTVSPost2010Prop51ColorRGB
 90
-16777216
102
RTVSPost2010PropOp51
 70
     0
102
RTVSPost2010Prop52
140
1.0
102
RTVSPost2010PropOp52
 70
     0
102
RTVSPost2010Prop53
 90
        2
102
RTVSPost2010PropOp53
 70
     1
102
RTVSPost2010Prop54
  1
strokes_ogs.tif
102
RTVSPost2010PropOp54
 70
     1
102
RTVSPost2010Prop55
280
     0
102
RTVSPost2010PropOp55
 70
     1
102
RTVSPost2010Prop56
140
1.0
102
RTVSPost2010PropOp56
 70
     1
102
RTVSPost2010Prop57
140
1.0
102
RTVSPost2010PropOp57
 70
     1
  0
XRECORD
  5
4FA
102
{ACAD_REACTORS
330
4F9
102
}
330
4F9
100
AcDbXrecord
280
     1
102
RTVSPropertyOp0
 70
     1
102
RTVSPropertyOp1
 70
     1
102
RTVSPropertyOp2
 70
     1
102
RTVSPropertyOp3
 70
     1
102
RTVSPropertyOp4
 70
     1
102
RTVSPropertyOp5
 70
     1
102
RTVSPropertyOp6
 70
     1
102
RTVSPropertyOp7
 70
     1
102
RTVSPropertyOp8
 70
     1
102
RTVSPropertyOp9
 70
     1
102
RTVSPropertyOp10
 70
     1
102
RTVSPropertyOp11
 70
     1
102
RTVSPropertyOp12
 70
     1
102
RTVSPropertyOp13
 70
     1
102
RTVSPropertyOp14
 70
     1
102
RTVSPropertyOp15
 70
     1
102
RTVSPropertyOp16
 70
     1
102
RTVSPropertyOp17
 70
     1
102
RTVSPropertyOp18
 70
     1
102
RTVSPropertyOp19
 70
     1
102
RTVSPropertyOp20
 70
     1
102
RTVSPropertyOp21
 70
     1
102
RTVSPropertyOp22
 70
     1
102
RTVSPropertyOp23
 70
     1
102
RTVSPropertyOp24
 70
     1
102
RTVSPropertyOp25
 70
     1
102
RTVSPropertyOp26
 70
     1
102
RTVSPropertyOp27
 70
     1
102
RTVSPropertyOp28
 70
     1
102
RTVSPropertyOp29
 70
     1
102
RTVSPropertyOp30
 70
     1
102
RTVSPropertyOp31
 70
     1
102
RTVSPropertyOp32
 70
     1
102
RTVSPropertyOp33
 70
     1
102
RTVSPropertyOp34
 70
     1
102
RTVSPropertyOp35
 70
     1
102
RTVSPropertyOp36
 70
     1
102
RTVSPropertyOp37
 70
     1
102
RTVSPropertyOp38
 70
     1
102
RTVSPropertyOp39
 70
     1
102
RTVSPropertyOp40
 70
     1
102
RTVSPropertyOp41
 70
     1
102
RTVSPropertyOp42
 70
     1
102
RTVSPropertyOp43
 70
     1
102
RTVSPropertyOp44
 70
     1
102
RTVSPropertyOp45
 70
     1
102
RTVSPropertyOp46
 70
     1
102
RTVSPropertyOp47
 70
     1
102
RTVSPropertyOp48
 70
     1
102
RTVSPropertyOp49
 70
     1
102
RTVSPropertyOp50
 70
     1
102
RTVSPropertyOp51
 70
     0
102
RTVSPropertyOp52
 70
     0
102
RTVSPropertyOp53
 70
     1
102
RTVSPropertyOp54
 70
     1
102
RTVSPropertyOp55
 70
     1
102
RTVSPropertyOp56
 70
     1
102
RTVSPropertyOp57
 70
     1
102
RTVSPost2010Prop28
280
     0
102
RTVSPost2010PropOp28
 70
     1
102
RTVSPost2010Prop29
280
     1
102
RTVSPost2010PropOp29
 70
     1
102
RTVSPost2010Prop30
280
     1
102
RTVSPost2010PropOp30
 70
     1
102
RTVSPost2010Prop31
280
     0
102
RTVSPost2010PropOp31
 70
     1
102
RTVSPost2010Prop32
280
     0
102
RTVSPost2010PropOp32
 70
     1
102
RTVSPost2010Prop33
280
     0
102
RTVSPost2010PropOp33
 70
     1
102
RTVSPost2010Prop34
280
     0
102
RTVSPost2010PropOp34
 70
     1
102
RTVSPost2010Prop35
280
     0
102
RTVSPost2010PropOp35
 70
     1
102
RTVSPost2010Prop36
280
     0
102
RTVSPost2010PropOp36
 70
     1
102
RTVSPost2010Prop37
 90
       50
102
RTVSPost2010PropOp37
 70
     1
102
RTVSPost2010Prop38
140
0.0
102
RTVSPost2010PropOp38
 70
     1
102
RTVSPost2010Prop39
140
1.0
102
RTVSPost2010PropOp39
 70
     1
102
RTVSPost2010Prop40
 90
        0
102
RTVSPost2010PropOp40
 70
     1
102
RTVSPost2010Prop41ColorIndex
 90
       18
102
RTVSPost2010Prop41ColorRGB
 90
        0
102
RTVSPost2010PropOp41
 70
     1
102
RTVSPost2010Prop42
 90
       50
102
RTVSPost2010PropOp42
 70
     1
102
RTVSPost2010Prop43
 90
        3
102
RTVSPost2010PropOp43
 70
     1
102
RTVSPost2010Prop44ColorIndex
 90
        5
102
RTVSPost2010Prop44ColorRGB
 90
      255
102
RTVSPost2010PropOp44
 70
     1
102
RTVSPost2010Prop45
280
     0
102
RTVSPost2010PropOp45
 70
     1
102
RTVSPost2010Prop46
 90
       50
102
RTVSPost2010PropOp46
 70
     1
102
RTVSPost2010Prop47
 90
       50
102
RTVSPost2010PropOp47
 70
     1
102
RTVSPost2010Prop48
 90
       50
102
RTVSPost2010PropOp48
 70
     1
102
RTVSPost2010Prop49
280
     0
102
RTVSPost2010PropOp49
 70
     1
102
RTVSPost2010Prop50
 90
       50
102
RTVSPost2010PropOp50
 70
     1
102
RTVSPost2010Prop51ColorIndex
 90
      256
102
RTVSPost2010Prop51ColorRGB
 90
-16777216
102
RTVSPost2010PropOp51
 70
     0
102
RTVSPost2010Prop52
140
1.0
102
RTVSPost2010PropOp52
 70
     0
102
RTVSPost2010Prop53
 90
        2
102
RTVSPost2010PropOp53
 70
     1
102
RTVSPost2010Prop54
  1
strokes_ogs.tif
102
RTVSPost2010PropOp54
 70
     1
102
RTVSPost2010Prop55
280
     0
102
RTVSPost2010PropOp55
 70
     1
102
RTVSPost2010Prop56
140
1.0
102
RTVSPost2010PropOp56
 70
     1
102
RTVSPost2010Prop57
140
1.0
102
RTVSPost2010PropOp57
 70
     1
  0
XRECORD
  5
4FC
102
{ACAD_REACTORS
330
4FB
102
}
330
4FB
100
AcDbXrecord
280
     1
102
RTVSPropertyOp0
 70
     1
102
RTVSPropertyOp1
 70
     1
102
RTVSPropertyOp2
 70
     1
102
RTVSPropertyOp3
 70
     1
102
RTVSPropertyOp4
 70
     1
102
RTVSPropertyOp5
 70
     1
102
RTVSPropertyOp6
 70
     1
102
RTVSPropertyOp7
 70
     1
102
RTVSPropertyOp8
 70
     1
102
RTVSPropertyOp9
 70
     1
102
RTVSPropertyOp10
 70
     1
102
RTVSPropertyOp11
 70
     1
102
RTVSPropertyOp12
 70
     1
102
RTVSPropertyOp13
 70
     1
102
RTVSPropertyOp14
 70
     1
102
RTVSPropertyOp15
 70
     1
102
RTVSPropertyOp16
 70
     1
102
RTVSPropertyOp17
 70
     1
102
RTVSPropertyOp18
 70
     1
102
RTVSPropertyOp19
 70
     1
102
RTVSPropertyOp20
 70
     1
102
RTVSPropertyOp21
 70
     1
102
RTVSPropertyOp22
 70
     1
102
RTVSPropertyOp23
 70
     1
102
RTVSPropertyOp24
 70
     1
102
RTVSPropertyOp25
 70
     1
102
RTVSPropertyOp26
 70
     1
102
RTVSPropertyOp27
 70
     1
102
RTVSPropertyOp28
 70
     1
102
RTVSPropertyOp29
 70
     1
102
RTVSPropertyOp30
 70
     1
102
RTVSPropertyOp31
 70
     1
102
RTVSPropertyOp32
 70
     1
102
RTVSPropertyOp33
 70
     1
102
RTVSPropertyOp34
 70
     1
102
RTVSPropertyOp35
 70
     1
102
RTVSPropertyOp36
 70
     1
102
RTVSPropertyOp37
 70
     1
102
RTVSPropertyOp38
 70
     1
102
RTVSPropertyOp39
 70
     1
102
RTVSPropertyOp40
 70
     1
102
RTVSPropertyOp41
 70
     1
102
RTVSPropertyOp42
 70
     1
102
RTVSPropertyOp43
 70
     1
102
RTVSPropertyOp44
 70
     1
102
RTVSPropertyOp45
 70
     1
102
RTVSPropertyOp46
 70
     1
102
RTVSPropertyOp47
 70
     1
102
RTVSPropertyOp48
 70
     1
102
RTVSPropertyOp49
 70
     1
102
RTVSPropertyOp50
 70
     1
102
RTVSPropertyOp51
 70
     0
102
RTVSPropertyOp52
 70
     0
102
RTVSPropertyOp53
 70
     1
102
RTVSPropertyOp54
 70
     1
102
RTVSPropertyOp55
 70
     1
102
RTVSPropertyOp56
 70
     1
102
RTVSPropertyOp57
 70
     1
102
RTVSPost2010Prop28
280
     0
102
RTVSPost2010PropOp28
 70
     1
102
RTVSPost2010Prop29
280
     1
102
RTVSPost2010PropOp29
 70
     1
102
RTVSPost2010Prop30
280
     1
102
RTVSPost2010PropOp30
 70
     1
102
RTVSPost2010Prop31
280
     0
102
RTVSPost2010PropOp31
 70
     1
102
RTVSPost2010Prop32
280
     0
102
RTVSPost2010PropOp32
 70
     1
102
RTVSPost2010Prop33
280
     0
102
RTVSPost2010PropOp33
 70
     1
102
RTVSPost2010Prop34
280
     0
102
RTVSPost2010PropOp34
 70
     1
102
RTVSPost2010Prop35
280
     0
102
RTVSPost2010PropOp35
 70
     1
102
RTVSPost2010Prop36
280
     0
102
RTVSPost2010PropOp36
 70
     1
102
RTVSPost2010Prop37
 90
       50
102
RTVSPost2010PropOp37
 70
     1
102
RTVSPost2010Prop38
140
0.0
102
RTVSPost2010PropOp38
 70
     1
102
RTVSPost2010Prop39
140
1.0
102
RTVSPost2010PropOp39
 70
     1
102
RTVSPost2010Prop40
 90
        0
102
RTVSPost2010PropOp40
 70
     1
102
RTVSPost2010Prop41ColorIndex
 90
       18
102
RTVSPost2010Prop41ColorRGB
 90
        0
102
RTVSPost2010PropOp41
 70
     1
102
RTVSPost2010Prop42
 90
       50
102
RTVSPost2010PropOp42
 70
     1
102
RTVSPost2010Prop43
 90
        3
102
RTVSPost2010PropOp43
 70
     1
102
RTVSPost2010Prop44ColorIndex
 90
        5
102
RTVSPost2010Prop44ColorRGB
 90
      255
102
RTVSPost2010PropOp44
 70
     1
102
RTVSPost2010Prop45
280
     0
102
RTVSPost2010PropOp45
 70
     1
102
RTVSPost2010Prop46
 90
       50
102
RTVSPost2010PropOp46
 70
     1
102
RTVSPost2010Prop47
 90
       50
102
RTVSPost2010PropOp47
 70
     1
102
RTVSPost2010Prop48
 90
       50
102
RTVSPost2010PropOp48
 70
     1
102
RTVSPost2010Prop49
280
     0
102
RTVSPost2010PropOp49
 70
     1
102
RTVSPost2010Prop50
 90
       50
102
RTVSPost2010PropOp50
 70
     1
102
RTVSPost2010Prop51ColorIndex
 90
      256
102
RTVSPost2010Prop51ColorRGB
 90
-16777216
102
RTVSPost2010PropOp51
 70
     0
102
RTVSPost2010Prop52
140
1.0
102
RTVSPost2010PropOp52
 70
     0
102
RTVSPost2010Prop53
 90
        2
102
RTVSPost2010PropOp53
 70
     1
102
RTVSPost2010Prop54
  1
strokes_ogs.tif
102
RTVSPost2010PropOp54
 70
     1
102
RTVSPost2010Prop55
280
     0
102
RTVSPost2010PropOp55
 70
     1
102
RTVSPost2010Prop56
140
1.0
102
RTVSPost2010PropOp56
 70
     1
102
RTVSPost2010Prop57
140
1.0
102
RTVSPost2010PropOp57
 70
     1
  0
XRECORD
  5
50C
102
{ACAD_REACTORS
330
50B
102
}
330
50B
100
AcDbXrecord
280
     1
102
RTVSPropertyOp0
 70
     0
102
RTVSPropertyOp1
 70
     0
102
RTVSPropertyOp2
 70
     0
102
RTVSPropertyOp3
 70
     0
102
RTVSPropertyOp4
 70
     0
102
RTVSPropertyOp5
 70
     0
102
RTVSPropertyOp6
 70
     0
102
RTVSPropertyOp7
 70
     0
102
RTVSPropertyOp8
 70
     0
102
RTVSPropertyOp9
 70
     0
102
RTVSPropertyOp10
 70
     0
102
RTVSPropertyOp11
 70
     0
102
RTVSPropertyOp12
 70
     0
102
RTVSPropertyOp13
 70
     0
102
RTVSPropertyOp14
 70
     2
102
RTVSPropertyOp15
 70
     0
102
RTVSPropertyOp16
 70
     0
102
RTVSPropertyOp17
 70
     0
102
RTVSPropertyOp18
 70
     0
102
RTVSPropertyOp19
 70
     0
102
RTVSPropertyOp20
 70
     0
102
RTVSPropertyOp21
 70
     0
102
RTVSPropertyOp22
 70
     0
102
RTVSPropertyOp23
 70
     0
102
RTVSPropertyOp24
 70
     0
102
RTVSPropertyOp25
 70
     0
102
RTVSPropertyOp26
 70
     0
102
RTVSPropertyOp27
 70
     0
102
RTVSPropertyOp28
 70
     0
102
RTVSPropertyOp29
 70
     0
102
RTVSPropertyOp30
 70
     0
102
RTVSPropertyOp31
 70
     0
102
RTVSPropertyOp32
 70
     0
102
RTVSPropertyOp33
 70
     0
102
RTVSPropertyOp34
 70
     0
102
RTVSPropertyOp35
 70
     0
102
RTVSPropertyOp36
 70
     0
102
RTVSPropertyOp37
 70
     0
102
RTVSPropertyOp38
 70
     0
102
RTVSPropertyOp39
 70
     0
102
RTVSPropertyOp40
 70
     0
102
RTVSPropertyOp41
 70
     0
102
RTVSPropertyOp42
 70
     0
102
RTVSPropertyOp43
 70
     0
102
RTVSPropertyOp44
 70
     0
102
RTVSPropertyOp45
 70
     0
102
RTVSPropertyOp46
 70
     0
102
RTVSPropertyOp47
 70
     0
102
RTVSPropertyOp48
 70
     0
102
RTVSPropertyOp49
 70
     0
102
RTVSPropertyOp50
 70
     0
102
RTVSPropertyOp51
 70
     0
102
RTVSPropertyOp52
 70
     0
102
RTVSPropertyOp53
 70
     0
102
RTVSPropertyOp54
 70
     0
102
RTVSPropertyOp55
 70
     0
102
RTVSPropertyOp56
 70
     0
102
RTVSPropertyOp57
 70
     0
102
RTVSPost2010Prop28
280
     0
102
RTVSPost2010PropOp28
 70
     0
102
RTVSPost2010Prop29
280
     1
102
RTVSPost2010PropOp29
 70
     0
102
RTVSPost2010Prop30
280
     1
102
RTVSPost2010PropOp30
 70
     0
102
RTVSPost2010Prop31
280
     0
102
RTVSPost2010PropOp31
 70
     0
102
RTVSPost2010Prop32
280
     0
102
RTVSPost2010PropOp32
 70
     0
102
RTVSPost2010Prop33
280
     0
102
RTVSPost2010PropOp33
 70
     0
102
RTVSPost2010Prop34
280
     0
102
RTVSPost2010PropOp34
 70
     0
102
RTVSPost2010Prop35
280
     0
102
RTVSPost2010PropOp35
 70
     0
102
RTVSPost2010Prop36
280
     0
102
RTVSPost2010PropOp36
 70
     0
102
RTVSPost2010Prop37
 90
       50
102
RTVSPost2010PropOp37
 70
     0
102
RTVSPost2010Prop38
140
0.0
102
RTVSPost2010PropOp38
 70
     0
102
RTVSPost2010Prop39
140
1.0
102
RTVSPost2010PropOp39
 70
     0
102
RTVSPost2010Prop40
 90
        0
102
RTVSPost2010PropOp40
 70
     0
102
RTVSPost2010Prop41ColorIndex
 90
       18
102
RTVSPost2010Prop41ColorRGB
 90
        0
102
RTVSPost2010PropOp41
 70
     0
102
RTVSPost2010Prop42
 90
       50
102
RTVSPost2010PropOp42
 70
     0
102
RTVSPost2010Prop43
 90
        3
102
RTVSPost2010PropOp43
 70
     0
102
RTVSPost2010Prop44ColorIndex
 90
        5
102
RTVSPost2010Prop44ColorRGB
 90
      255
102
RTVSPost2010PropOp44
 70
     0
102
RTVSPost2010Prop45
280
     0
102
RTVSPost2010PropOp45
 70
     0
102
RTVSPost2010Prop46
 90
       50
102
RTVSPost2010PropOp46
 70
     0
102
RTVSPost2010Prop47
 90
       50
102
RTVSPost2010PropOp47
 70
     0
102
RTVSPost2010Prop48
 90
       50
102
RTVSPost2010PropOp48
 70
     0
102
RTVSPost2010Prop49
280
     0
102
RTVSPost2010PropOp49
 70
     0
102
RTVSPost2010Prop50
 90
       50
102
RTVSPost2010PropOp50
 70
     0
102
RTVSPost2010Prop51ColorIndex
 90
      256
102
RTVSPost2010Prop51ColorRGB
 90
-16777216
102
RTVSPost2010PropOp51
 70
     0
102
RTVSPost2010Prop52
140
1.0
102
RTVSPost2010PropOp52
 70
     0
102
RTVSPost2010Prop53
 90
        2
102
RTVSPost2010PropOp53
 70
     0
102
RTVSPost2010Prop54
  1
strokes_ogs.tif
102
RTVSPost2010PropOp54
 70
     0
102
RTVSPost2010Prop55
280
     0
102
RTVSPost2010PropOp55
 70
     0
102
RTVSPost2010Prop56
140
1.0
102
RTVSPost2010PropOp56
 70
     0
102
RTVSPost2010Prop57
140
1.0
102
RTVSPost2010PropOp57
 70
     0
  0
XRECORD
  5
504
102
{ACAD_REACTORS
330
503
102
}
330
503
100
AcDbXrecord
280
     1
102
RTVSPropertyOp0
 70
     1
102
RTVSPropertyOp1
 70
     1
102
RTVSPropertyOp2
 70
     1
102
RTVSPropertyOp3
 70
     1
102
RTVSPropertyOp4
 70
     1
102
RTVSPropertyOp5
 70
     1
102
RTVSPropertyOp6
 70
     1
102
RTVSPropertyOp7
 70
     1
102
RTVSPropertyOp8
 70
     1
102
RTVSPropertyOp9
 70
     1
102
RTVSPropertyOp10
 70
     1
102
RTVSPropertyOp11
 70
     1
102
RTVSPropertyOp12
 70
     1
102
RTVSPropertyOp13
 70
     1
102
RTVSPropertyOp14
 70
     1
102
RTVSPropertyOp15
 70
     1
102
RTVSPropertyOp16
 70
     1
102
RTVSPropertyOp17
 70
     1
102
RTVSPropertyOp18
 70
     1
102
RTVSPropertyOp19
 70
     1
102
RTVSPropertyOp20
 70
     1
102
RTVSPropertyOp21
 70
     1
102
RTVSPropertyOp22
 70
     1
102
RTVSPropertyOp23
 70
     1
102
RTVSPropertyOp24
 70
     1
102
RTVSPropertyOp25
 70
     1
102
RTVSPropertyOp26
 70
     1
102
RTVSPropertyOp27
 70
     1
102
RTVSPropertyOp28
 70
     1
102
RTVSPropertyOp29
 70
     1
102
RTVSPropertyOp30
 70
     1
102
RTVSPropertyOp31
 70
     1
102
RTVSPropertyOp32
 70
     1
102
RTVSPropertyOp33
 70
     1
102
RTVSPropertyOp34
 70
     1
102
RTVSPropertyOp35
 70
     1
102
RTVSPropertyOp36
 70
     1
102
RTVSPropertyOp37
 70
     1
102
RTVSPropertyOp38
 70
     1
102
RTVSPropertyOp39
 70
     1
102
RTVSPropertyOp40
 70
     1
102
RTVSPropertyOp41
 70
     1
102
RTVSPropertyOp42
 70
     1
102
RTVSPropertyOp43
 70
     1
102
RTVSPropertyOp44
 70
     1
102
RTVSPropertyOp45
 70
     1
102
RTVSPropertyOp46
 70
     1
102
RTVSPropertyOp47
 70
     1
102
RTVSPropertyOp48
 70
     1
102
RTVSPropertyOp49
 70
     1
102
RTVSPropertyOp50
 70
     1
102
RTVSPropertyOp51
 70
     0
102
RTVSPropertyOp52
 70
     0
102
RTVSPropertyOp53
 70
     1
102
RTVSPropertyOp54
 70
     1
102
RTVSPropertyOp55
 70
     1
102
RTVSPropertyOp56
 70
     1
102
RTVSPropertyOp57
 70
     1
102
RTVSPost2010Prop28
280
     0
102
RTVSPost2010PropOp28
 70
     1
102
RTVSPost2010Prop29
280
     1
102
RTVSPost2010PropOp29
 70
     1
102
RTVSPost2010Prop30
280
     1
102
RTVSPost2010PropOp30
 70
     1
102
RTVSPost2010Prop31
280
     0
102
RTVSPost2010PropOp31
 70
     1
102
RTVSPost2010Prop32
280
     0
102
RTVSPost2010PropOp32
 70
     1
102
RTVSPost2010Prop33
280
     0
102
RTVSPost2010PropOp33
 70
     1
102
RTVSPost2010Prop34
280
     0
102
RTVSPost2010PropOp34
 70
     1
102
RTVSPost2010Prop35
280
     0
102
RTVSPost2010PropOp35
 70
     1
102
RTVSPost2010Prop36
280
     0
102
RTVSPost2010PropOp36
 70
     1
102
RTVSPost2010Prop37
 90
       50
102
RTVSPost2010PropOp37
 70
     1
102
RTVSPost2010Prop38
140
0.0
102
RTVSPost2010PropOp38
 70
     1
102
RTVSPost2010Prop39
140
1.0
102
RTVSPost2010PropOp39
 70
     1
102
RTVSPost2010Prop40
 90
        0
102
RTVSPost2010PropOp40
 70
     1
102
RTVSPost2010Prop41ColorIndex
 90
       18
102
RTVSPost2010Prop41ColorRGB
 90
        0
102
RTVSPost2010PropOp41
 70
     1
102
RTVSPost2010Prop42
 90
       50
102
RTVSPost2010PropOp42
 70
     1
102
RTVSPost2010Prop43
 90
        3
102
RTVSPost2010PropOp43
 70
     1
102
RTVSPost2010Prop44ColorIndex
 90
        5
102
RTVSPost2010Prop44ColorRGB
 90
      255
102
RTVSPost2010PropOp44
 70
     1
102
RTVSPost2010Prop45
280
     0
102
RTVSPost2010PropOp45
 70
     1
102
RTVSPost2010Prop46
 90
       50
102
RTVSPost2010PropOp46
 70
     1
102
RTVSPost2010Prop47
 90
       50
102
RTVSPost2010PropOp47
 70
     1
102
RTVSPost2010Prop48
 90
       50
102
RTVSPost2010PropOp48
 70
     1
102
RTVSPost2010Prop49
280
     0
102
RTVSPost2010PropOp49
 70
     1
102
RTVSPost2010Prop50
 90
       50
102
RTVSPost2010PropOp50
 70
     1
102
RTVSPost2010Prop51ColorIndex
 90
      256
102
RTVSPost2010Prop51ColorRGB
 90
-16777216
102
RTVSPost2010PropOp51
 70
     0
102
RTVSPost2010Prop52
140
1.0
102
RTVSPost2010PropOp52
 70
     0
102
RTVSPost2010Prop53
 90
        2
102
RTVSPost2010PropOp53
 70
     1
102
RTVSPost2010Prop54
  1
strokes_ogs.tif
102
RTVSPost2010PropOp54
 70
     1
102
RTVSPost2010Prop55
280
     0
102
RTVSPost2010PropOp55
 70
     1
102
RTVSPost2010Prop56
140
1.0
102
RTVSPost2010PropOp56
 70
     1
102
RTVSPost2010Prop57
140
1.0
102
RTVSPost2010PropOp57
 70
     1
  0
XRECORD
  5
4E8
102
{ACAD_REACTORS
330
4E7
102
}
330
4E7
100
AcDbXrecord
280
     1
102
RTVSPropertyOp0
 70
     1
102
RTVSPropertyOp1
 70
     1
102
RTVSPropertyOp2
 70
     1
102
RTVSPropertyOp3
 70
     1
102
RTVSPropertyOp4
 70
     1
102
RTVSPropertyOp5
 70
     1
102
RTVSPropertyOp6
 70
     1
102
RTVSPropertyOp7
 70
     1
102
RTVSPropertyOp8
 70
     1
102
RTVSPropertyOp9
 70
     1
102
RTVSPropertyOp10
 70
     1
102
RTVSPropertyOp11
 70
     1
102
RTVSPropertyOp12
 70
     1
102
RTVSPropertyOp13
 70
     1
102
RTVSPropertyOp14
 70
     1
102
RTVSPropertyOp15
 70
     1
102
RTVSPropertyOp16
 70
     1
102
RTVSPropertyOp17
 70
     1
102
RTVSPropertyOp18
 70
     1
102
RTVSPropertyOp19
 70
     1
102
RTVSPropertyOp20
 70
     1
102
RTVSPropertyOp21
 70
     1
102
RTVSPropertyOp22
 70
     1
102
RTVSPropertyOp23
 70
     1
102
RTVSPropertyOp24
 70
     1
102
RTVSPropertyOp25
 70
     1
102
RTVSPropertyOp26
 70
     1
102
RTVSPropertyOp27
 70
     1
102
RTVSPropertyOp28
 70
     1
102
RTVSPropertyOp29
 70
     1
102
RTVSPropertyOp30
 70
     1
102
RTVSPropertyOp31
 70
     1
102
RTVSPropertyOp32
 70
     1
102
RTVSPropertyOp33
 70
     1
102
RTVSPropertyOp34
 70
     1
102
RTVSPropertyOp35
 70
     1
102
RTVSPropertyOp36
 70
     1
102
RTVSPropertyOp37
 70
     1
102
RTVSPropertyOp38
 70
     1
102
RTVSPropertyOp39
 70
     1
102
RTVSPropertyOp40
 70
     1
102
RTVSPropertyOp41
 70
     1
102
RTVSPropertyOp42
 70
     1
102
RTVSPropertyOp43
 70
     1
102
RTVSPropertyOp44
 70
     1
102
RTVSPropertyOp45
 70
     1
102
RTVSPropertyOp46
 70
     1
102
RTVSPropertyOp47
 70
     1
102
RTVSPropertyOp48
 70
     1
102
RTVSPropertyOp49
 70
     1
102
RTVSPropertyOp50
 70
     1
102
RTVSPropertyOp51
 70
     0
102
RTVSPropertyOp52
 70
     0
102
RTVSPropertyOp53
 70
     1
102
RTVSPropertyOp54
 70
     1
102
RTVSPropertyOp55
 70
     1
102
RTVSPropertyOp56
 70
     1
102
RTVSPropertyOp57
 70
     1
102
RTVSPost2010Prop28
280
     0
102
RTVSPost2010PropOp28
 70
     1
102
RTVSPost2010Prop29
280
     1
102
RTVSPost2010PropOp29
 70
     1
102
RTVSPost2010Prop30
280
     1
102
RTVSPost2010PropOp30
 70
     1
102
RTVSPost2010Prop31
280
     0
102
RTVSPost2010PropOp31
 70
     1
102
RTVSPost2010Prop32
280
     0
102
RTVSPost2010PropOp32
 70
     1
102
RTVSPost2010Prop33
280
     0
102
RTVSPost2010PropOp33
 70
     1
102
RTVSPost2010Prop34
280
     0
102
RTVSPost2010PropOp34
 70
     1
102
RTVSPost2010Prop35
280
     0
102
RTVSPost2010PropOp35
 70
     1
102
RTVSPost2010Prop36
280
     0
102
RTVSPost2010PropOp36
 70
     1
102
RTVSPost2010Prop37
 90
       50
102
RTVSPost2010PropOp37
 70
     1
102
RTVSPost2010Prop38
140
0.0
102
RTVSPost2010PropOp38
 70
     1
102
RTVSPost2010Prop39
140
1.0
102
RTVSPost2010PropOp39
 70
     1
102
RTVSPost2010Prop40
 90
        0
102
RTVSPost2010PropOp40
 70
     1
102
RTVSPost2010Prop41ColorIndex
 90
       18
102
RTVSPost2010Prop41ColorRGB
 90
        0
102
RTVSPost2010PropOp41
 70
     1
102
RTVSPost2010Prop42
 90
       50
102
RTVSPost2010PropOp42
 70
     1
102
RTVSPost2010Prop43
 90
        3
102
RTVSPost2010PropOp43
 70
     1
102
RTVSPost2010Prop44ColorIndex
 90
        5
102
RTVSPost2010Prop44ColorRGB
 90
      255
102
RTVSPost2010PropOp44
 70
     1
102
RTVSPost2010Prop45
280
     0
102
RTVSPost2010PropOp45
 70
     1
102
RTVSPost2010Prop46
 90
       50
102
RTVSPost2010PropOp46
 70
     1
102
RTVSPost2010Prop47
 90
       50
102
RTVSPost2010PropOp47
 70
     1
102
RTVSPost2010Prop48
 90
       50
102
RTVSPost2010PropOp48
 70
     1
102
RTVSPost2010Prop49
280
     0
102
RTVSPost2010PropOp49
 70
     1
102
RTVSPost2010Prop50
 90
       50
102
RTVSPost2010PropOp50
 70
     1
102
RTVSPost2010Prop51ColorIndex
 90
      256
102
RTVSPost2010Prop51ColorRGB
 90
-16777216
102
RTVSPost2010PropOp51
 70
     0
102
RTVSPost2010Prop52
140
1.0
102
RTVSPost2010PropOp52
 70
     0
102
RTVSPost2010Prop53
 90
        2
102
RTVSPost2010PropOp53
 70
     1
102
RTVSPost2010Prop54
  1
strokes_ogs.tif
102
RTVSPost2010PropOp54
 70
     1
102
RTVSPost2010Prop55
280
     0
102
RTVSPost2010PropOp55
 70
     1
102
RTVSPost2010Prop56
140
1.0
102
RTVSPost2010PropOp56
 70
     1
102
RTVSPost2010Prop57
140
1.0
102
RTVSPost2010PropOp57
 70
     1
  0
XRECORD
  5
4EA
102
{ACAD_REACTORS
330
4E9
102
}
330
4E9
100
AcDbXrecord
280
     1
102
RTVSPropertyOp0
 70
     1
102
RTVSPropertyOp1
 70
     1
102
RTVSPropertyOp2
 70
     1
102
RTVSPropertyOp3
 70
     1
102
RTVSPropertyOp4
 70
     1
102
RTVSPropertyOp5
 70
     1
102
RTVSPropertyOp6
 70
     1
102
RTVSPropertyOp7
 70
     1
102
RTVSPropertyOp8
 70
     1
102
RTVSPropertyOp9
 70
     1
102
RTVSPropertyOp10
 70
     1
102
RTVSPropertyOp11
 70
     1
102
RTVSPropertyOp12
 70
     1
102
RTVSPropertyOp13
 70
     1
102
RTVSPropertyOp14
 70
     1
102
RTVSPropertyOp15
 70
     1
102
RTVSPropertyOp16
 70
     1
102
RTVSPropertyOp17
 70
     1
102
RTVSPropertyOp18
 70
     1
102
RTVSPropertyOp19
 70
     1
102
RTVSPropertyOp20
 70
     1
102
RTVSPropertyOp21
 70
     1
102
RTVSPropertyOp22
 70
     1
102
RTVSPropertyOp23
 70
     1
102
RTVSPropertyOp24
 70
     1
102
RTVSPropertyOp25
 70
     1
102
RTVSPropertyOp26
 70
     1
102
RTVSPropertyOp27
 70
     1
102
RTVSPropertyOp28
 70
     1
102
RTVSPropertyOp29
 70
     1
102
RTVSPropertyOp30
 70
     1
102
RTVSPropertyOp31
 70
     1
102
RTVSPropertyOp32
 70
     1
102
RTVSPropertyOp33
 70
     1
102
RTVSPropertyOp34
 70
     1
102
RTVSPropertyOp35
 70
     1
102
RTVSPropertyOp36
 70
     1
102
RTVSPropertyOp37
 70
     1
102
RTVSPropertyOp38
 70
     1
102
RTVSPropertyOp39
 70
     1
102
RTVSPropertyOp40
 70
     1
102
RTVSPropertyOp41
 70
     1
102
RTVSPropertyOp42
 70
     1
102
RTVSPropertyOp43
 70
     1
102
RTVSPropertyOp44
 70
     1
102
RTVSPropertyOp45
 70
     1
102
RTVSPropertyOp46
 70
     1
102
RTVSPropertyOp47
 70
     1
102
RTVSPropertyOp48
 70
     1
102
RTVSPropertyOp49
 70
     1
102
RTVSPropertyOp50
 70
     1
102
RTVSPropertyOp51
 70
     0
102
RTVSPropertyOp52
 70
     0
102
RTVSPropertyOp53
 70
     1
102
RTVSPropertyOp54
 70
     1
102
RTVSPropertyOp55
 70
     1
102
RTVSPropertyOp56
 70
     1
102
RTVSPropertyOp57
 70
     1
102
RTVSPost2010Prop28
280
     0
102
RTVSPost2010PropOp28
 70
     1
102
RTVSPost2010Prop29
280
     1
102
RTVSPost2010PropOp29
 70
     1
102
RTVSPost2010Prop30
280
     1
102
RTVSPost2010PropOp30
 70
     1
102
RTVSPost2010Prop31
280
     0
102
RTVSPost2010PropOp31
 70
     1
102
RTVSPost2010Prop32
280
     0
102
RTVSPost2010PropOp32
 70
     1
102
RTVSPost2010Prop33
280
     0
102
RTVSPost2010PropOp33
 70
     1
102
RTVSPost2010Prop34
280
     0
102
RTVSPost2010PropOp34
 70
     1
102
RTVSPost2010Prop35
280
     0
102
RTVSPost2010PropOp35
 70
     1
102
RTVSPost2010Prop36
280
     0
102
RTVSPost2010PropOp36
 70
     1
102
RTVSPost2010Prop37
 90
       50
102
RTVSPost2010PropOp37
 70
     1
102
RTVSPost2010Prop38
140
0.0
102
RTVSPost2010PropOp38
 70
     1
102
RTVSPost2010Prop39
140
1.0
102
RTVSPost2010PropOp39
 70
     1
102
RTVSPost2010Prop40
 90
        0
102
RTVSPost2010PropOp40
 70
     1
102
RTVSPost2010Prop41ColorIndex
 90
       18
102
RTVSPost2010Prop41ColorRGB
 90
        0
102
RTVSPost2010PropOp41
 70
     1
102
RTVSPost2010Prop42
 90
       50
102
RTVSPost2010PropOp42
 70
     1
102
RTVSPost2010Prop43
 90
        3
102
RTVSPost2010PropOp43
 70
     1
102
RTVSPost2010Prop44ColorIndex
 90
        5
102
RTVSPost2010Prop44ColorRGB
 90
      255
102
RTVSPost2010PropOp44
 70
     1
102
RTVSPost2010Prop45
280
     0
102
RTVSPost2010PropOp45
 70
     1
102
RTVSPost2010Prop46
 90
       50
102
RTVSPost2010PropOp46
 70
     1
102
RTVSPost2010Prop47
 90
       50
102
RTVSPost2010PropOp47
 70
     1
102
RTVSPost2010Prop48
 90
       50
102
RTVSPost2010PropOp48
 70
     1
102
RTVSPost2010Prop49
280
     0
102
RTVSPost2010PropOp49
 70
     1
102
RTVSPost2010Prop50
 90
       50
102
RTVSPost2010PropOp50
 70
     1
102
RTVSPost2010Prop51ColorIndex
 90
      256
102
RTVSPost2010Prop51ColorRGB
 90
-16777216
102
RTVSPost2010PropOp51
 70
     0
102
RTVSPost2010Prop52
140
1.0
102
RTVSPost2010PropOp52
 70
     0
102
RTVSPost2010Prop53
 90
        2
102
RTVSPost2010PropOp53
 70
     1
102
RTVSPost2010Prop54
  1
strokes_ogs.tif
102
RTVSPost2010PropOp54
 70
     1
102
RTVSPost2010Prop55
280
     0
102
RTVSPost2010PropOp55
 70
     1
102
RTVSPost2010Prop56
140
1.0
102
RTVSPost2010PropOp56
 70
     1
102
RTVSPost2010Prop57
140
1.0
102
RTVSPost2010PropOp57
 70
     1
  0
XRECORD
  5
4EC
102
{ACAD_REACTORS
330
4EB
102
}
330
4EB
100
AcDbXrecord
280
     1
102
RTVSPropertyOp0
 70
     1
102
RTVSPropertyOp1
 70
     1
102
RTVSPropertyOp2
 70
     1
102
RTVSPropertyOp3
 70
     1
102
RTVSPropertyOp4
 70
     1
102
RTVSPropertyOp5
 70
     1
102
RTVSPropertyOp6
 70
     1
102
RTVSPropertyOp7
 70
     1
102
RTVSPropertyOp8
 70
     1
102
RTVSPropertyOp9
 70
     1
102
RTVSPropertyOp10
 70
     1
102
RTVSPropertyOp11
 70
     1
102
RTVSPropertyOp12
 70
     1
102
RTVSPropertyOp13
 70
     1
102
RTVSPropertyOp14
 70
     1
102
RTVSPropertyOp15
 70
     1
102
RTVSPropertyOp16
 70
     1
102
RTVSPropertyOp17
 70
     1
102
RTVSPropertyOp18
 70
     1
102
RTVSPropertyOp19
 70
     1
102
RTVSPropertyOp20
 70
     1
102
RTVSPropertyOp21
 70
     1
102
RTVSPropertyOp22
 70
     1
102
RTVSPropertyOp23
 70
     1
102
RTVSPropertyOp24
 70
     1
102
RTVSPropertyOp25
 70
     1
102
RTVSPropertyOp26
 70
     1
102
RTVSPropertyOp27
 70
     1
102
RTVSPropertyOp28
 70
     1
102
RTVSPropertyOp29
 70
     1
102
RTVSPropertyOp30
 70
     1
102
RTVSPropertyOp31
 70
     1
102
RTVSPropertyOp32
 70
     1
102
RTVSPropertyOp33
 70
     1
102
RTVSPropertyOp34
 70
     1
102
RTVSPropertyOp35
 70
     1
102
RTVSPropertyOp36
 70
     1
102
RTVSPropertyOp37
 70
     1
102
RTVSPropertyOp38
 70
     1
102
RTVSPropertyOp39
 70
     1
102
RTVSPropertyOp40
 70
     1
102
RTVSPropertyOp41
 70
     1
102
RTVSPropertyOp42
 70
     1
102
RTVSPropertyOp43
 70
     1
102
RTVSPropertyOp44
 70
     1
102
RTVSPropertyOp45
 70
     1
102
RTVSPropertyOp46
 70
     1
102
RTVSPropertyOp47
 70
     1
102
RTVSPropertyOp48
 70
     1
102
RTVSPropertyOp49
 70
     1
102
RTVSPropertyOp50
 70
     1
102
RTVSPropertyOp51
 70
     0
102
RTVSPropertyOp52
 70
     0
102
RTVSPropertyOp53
 70
     1
102
RTVSPropertyOp54
 70
     1
102
RTVSPropertyOp55
 70
     1
102
RTVSPropertyOp56
 70
     1
102
RTVSPropertyOp57
 70
     1
102
RTVSPost2010Prop28
280
     0
102
RTVSPost2010PropOp28
 70
     1
102
RTVSPost2010Prop29
280
     1
102
RTVSPost2010PropOp29
 70
     1
102
RTVSPost2010Prop30
280
     1
102
RTVSPost2010PropOp30
 70
     1
102
RTVSPost2010Prop31
280
     0
102
RTVSPost2010PropOp31
 70
     1
102
RTVSPost2010Prop32
280
     0
102
RTVSPost2010PropOp32
 70
     1
102
RTVSPost2010Prop33
280
     0
102
RTVSPost2010PropOp33
 70
     1
102
RTVSPost2010Prop34
280
     0
102
RTVSPost2010PropOp34
 70
     1
102
RTVSPost2010Prop35
280
     0
102
RTVSPost2010PropOp35
 70
     1
102
RTVSPost2010Prop36
280
     0
102
RTVSPost2010PropOp36
 70
     1
102
RTVSPost2010Prop37
 90
       50
102
RTVSPost2010PropOp37
 70
     1
102
RTVSPost2010Prop38
140
0.0
102
RTVSPost2010PropOp38
 70
     1
102
RTVSPost2010Prop39
140
1.0
102
RTVSPost2010PropOp39
 70
     1
102
RTVSPost2010Prop40
 90
        0
102
RTVSPost2010PropOp40
 70
     1
102
RTVSPost2010Prop41ColorIndex
 90
       18
102
RTVSPost2010Prop41ColorRGB
 90
        0
102
RTVSPost2010PropOp41
 70
     1
102
RTVSPost2010Prop42
 90
       50
102
RTVSPost2010PropOp42
 70
     1
102
RTVSPost2010Prop43
 90
        3
102
RTVSPost2010PropOp43
 70
     1
102
RTVSPost2010Prop44ColorIndex
 90
        5
102
RTVSPost2010Prop44ColorRGB
 90
      255
102
RTVSPost2010PropOp44
 70
     1
102
RTVSPost2010Prop45
280
     0
102
RTVSPost2010PropOp45
 70
     1
102
RTVSPost2010Prop46
 90
       50
102
RTVSPost2010PropOp46
 70
     1
102
RTVSPost2010Prop47
 90
       50
102
RTVSPost2010PropOp47
 70
     1
102
RTVSPost2010Prop48
 90
       50
102
RTVSPost2010PropOp48
 70
     1
102
RTVSPost2010Prop49
280
     0
102
RTVSPost2010PropOp49
 70
     1
102
RTVSPost2010Prop50
 90
       50
102
RTVSPost2010PropOp50
 70
     1
102
RTVSPost2010Prop51ColorIndex
 90
      256
102
RTVSPost2010Prop51ColorRGB
 90
-16777216
102
RTVSPost2010PropOp51
 70
     0
102
RTVSPost2010Prop52
140
1.0
102
RTVSPost2010PropOp52
 70
     0
102
RTVSPost2010Prop53
 90
        2
102
RTVSPost2010PropOp53
 70
     1
102
RTVSPost2010Prop54
  1
strokes_ogs.tif
102
RTVSPost2010PropOp54
 70
     1
102
RTVSPost2010Prop55
280
     0
102
RTVSPost2010PropOp55
 70
     1
102
RTVSPost2010Prop56
140
1.0
102
RTVSPost2010PropOp56
 70
     1
102
RTVSPost2010Prop57
140
1.0
102
RTVSPost2010PropOp57
 70
     1
  0
XRECORD
  5
4EE
102
{ACAD_REACTORS
330
4ED
102
}
330
4ED
100
AcDbXrecord
280
     1
102
RTVSPropertyOp0
 70
     1
102
RTVSPropertyOp1
 70
     1
102
RTVSPropertyOp2
 70
     1
102
RTVSPropertyOp3
 70
     1
102
RTVSPropertyOp4
 70
     1
102
RTVSPropertyOp5
 70
     1
102
RTVSPropertyOp6
 70
     1
102
RTVSPropertyOp7
 70
     1
102
RTVSPropertyOp8
 70
     1
102
RTVSPropertyOp9
 70
     1
102
RTVSPropertyOp10
 70
     1
102
RTVSPropertyOp11
 70
     1
102
RTVSPropertyOp12
 70
     1
102
RTVSPropertyOp13
 70
     1
102
RTVSPropertyOp14
 70
     1
102
RTVSPropertyOp15
 70
     1
102
RTVSPropertyOp16
 70
     1
102
RTVSPropertyOp17
 70
     1
102
RTVSPropertyOp18
 70
     1
102
RTVSPropertyOp19
 70
     1
102
RTVSPropertyOp20
 70
     1
102
RTVSPropertyOp21
 70
     1
102
RTVSPropertyOp22
 70
     1
102
RTVSPropertyOp23
 70
     1
102
RTVSPropertyOp24
 70
     1
102
RTVSPropertyOp25
 70
     1
102
RTVSPropertyOp26
 70
     1
102
RTVSPropertyOp27
 70
     1
102
RTVSPropertyOp28
 70
     1
102
RTVSPropertyOp29
 70
     1
102
RTVSPropertyOp30
 70
     1
102
RTVSPropertyOp31
 70
     1
102
RTVSPropertyOp32
 70
     1
102
RTVSPropertyOp33
 70
     1
102
RTVSPropertyOp34
 70
     1
102
RTVSPropertyOp35
 70
     1
102
RTVSPropertyOp36
 70
     1
102
RTVSPropertyOp37
 70
     1
102
RTVSPropertyOp38
 70
     1
102
RTVSPropertyOp39
 70
     1
102
RTVSPropertyOp40
 70
     1
102
RTVSPropertyOp41
 70
     1
102
RTVSPropertyOp42
 70
     1
102
RTVSPropertyOp43
 70
     1
102
RTVSPropertyOp44
 70
     1
102
RTVSPropertyOp45
 70
     1
102
RTVSPropertyOp46
 70
     1
102
RTVSPropertyOp47
 70
     1
102
RTVSPropertyOp48
 70
     1
102
RTVSPropertyOp49
 70
     1
102
RTVSPropertyOp50
 70
     1
102
RTVSPropertyOp51
 70
     0
102
RTVSPropertyOp52
 70
     0
102
RTVSPropertyOp53
 70
     1
102
RTVSPropertyOp54
 70
     1
102
RTVSPropertyOp55
 70
     1
102
RTVSPropertyOp56
 70
     1
102
RTVSPropertyOp57
 70
     1
102
RTVSPost2010Prop28
280
     0
102
RTVSPost2010PropOp28
 70
     1
102
RTVSPost2010Prop29
280
     1
102
RTVSPost2010PropOp29
 70
     1
102
RTVSPost2010Prop30
280
     1
102
RTVSPost2010PropOp30
 70
     1
102
RTVSPost2010Prop31
280
     0
102
RTVSPost2010PropOp31
 70
     1
102
RTVSPost2010Prop32
280
     0
102
RTVSPost2010PropOp32
 70
     1
102
RTVSPost2010Prop33
280
     0
102
RTVSPost2010PropOp33
 70
     1
102
RTVSPost2010Prop34
280
     0
102
RTVSPost2010PropOp34
 70
     1
102
RTVSPost2010Prop35
280
     0
102
RTVSPost2010PropOp35
 70
     1
102
RTVSPost2010Prop36
280
     0
102
RTVSPost2010PropOp36
 70
     1
102
RTVSPost2010Prop37
 90
       50
102
RTVSPost2010PropOp37
 70
     1
102
RTVSPost2010Prop38
140
0.0
102
RTVSPost2010PropOp38
 70
     1
102
RTVSPost2010Prop39
140
1.0
102
RTVSPost2010PropOp39
 70
     1
102
RTVSPost2010Prop40
 90
        0
102
RTVSPost2010PropOp40
 70
     1
102
RTVSPost2010Prop41ColorIndex
 90
       18
102
RTVSPost2010Prop41ColorRGB
 90
        0
102
RTVSPost2010PropOp41
 70
     1
102
RTVSPost2010Prop42
 90
       50
102
RTVSPost2010PropOp42
 70
     1
102
RTVSPost2010Prop43
 90
        3
102
RTVSPost2010PropOp43
 70
     1
102
RTVSPost2010Prop44ColorIndex
 90
        5
102
RTVSPost2010Prop44ColorRGB
 90
      255
102
RTVSPost2010PropOp44
 70
     1
102
RTVSPost2010Prop45
280
     0
102
RTVSPost2010PropOp45
 70
     1
102
RTVSPost2010Prop46
 90
       50
102
RTVSPost2010PropOp46
 70
     1
102
RTVSPost2010Prop47
 90
       50
102
RTVSPost2010PropOp47
 70
     1
102
RTVSPost2010Prop48
 90
       50
102
RTVSPost2010PropOp48
 70
     1
102
RTVSPost2010Prop49
280
     0
102
RTVSPost2010PropOp49
 70
     1
102
RTVSPost2010Prop50
 90
       50
102
RTVSPost2010PropOp50
 70
     1
102
RTVSPost2010Prop51ColorIndex
 90
      256
102
RTVSPost2010Prop51ColorRGB
 90
-16777216
102
RTVSPost2010PropOp51
 70
     0
102
RTVSPost2010Prop52
140
1.0
102
RTVSPost2010PropOp52
 70
     0
102
RTVSPost2010Prop53
 90
        2
102
RTVSPost2010PropOp53
 70
     1
102
RTVSPost2010Prop54
  1
strokes_ogs.tif
102
RTVSPost2010PropOp54
 70
     1
102
RTVSPost2010Prop55
280
     0
102
RTVSPost2010PropOp55
 70
     1
102
RTVSPost2010Prop56
140
1.0
102
RTVSPost2010PropOp56
 70
     1
102
RTVSPost2010Prop57
140
1.0
102
RTVSPost2010PropOp57
 70
     1
  0
XRECORD
  5
4F4
102
{ACAD_REACTORS
330
4F3
102
}
330
4F3
100
AcDbXrecord
280
     1
102
RTVSPropertyOp0
 70
     1
102
RTVSPropertyOp1
 70
     1
102
RTVSPropertyOp2
 70
     1
102
RTVSPropertyOp3
 70
     1
102
RTVSPropertyOp4
 70
     1
102
RTVSPropertyOp5
 70
     1
102
RTVSPropertyOp6
 70
     1
102
RTVSPropertyOp7
 70
     1
102
RTVSPropertyOp8
 70
     1
102
RTVSPropertyOp9
 70
     1
102
RTVSPropertyOp10
 70
     1
102
RTVSPropertyOp11
 70
     1
102
RTVSPropertyOp12
 70
     1
102
RTVSPropertyOp13
 70
     1
102
RTVSPropertyOp14
 70
     1
102
RTVSPropertyOp15
 70
     1
102
RTVSPropertyOp16
 70
     1
102
RTVSPropertyOp17
 70
     1
102
RTVSPropertyOp18
 70
     1
102
RTVSPropertyOp19
 70
     1
102
RTVSPropertyOp20
 70
     1
102
RTVSPropertyOp21
 70
     1
102
RTVSPropertyOp22
 70
     1
102
RTVSPropertyOp23
 70
     1
102
RTVSPropertyOp24
 70
     1
102
RTVSPropertyOp25
 70
     1
102
RTVSPropertyOp26
 70
     1
102
RTVSPropertyOp27
 70
     1
102
RTVSPropertyOp28
 70
     1
102
RTVSPropertyOp29
 70
     1
102
RTVSPropertyOp30
 70
     1
102
RTVSPropertyOp31
 70
     1
102
RTVSPropertyOp32
 70
     1
102
RTVSPropertyOp33
 70
     1
102
RTVSPropertyOp34
 70
     1
102
RTVSPropertyOp35
 70
     1
102
RTVSPropertyOp36
 70
     1
102
RTVSPropertyOp37
 70
     1
102
RTVSPropertyOp38
 70
     1
102
RTVSPropertyOp39
 70
     1
102
RTVSPropertyOp40
 70
     1
102
RTVSPropertyOp41
 70
     1
102
RTVSPropertyOp42
 70
     1
102
RTVSPropertyOp43
 70
     1
102
RTVSPropertyOp44
 70
     1
102
RTVSPropertyOp45
 70
     1
102
RTVSPropertyOp46
 70
     1
102
RTVSPropertyOp47
 70
     1
102
RTVSPropertyOp48
 70
     1
102
RTVSPropertyOp49
 70
     1
102
RTVSPropertyOp50
 70
     1
102
RTVSPropertyOp51
 70
     0
102
RTVSPropertyOp52
 70
     0
102
RTVSPropertyOp53
 70
     1
102
RTVSPropertyOp54
 70
     1
102
RTVSPropertyOp55
 70
     1
102
RTVSPropertyOp56
 70
     1
102
RTVSPropertyOp57
 70
     1
102
RTVSPost2010Prop28
280
     0
102
RTVSPost2010PropOp28
 70
     1
102
RTVSPost2010Prop29
280
     1
102
RTVSPost2010PropOp29
 70
     1
102
RTVSPost2010Prop30
280
     1
102
RTVSPost2010PropOp30
 70
     1
102
RTVSPost2010Prop31
280
     0
102
RTVSPost2010PropOp31
 70
     1
102
RTVSPost2010Prop32
280
     0
102
RTVSPost2010PropOp32
 70
     1
102
RTVSPost2010Prop33
280
     0
102
RTVSPost2010PropOp33
 70
     1
102
RTVSPost2010Prop34
280
     0
102
RTVSPost2010PropOp34
 70
     1
102
RTVSPost2010Prop35
280
     0
102
RTVSPost2010PropOp35
 70
     1
102
RTVSPost2010Prop36
280
     0
102
RTVSPost2010PropOp36
 70
     1
102
RTVSPost2010Prop37
 90
       50
102
RTVSPost2010PropOp37
 70
     1
102
RTVSPost2010Prop38
140
0.0
102
RTVSPost2010PropOp38
 70
     1
102
RTVSPost2010Prop39
140
1.0
102
RTVSPost2010PropOp39
 70
     1
102
RTVSPost2010Prop40
 90
        0
102
RTVSPost2010PropOp40
 70
     1
102
RTVSPost2010Prop41ColorIndex
 90
       18
102
RTVSPost2010Prop41ColorRGB
 90
        0
102
RTVSPost2010PropOp41
 70
     1
102
RTVSPost2010Prop42
 90
       50
102
RTVSPost2010PropOp42
 70
     1
102
RTVSPost2010Prop43
 90
        3
102
RTVSPost2010PropOp43
 70
     1
102
RTVSPost2010Prop44ColorIndex
 90
        5
102
RTVSPost2010Prop44ColorRGB
 90
      255
102
RTVSPost2010PropOp44
 70
     1
102
RTVSPost2010Prop45
280
     0
102
RTVSPost2010PropOp45
 70
     1
102
RTVSPost2010Prop46
 90
       50
102
RTVSPost2010PropOp46
 70
     1
102
RTVSPost2010Prop47
 90
       50
102
RTVSPost2010PropOp47
 70
     1
102
RTVSPost2010Prop48
 90
       50
102
RTVSPost2010PropOp48
 70
     1
102
RTVSPost2010Prop49
280
     0
102
RTVSPost2010PropOp49
 70
     1
102
RTVSPost2010Prop50
 90
       50
102
RTVSPost2010PropOp50
 70
     1
102
RTVSPost2010Prop51ColorIndex
 90
      256
102
RTVSPost2010Prop51ColorRGB
 90
-16777216
102
RTVSPost2010PropOp51
 70
     0
102
RTVSPost2010Prop52
140
1.0
102
RTVSPost2010PropOp52
 70
     0
102
RTVSPost2010Prop53
 90
        2
102
RTVSPost2010PropOp53
 70
     1
102
RTVSPost2010Prop54
  1
strokes_ogs.tif
102
RTVSPost2010PropOp54
 70
     1
102
RTVSPost2010Prop55
280
     0
102
RTVSPost2010PropOp55
 70
     1
102
RTVSPost2010Prop56
140
1.0
102
RTVSPost2010PropOp56
 70
     1
102
RTVSPost2010Prop57
140
1.0
102
RTVSPost2010PropOp57
 70
     1
  0
XRECORD
  5
508
102
{ACAD_REACTORS
330
507
102
}
330
507
100
AcDbXrecord
280
     1
102
RTVSPropertyOp0
 70
     0
102
RTVSPropertyOp1
 70
     0
102
RTVSPropertyOp2
 70
     0
102
RTVSPropertyOp3
 70
     0
102
RTVSPropertyOp4
 70
     0
102
RTVSPropertyOp5
 70
     0
102
RTVSPropertyOp6
 70
     0
102
RTVSPropertyOp7
 70
     0
102
RTVSPropertyOp8
 70
     0
102
RTVSPropertyOp9
 70
     0
102
RTVSPropertyOp10
 70
     0
102
RTVSPropertyOp11
 70
     0
102
RTVSPropertyOp12
 70
     0
102
RTVSPropertyOp13
 70
     0
102
RTVSPropertyOp14
 70
     2
102
RTVSPropertyOp15
 70
     0
102
RTVSPropertyOp16
 70
     0
102
RTVSPropertyOp17
 70
     0
102
RTVSPropertyOp18
 70
     0
102
RTVSPropertyOp19
 70
     0
102
RTVSPropertyOp20
 70
     0
102
RTVSPropertyOp21
 70
     0
102
RTVSPropertyOp22
 70
     0
102
RTVSPropertyOp23
 70
     0
102
RTVSPropertyOp24
 70
     0
102
RTVSPropertyOp25
 70
     0
102
RTVSPropertyOp26
 70
     0
102
RTVSPropertyOp27
 70
     0
102
RTVSPropertyOp28
 70
     0
102
RTVSPropertyOp29
 70
     0
102
RTVSPropertyOp30
 70
     0
102
RTVSPropertyOp31
 70
     0
102
RTVSPropertyOp32
 70
     0
102
RTVSPropertyOp33
 70
     0
102
RTVSPropertyOp34
 70
     0
102
RTVSPropertyOp35
 70
     0
102
RTVSPropertyOp36
 70
     0
102
RTVSPropertyOp37
 70
     0
102
RTVSPropertyOp38
 70
     0
102
RTVSPropertyOp39
 70
     0
102
RTVSPropertyOp40
 70
     0
102
RTVSPropertyOp41
 70
     0
102
RTVSPropertyOp42
 70
     0
102
RTVSPropertyOp43
 70
     0
102
RTVSPropertyOp44
 70
     0
102
RTVSPropertyOp45
 70
     0
102
RTVSPropertyOp46
 70
     0
102
RTVSPropertyOp47
 70
     0
102
RTVSPropertyOp48
 70
     0
102
RTVSPropertyOp49
 70
     0
102
RTVSPropertyOp50
 70
     0
102
RTVSPropertyOp51
 70
     0
102
RTVSPropertyOp52
 70
     0
102
RTVSPropertyOp53
 70
     0
102
RTVSPropertyOp54
 70
     0
102
RTVSPropertyOp55
 70
     0
102
RTVSPropertyOp56
 70
     0
102
RTVSPropertyOp57
 70
     0
102
RTVSPost2010Prop28
280
     0
102
RTVSPost2010PropOp28
 70
     0
102
RTVSPost2010Prop29
280
     1
102
RTVSPost2010PropOp29
 70
     0
102
RTVSPost2010Prop30
280
     1
102
RTVSPost2010PropOp30
 70
     0
102
RTVSPost2010Prop31
280
     0
102
RTVSPost2010PropOp31
 70
     0
102
RTVSPost2010Prop32
280
     0
102
RTVSPost2010PropOp32
 70
     0
102
RTVSPost2010Prop33
280
     0
102
RTVSPost2010PropOp33
 70
     0
102
RTVSPost2010Prop34
280
     0
102
RTVSPost2010PropOp34
 70
     0
102
RTVSPost2010Prop35
280
     0
102
RTVSPost2010PropOp35
 70
     0
102
RTVSPost2010Prop36
280
     0
102
RTVSPost2010PropOp36
 70
     0
102
RTVSPost2010Prop37
 90
       50
102
RTVSPost2010PropOp37
 70
     0
102
RTVSPost2010Prop38
140
0.0
102
RTVSPost2010PropOp38
 70
     0
102
RTVSPost2010Prop39
140
1.0
102
RTVSPost2010PropOp39
 70
     0
102
RTVSPost2010Prop40
 90
        0
102
RTVSPost2010PropOp40
 70
     0
102
RTVSPost2010Prop41ColorIndex
 90
       18
102
RTVSPost2010Prop41ColorRGB
 90
        0
102
RTVSPost2010PropOp41
 70
     0
102
RTVSPost2010Prop42
 90
       50
102
RTVSPost2010PropOp42
 70
     0
102
RTVSPost2010Prop43
 90
        3
102
RTVSPost2010PropOp43
 70
     0
102
RTVSPost2010Prop44ColorIndex
 90
        5
102
RTVSPost2010Prop44ColorRGB
 90
      255
102
RTVSPost2010PropOp44
 70
     0
102
RTVSPost2010Prop45
280
     0
102
RTVSPost2010PropOp45
 70
     0
102
RTVSPost2010Prop46
 90
       50
102
RTVSPost2010PropOp46
 70
     0
102
RTVSPost2010Prop47
 90
       50
102
RTVSPost2010PropOp47
 70
     0
102
RTVSPost2010Prop48
 90
       50
102
RTVSPost2010PropOp48
 70
     0
102
RTVSPost2010Prop49
280
     0
102
RTVSPost2010PropOp49
 70
     0
102
RTVSPost2010Prop50
 90
       50
102
RTVSPost2010PropOp50
 70
     0
102
RTVSPost2010Prop51ColorIndex
 90
      256
102
RTVSPost2010Prop51ColorRGB
 90
-16777216
102
RTVSPost2010PropOp51
 70
     0
102
RTVSPost2010Prop52
140
1.0
102
RTVSPost2010PropOp52
 70
     0
102
RTVSPost2010Prop53
 90
        2
102
RTVSPost2010PropOp53
 70
     0
102
RTVSPost2010Prop54
  1
strokes_ogs.tif
102
RTVSPost2010PropOp54
 70
     0
102
RTVSPost2010Prop55
280
     0
102
RTVSPost2010PropOp55
 70
     0
102
RTVSPost2010Prop56
140
1.0
102
RTVSPost2010PropOp56
 70
     0
102
RTVSPost2010Prop57
140
1.0
102
RTVSPost2010PropOp57
 70
     0
  0
XRECORD
  5
502
102
{ACAD_REACTORS
330
501
102
}
330
501
100
AcDbXrecord
280
     1
102
RTVSPropertyOp0
 70
     1
102
RTVSPropertyOp1
 70
     1
102
RTVSPropertyOp2
 70
     1
102
RTVSPropertyOp3
 70
     1
102
RTVSPropertyOp4
 70
     1
102
RTVSPropertyOp5
 70
     1
102
RTVSPropertyOp6
 70
     1
102
RTVSPropertyOp7
 70
     1
102
RTVSPropertyOp8
 70
     1
102
RTVSPropertyOp9
 70
     1
102
RTVSPropertyOp10
 70
     1
102
RTVSPropertyOp11
 70
     1
102
RTVSPropertyOp12
 70
     1
102
RTVSPropertyOp13
 70
     1
102
RTVSPropertyOp14
 70
     1
102
RTVSPropertyOp15
 70
     1
102
RTVSPropertyOp16
 70
     1
102
RTVSPropertyOp17
 70
     1
102
RTVSPropertyOp18
 70
     1
102
RTVSPropertyOp19
 70
     1
102
RTVSPropertyOp20
 70
     1
102
RTVSPropertyOp21
 70
     1
102
RTVSPropertyOp22
 70
     1
102
RTVSPropertyOp23
 70
     1
102
RTVSPropertyOp24
 70
     1
102
RTVSPropertyOp25
 70
     1
102
RTVSPropertyOp26
 70
     1
102
RTVSPropertyOp27
 70
     1
102
RTVSPropertyOp28
 70
     1
102
RTVSPropertyOp29
 70
     1
102
RTVSPropertyOp30
 70
     1
102
RTVSPropertyOp31
 70
     1
102
RTVSPropertyOp32
 70
     1
102
RTVSPropertyOp33
 70
     1
102
RTVSPropertyOp34
 70
     1
102
RTVSPropertyOp35
 70
     1
102
RTVSPropertyOp36
 70
     1
102
RTVSPropertyOp37
 70
     1
102
RTVSPropertyOp38
 70
     1
102
RTVSPropertyOp39
 70
     1
102
RTVSPropertyOp40
 70
     1
102
RTVSPropertyOp41
 70
     1
102
RTVSPropertyOp42
 70
     1
102
RTVSPropertyOp43
 70
     1
102
RTVSPropertyOp44
 70
     1
102
RTVSPropertyOp45
 70
     1
102
RTVSPropertyOp46
 70
     1
102
RTVSPropertyOp47
 70
     1
102
RTVSPropertyOp48
 70
     1
102
RTVSPropertyOp49
 70
     1
102
RTVSPropertyOp50
 70
     1
102
RTVSPropertyOp51
 70
     0
102
RTVSPropertyOp52
 70
     0
102
RTVSPropertyOp53
 70
     1
102
RTVSPropertyOp54
 70
     1
102
RTVSPropertyOp55
 70
     1
102
RTVSPropertyOp56
 70
     1
102
RTVSPropertyOp57
 70
     1
102
RTVSPost2010Prop28
280
     0
102
RTVSPost2010PropOp28
 70
     1
102
RTVSPost2010Prop29
280
     1
102
RTVSPost2010PropOp29
 70
     1
102
RTVSPost2010Prop30
280
     1
102
RTVSPost2010PropOp30
 70
     1
102
RTVSPost2010Prop31
280
     0
102
RTVSPost2010PropOp31
 70
     1
102
RTVSPost2010Prop32
280
     0
102
RTVSPost2010PropOp32
 70
     1
102
RTVSPost2010Prop33
280
     0
102
RTVSPost2010PropOp33
 70
     1
102
RTVSPost2010Prop34
280
     0
102
RTVSPost2010PropOp34
 70
     1
102
RTVSPost2010Prop35
280
     0
102
RTVSPost2010PropOp35
 70
     1
102
RTVSPost2010Prop36
280
     0
102
RTVSPost2010PropOp36
 70
     1
102
RTVSPost2010Prop37
 90
       50
102
RTVSPost2010PropOp37
 70
     1
102
RTVSPost2010Prop38
140
0.0
102
RTVSPost2010PropOp38
 70
     1
102
RTVSPost2010Prop39
140
1.0
102
RTVSPost2010PropOp39
 70
     1
102
RTVSPost2010Prop40
 90
        0
102
RTVSPost2010PropOp40
 70
     1
102
RTVSPost2010Prop41ColorIndex
 90
       18
102
RTVSPost2010Prop41ColorRGB
 90
        0
102
RTVSPost2010PropOp41
 70
     1
102
RTVSPost2010Prop42
 90
       50
102
RTVSPost2010PropOp42
 70
     1
102
RTVSPost2010Prop43
 90
        3
102
RTVSPost2010PropOp43
 70
     1
102
RTVSPost2010Prop44ColorIndex
 90
        5
102
RTVSPost2010Prop44ColorRGB
 90
      255
102
RTVSPost2010PropOp44
 70
     1
102
RTVSPost2010Prop45
280
     0
102
RTVSPost2010PropOp45
 70
     1
102
RTVSPost2010Prop46
 90
       50
102
RTVSPost2010PropOp46
 70
     1
102
RTVSPost2010Prop47
 90
       50
102
RTVSPost2010PropOp47
 70
     1
102
RTVSPost2010Prop48
 90
       50
102
RTVSPost2010PropOp48
 70
     1
102
RTVSPost2010Prop49
280
     0
102
RTVSPost2010PropOp49
 70
     1
102
RTVSPost2010Prop50
 90
       50
102
RTVSPost2010PropOp50
 70
     1
102
RTVSPost2010Prop51ColorIndex
 90
      256
102
RTVSPost2010Prop51ColorRGB
 90
-16777216
102
RTVSPost2010PropOp51
 70
     0
102
RTVSPost2010Prop52
140
1.0
102
RTVSPost2010PropOp52
 70
     0
102
RTVSPost2010Prop53
 90
        2
102
RTVSPost2010PropOp53
 70
     1
102
RTVSPost2010Prop54
  1
strokes_ogs.tif
102
RTVSPost2010PropOp54
 70
     1
102
RTVSPost2010Prop55
280
     0
102
RTVSPost2010PropOp55
 70
     1
102
RTVSPost2010Prop56
140
1.0
102
RTVSPost2010PropOp56
 70
     1
102
RTVSPost2010Prop57
140
1.0
102
RTVSPost2010PropOp57
 70
     1
  0
XRECORD
  5
50A
102
{ACAD_REACTORS
330
509
102
}
330
509
100
AcDbXrecord
280
     1
102
RTVSPropertyOp0
 70
     0
102
RTVSPropertyOp1
 70
     0
102
RTVSPropertyOp2
 70
     0
102
RTVSPropertyOp3
 70
     0
102
RTVSPropertyOp4
 70
     0
102
RTVSPropertyOp5
 70
     0
102
RTVSPropertyOp6
 70
     0
102
RTVSPropertyOp7
 70
     0
102
RTVSPropertyOp8
 70
     0
102
RTVSPropertyOp9
 70
     0
102
RTVSPropertyOp10
 70
     0
102
RTVSPropertyOp11
 70
     0
102
RTVSPropertyOp12
 70
     0
102
RTVSPropertyOp13
 70
     0
102
RTVSPropertyOp14
 70
     2
102
RTVSPropertyOp15
 70
     0
102
RTVSPropertyOp16
 70
     0
102
RTVSPropertyOp17
 70
     0
102
RTVSPropertyOp18
 70
     0
102
RTVSPropertyOp19
 70
     0
102
RTVSPropertyOp20
 70
     0
102
RTVSPropertyOp21
 70
     0
102
RTVSPropertyOp22
 70
     0
102
RTVSPropertyOp23
 70
     0
102
RTVSPropertyOp24
 70
     0
102
RTVSPropertyOp25
 70
     0
102
RTVSPropertyOp26
 70
     0
102
RTVSPropertyOp27
 70
     0
102
RTVSPropertyOp28
 70
     0
102
RTVSPropertyOp29
 70
     0
102
RTVSPropertyOp30
 70
     0
102
RTVSPropertyOp31
 70
     0
102
RTVSPropertyOp32
 70
     0
102
RTVSPropertyOp33
 70
     0
102
RTVSPropertyOp34
 70
     0
102
RTVSPropertyOp35
 70
     0
102
RTVSPropertyOp36
 70
     0
102
RTVSPropertyOp37
 70
     0
102
RTVSPropertyOp38
 70
     0
102
RTVSPropertyOp39
 70
     0
102
RTVSPropertyOp40
 70
     0
102
RTVSPropertyOp41
 70
     0
102
RTVSPropertyOp42
 70
     0
102
RTVSPropertyOp43
 70
     0
102
RTVSPropertyOp44
 70
     0
102
RTVSPropertyOp45
 70
     0
102
RTVSPropertyOp46
 70
     0
102
RTVSPropertyOp47
 70
     0
102
RTVSPropertyOp48
 70
     0
102
RTVSPropertyOp49
 70
     0
102
RTVSPropertyOp50
 70
     0
102
RTVSPropertyOp51
 70
     0
102
RTVSPropertyOp52
 70
     0
102
RTVSPropertyOp53
 70
     0
102
RTVSPropertyOp54
 70
     0
102
RTVSPropertyOp55
 70
     0
102
RTVSPropertyOp56
 70
     0
102
RTVSPropertyOp57
 70
     0
102
RTVSPost2010Prop28
280
     0
102
RTVSPost2010PropOp28
 70
     0
102
RTVSPost2010Prop29
280
     1
102
RTVSPost2010PropOp29
 70
     0
102
RTVSPost2010Prop30
280
     1
102
RTVSPost2010PropOp30
 70
     0
102
RTVSPost2010Prop31
280
     0
102
RTVSPost2010PropOp31
 70
     0
102
RTVSPost2010Prop32
280
     0
102
RTVSPost2010PropOp32
 70
     0
102
RTVSPost2010Prop33
280
     0
102
RTVSPost2010PropOp33
 70
     0
102
RTVSPost2010Prop34
280
     0
102
RTVSPost2010PropOp34
 70
     0
102
RTVSPost2010Prop35
280
     0
102
RTVSPost2010PropOp35
 70
     0
102
RTVSPost2010Prop36
280
     0
102
RTVSPost2010PropOp36
 70
     0
102
RTVSPost2010Prop37
 90
       50
102
RTVSPost2010PropOp37
 70
     0
102
RTVSPost2010Prop38
140
0.0
102
RTVSPost2010PropOp38
 70
     0
102
RTVSPost2010Prop39
140
1.0
102
RTVSPost2010PropOp39
 70
     0
102
RTVSPost2010Prop40
 90
        0
102
RTVSPost2010PropOp40
 70
     0
102
RTVSPost2010Prop41ColorIndex
 90
       18
102
RTVSPost2010Prop41ColorRGB
 90
        0
102
RTVSPost2010PropOp41
 70
     0
102
RTVSPost2010Prop42
 90
       50
102
RTVSPost2010PropOp42
 70
     0
102
RTVSPost2010Prop43
 90
        3
102
RTVSPost2010PropOp43
 70
     0
102
RTVSPost2010Prop44ColorIndex
 90
        5
102
RTVSPost2010Prop44ColorRGB
 90
      255
102
RTVSPost2010PropOp44
 70
     0
102
RTVSPost2010Prop45
280
     0
102
RTVSPost2010PropOp45
 70
     0
102
RTVSPost2010Prop46
 90
       50
102
RTVSPost2010PropOp46
 70
     0
102
RTVSPost2010Prop47
 90
       50
102
RTVSPost2010PropOp47
 70
     0
102
RTVSPost2010Prop48
 90
       50
102
RTVSPost2010PropOp48
 70
     0
102
RTVSPost2010Prop49
280
     0
102
RTVSPost2010PropOp49
 70
     0
102
RTVSPost2010Prop50
 90
       50
102
RTVSPost2010PropOp50
 70
     0
102
RTVSPost2010Prop51ColorIndex
 90
      256
102
RTVSPost2010Prop51ColorRGB
 90
-16777216
102
RTVSPost2010PropOp51
 70
     0
102
RTVSPost2010Prop52
140
1.0
102
RTVSPost2010PropOp52
 70
     0
102
RTVSPost2010Prop53
 90
        2
102
RTVSPost2010PropOp53
 70
     0
102
RTVSPost2010Prop54
  1
strokes_ogs.tif
102
RTVSPost2010PropOp54
 70
     0
102
RTVSPost2010Prop55
280
     0
102
RTVSPost2010PropOp55
 70
     0
102
RTVSPost2010Prop56
140
1.0
102
RTVSPost2010PropOp56
 70
     0
102
RTVSPost2010Prop57
140
1.0
102
RTVSPost2010PropOp57
 70
     0
  0
XRECORD
  5
4F8
102
{ACAD_REACTORS
330
4F7
102
}
330
4F7
100
AcDbXrecord
280
     1
102
RTVSPropertyOp0
 70
     1
102
RTVSPropertyOp1
 70
     1
102
RTVSPropertyOp2
 70
     1
102
RTVSPropertyOp3
 70
     1
102
RTVSPropertyOp4
 70
     1
102
RTVSPropertyOp5
 70
     1
102
RTVSPropertyOp6
 70
     1
102
RTVSPropertyOp7
 70
     1
102
RTVSPropertyOp8
 70
     1
102
RTVSPropertyOp9
 70
     1
102
RTVSPropertyOp10
 70
     1
102
RTVSPropertyOp11
 70
     1
102
RTVSPropertyOp12
 70
     1
102
RTVSPropertyOp13
 70
     1
102
RTVSPropertyOp14
 70
     1
102
RTVSPropertyOp15
 70
     1
102
RTVSPropertyOp16
 70
     1
102
RTVSPropertyOp17
 70
     1
102
RTVSPropertyOp18
 70
     1
102
RTVSPropertyOp19
 70
     1
102
RTVSPropertyOp20
 70
     1
102
RTVSPropertyOp21
 70
     1
102
RTVSPropertyOp22
 70
     1
102
RTVSPropertyOp23
 70
     1
102
RTVSPropertyOp24
 70
     1
102
RTVSPropertyOp25
 70
     1
102
RTVSPropertyOp26
 70
     1
102
RTVSPropertyOp27
 70
     1
102
RTVSPropertyOp28
 70
     1
102
RTVSPropertyOp29
 70
     1
102
RTVSPropertyOp30
 70
     1
102
RTVSPropertyOp31
 70
     1
102
RTVSPropertyOp32
 70
     1
102
RTVSPropertyOp33
 70
     1
102
RTVSPropertyOp34
 70
     1
102
RTVSPropertyOp35
 70
     1
102
RTVSPropertyOp36
 70
     1
102
RTVSPropertyOp37
 70
     1
102
RTVSPropertyOp38
 70
     1
102
RTVSPropertyOp39
 70
     1
102
RTVSPropertyOp40
 70
     1
102
RTVSPropertyOp41
 70
     1
102
RTVSPropertyOp42
 70
     1
102
RTVSPropertyOp43
 70
     1
102
RTVSPropertyOp44
 70
     1
102
RTVSPropertyOp45
 70
     1
102
RTVSPropertyOp46
 70
     1
102
RTVSPropertyOp47
 70
     1
102
RTVSPropertyOp48
 70
     1
102
RTVSPropertyOp49
 70
     1
102
RTVSPropertyOp50
 70
     1
102
RTVSPropertyOp51
 70
     0
102
RTVSPropertyOp52
 70
     0
102
RTVSPropertyOp53
 70
     1
102
RTVSPropertyOp54
 70
     1
102
RTVSPropertyOp55
 70
     1
102
RTVSPropertyOp56
 70
     1
102
RTVSPropertyOp57
 70
     1
102
RTVSPost2010Prop28
280
     0
102
RTVSPost2010PropOp28
 70
     1
102
RTVSPost2010Prop29
280
     1
102
RTVSPost2010PropOp29
 70
     1
102
RTVSPost2010Prop30
280
     1
102
RTVSPost2010PropOp30
 70
     1
102
RTVSPost2010Prop31
280
     0
102
RTVSPost2010PropOp31
 70
     1
102
RTVSPost2010Prop32
280
     0
102
RTVSPost2010PropOp32
 70
     1
102
RTVSPost2010Prop33
280
     0
102
RTVSPost2010PropOp33
 70
     1
102
RTVSPost2010Prop34
280
     0
102
RTVSPost2010PropOp34
 70
     1
102
RTVSPost2010Prop35
280
     0
102
RTVSPost2010PropOp35
 70
     1
102
RTVSPost2010Prop36
280
     0
102
RTVSPost2010PropOp36
 70
     1
102
RTVSPost2010Prop37
 90
       50
102
RTVSPost2010PropOp37
 70
     1
102
RTVSPost2010Prop38
140
0.0
102
RTVSPost2010PropOp38
 70
     1
102
RTVSPost2010Prop39
140
1.0
102
RTVSPost2010PropOp39
 70
     1
102
RTVSPost2010Prop40
 90
        0
102
RTVSPost2010PropOp40
 70
     1
102
RTVSPost2010Prop41ColorIndex
 90
       18
102
RTVSPost2010Prop41ColorRGB
 90
        0
102
RTVSPost2010PropOp41
 70
     1
102
RTVSPost2010Prop42
 90
       50
102
RTVSPost2010PropOp42
 70
     1
102
RTVSPost2010Prop43
 90
        3
102
RTVSPost2010PropOp43
 70
     1
102
RTVSPost2010Prop44ColorIndex
 90
        5
102
RTVSPost2010Prop44ColorRGB
 90
      255
102
RTVSPost2010PropOp44
 70
     1
102
RTVSPost2010Prop45
280
     0
102
RTVSPost2010PropOp45
 70
     1
102
RTVSPost2010Prop46
 90
       50
102
RTVSPost2010PropOp46
 70
     1
102
RTVSPost2010Prop47
 90
       50
102
RTVSPost2010PropOp47
 70
     1
102
RTVSPost2010Prop48
 90
       50
102
RTVSPost2010PropOp48
 70
     1
102
RTVSPost2010Prop49
280
     0
102
RTVSPost2010PropOp49
 70
     1
102
RTVSPost2010Prop50
 90
       50
102
RTVSPost2010PropOp50
 70
     1
102
RTVSPost2010Prop51ColorIndex
 90
      256
102
RTVSPost2010Prop51ColorRGB
 90
-16777216
102
RTVSPost2010PropOp51
 70
     0
102
RTVSPost2010Prop52
140
1.0
102
RTVSPost2010PropOp52
 70
     0
102
RTVSPost2010Prop53
 90
        2
102
RTVSPost2010PropOp53
 70
     1
102
RTVSPost2010Prop54
  1
strokes_ogs.tif
102
RTVSPost2010PropOp54
 70
     1
102
RTVSPost2010Prop55
280
     0
102
RTVSPost2010PropOp55
 70
     1
102
RTVSPost2010Prop56
140
1.0
102
RTVSPost2010PropOp56
 70
     1
102
RTVSPost2010Prop57
140
1.0
102
RTVSPost2010PropOp57
 70
     1
  0
XRECORD
  5
516
102
{ACAD_REACTORS
330
515
102
}
330
515
100
AcDbXrecord
280
     1
102
RTVSPropertyOp0
 70
     1
102
RTVSPropertyOp1
 70
     1
102
RTVSPropertyOp2
 70
     1
102
RTVSPropertyOp3
 70
     1
102
RTVSPropertyOp4
 70
     1
102
RTVSPropertyOp5
 70
     1
102
RTVSPropertyOp6
 70
     1
102
RTVSPropertyOp7
 70
     1
102
RTVSPropertyOp8
 70
     1
102
RTVSPropertyOp9
 70
     1
102
RTVSPropertyOp10
 70
     1
102
RTVSPropertyOp11
 70
     1
102
RTVSPropertyOp12
 70
     1
102
RTVSPropertyOp13
 70
     1
102
RTVSPropertyOp14
 70
     1
102
RTVSPropertyOp15
 70
     1
102
RTVSPropertyOp16
 70
     1
102
RTVSPropertyOp17
 70
     1
102
RTVSPropertyOp18
 70
     1
102
RTVSPropertyOp19
 70
     1
102
RTVSPropertyOp20
 70
     1
102
RTVSPropertyOp21
 70
     1
102
RTVSPropertyOp22
 70
     1
102
RTVSPropertyOp23
 70
     1
102
RTVSPropertyOp24
 70
     1
102
RTVSPropertyOp25
 70
     1
102
RTVSPropertyOp26
 70
     1
102
RTVSPropertyOp27
 70
     1
102
RTVSPropertyOp28
 70
     1
102
RTVSPropertyOp29
 70
     1
102
RTVSPropertyOp30
 70
     1
102
RTVSPropertyOp31
 70
     1
102
RTVSPropertyOp32
 70
     1
102
RTVSPropertyOp33
 70
     1
102
RTVSPropertyOp34
 70
     1
102
RTVSPropertyOp35
 70
     1
102
RTVSPropertyOp36
 70
     1
102
RTVSPropertyOp37
 70
     1
102
RTVSPropertyOp38
 70
     1
102
RTVSPropertyOp39
 70
     1
102
RTVSPropertyOp40
 70
     1
102
RTVSPropertyOp41
 70
     1
102
RTVSPropertyOp42
 70
     1
102
RTVSPropertyOp43
 70
     1
102
RTVSPropertyOp44
 70
     1
102
RTVSPropertyOp45
 70
     1
102
RTVSPropertyOp46
 70
     1
102
RTVSPropertyOp47
 70
     1
102
RTVSPropertyOp48
 70
     1
102
RTVSPropertyOp49
 70
     1
102
RTVSPropertyOp50
 70
     1
102
RTVSPropertyOp51
 70
     0
102
RTVSPropertyOp52
 70
     0
102
RTVSPropertyOp53
 70
     1
102
RTVSPropertyOp54
 70
     1
102
RTVSPropertyOp55
 70
     1
102
RTVSPropertyOp56
 70
     1
102
RTVSPropertyOp57
 70
     1
102
RTVSPost2010Prop28
280
     0
102
RTVSPost2010PropOp28
 70
     1
102
RTVSPost2010Prop29
280
     1
102
RTVSPost2010PropOp29
 70
     1
102
RTVSPost2010Prop30
280
     1
102
RTVSPost2010PropOp30
 70
     1
102
RTVSPost2010Prop31
280
     0
102
RTVSPost2010PropOp31
 70
     1
102
RTVSPost2010Prop32
280
     0
102
RTVSPost2010PropOp32
 70
     1
102
RTVSPost2010Prop33
280
     0
102
RTVSPost2010PropOp33
 70
     1
102
RTVSPost2010Prop34
280
     0
102
RTVSPost2010PropOp34
 70
     1
102
RTVSPost2010Prop35
280
     0
102
RTVSPost2010PropOp35
 70
     1
102
RTVSPost2010Prop36
280
     0
102
RTVSPost2010PropOp36
 70
     1
102
RTVSPost2010Prop37
 90
       50
102
RTVSPost2010PropOp37
 70
     1
102
RTVSPost2010Prop38
140
0.0
102
RTVSPost2010PropOp38
 70
     1
102
RTVSPost2010Prop39
140
1.0
102
RTVSPost2010PropOp39
 70
     1
102
RTVSPost2010Prop40
 90
        0
102
RTVSPost2010PropOp40
 70
     1
102
RTVSPost2010Prop41ColorIndex
 90
       18
102
RTVSPost2010Prop41ColorRGB
 90
        0
102
RTVSPost2010PropOp41
 70
     1
102
RTVSPost2010Prop42
 90
       50
102
RTVSPost2010PropOp42
 70
     1
102
RTVSPost2010Prop43
 90
        3
102
RTVSPost2010PropOp43
 70
     1
102
RTVSPost2010Prop44ColorIndex
 90
        5
102
RTVSPost2010Prop44ColorRGB
 90
      255
102
RTVSPost2010PropOp44
 70
     1
102
RTVSPost2010Prop45
280
     0
102
RTVSPost2010PropOp45
 70
     1
102
RTVSPost2010Prop46
 90
       50
102
RTVSPost2010PropOp46
 70
     1
102
RTVSPost2010Prop47
 90
       50
102
RTVSPost2010PropOp47
 70
     1
102
RTVSPost2010Prop48
 90
       50
102
RTVSPost2010PropOp48
 70
     1
102
RTVSPost2010Prop49
280
     0
102
RTVSPost2010PropOp49
 70
     1
102
RTVSPost2010Prop50
 90
       50
102
RTVSPost2010PropOp50
 70
     1
102
RTVSPost2010Prop51ColorIndex
 90
      256
102
RTVSPost2010Prop51ColorRGB
 90
-16777216
102
RTVSPost2010PropOp51
 70
     0
102
RTVSPost2010Prop52
140
1.0
102
RTVSPost2010PropOp52
 70
     0
102
RTVSPost2010Prop53
 90
        2
102
RTVSPost2010PropOp53
 70
     1
102
RTVSPost2010Prop54
  1
strokes_ogs.tif
102
RTVSPost2010PropOp54
 70
     1
102
RTVSPost2010Prop55
280
     0
102
RTVSPost2010PropOp55
 70
     1
102
RTVSPost2010Prop56
140
1.0
102
RTVSPost2010PropOp56
 70
     1
102
RTVSPost2010Prop57
140
1.0
102
RTVSPost2010PropOp57
 70
     1
  0
XRECORD
  5
514
102
{ACAD_REACTORS
330
513
102
}
330
513
100
AcDbXrecord
280
     1
102
RTVSPropertyOp0
 70
     1
102
RTVSPropertyOp1
 70
     1
102
RTVSPropertyOp2
 70
     1
102
RTVSPropertyOp3
 70
     1
102
RTVSPropertyOp4
 70
     1
102
RTVSPropertyOp5
 70
     1
102
RTVSPropertyOp6
 70
     1
102
RTVSPropertyOp7
 70
     1
102
RTVSPropertyOp8
 70
     1
102
RTVSPropertyOp9
 70
     1
102
RTVSPropertyOp10
 70
     1
102
RTVSPropertyOp11
 70
     1
102
RTVSPropertyOp12
 70
     1
102
RTVSPropertyOp13
 70
     1
102
RTVSPropertyOp14
 70
     1
102
RTVSPropertyOp15
 70
     1
102
RTVSPropertyOp16
 70
     1
102
RTVSPropertyOp17
 70
     1
102
RTVSPropertyOp18
 70
     1
102
RTVSPropertyOp19
 70
     1
102
RTVSPropertyOp20
 70
     1
102
RTVSPropertyOp21
 70
     1
102
RTVSPropertyOp22
 70
     1
102
RTVSPropertyOp23
 70
     1
102
RTVSPropertyOp24
 70
     1
102
RTVSPropertyOp25
 70
     1
102
RTVSPropertyOp26
 70
     1
102
RTVSPropertyOp27
 70
     1
102
RTVSPropertyOp28
 70
     1
102
RTVSPropertyOp29
 70
     1
102
RTVSPropertyOp30
 70
     1
102
RTVSPropertyOp31
 70
     1
102
RTVSPropertyOp32
 70
     1
102
RTVSPropertyOp33
 70
     1
102
RTVSPropertyOp34
 70
     1
102
RTVSPropertyOp35
 70
     1
102
RTVSPropertyOp36
 70
     1
102
RTVSPropertyOp37
 70
     1
102
RTVSPropertyOp38
 70
     1
102
RTVSPropertyOp39
 70
     1
102
RTVSPropertyOp40
 70
     1
102
RTVSPropertyOp41
 70
     1
102
RTVSPropertyOp42
 70
     1
102
RTVSPropertyOp43
 70
     1
102
RTVSPropertyOp44
 70
     1
102
RTVSPropertyOp45
 70
     1
102
RTVSPropertyOp46
 70
     1
102
RTVSPropertyOp47
 70
     1
102
RTVSPropertyOp48
 70
     1
102
RTVSPropertyOp49
 70
     1
102
RTVSPropertyOp50
 70
     1
102
RTVSPropertyOp51
 70
     0
102
RTVSPropertyOp52
 70
     0
102
RTVSPropertyOp53
 70
     1
102
RTVSPropertyOp54
 70
     1
102
RTVSPropertyOp55
 70
     1
102
RTVSPropertyOp56
 70
     1
102
RTVSPropertyOp57
 70
     1
102
RTVSPost2010Prop28
280
     0
102
RTVSPost2010PropOp28
 70
     1
102
RTVSPost2010Prop29
280
     1
102
RTVSPost2010PropOp29
 70
     1
102
RTVSPost2010Prop30
280
     1
102
RTVSPost2010PropOp30
 70
     1
102
RTVSPost2010Prop31
280
     0
102
RTVSPost2010PropOp31
 70
     1
102
RTVSPost2010Prop32
280
     0
102
RTVSPost2010PropOp32
 70
     1
102
RTVSPost2010Prop33
280
     0
102
RTVSPost2010PropOp33
 70
     1
102
RTVSPost2010Prop34
280
     0
102
RTVSPost2010PropOp34
 70
     1
102
RTVSPost2010Prop35
280
     0
102
RTVSPost2010PropOp35
 70
     1
102
RTVSPost2010Prop36
280
     0
102
RTVSPost2010PropOp36
 70
     1
102
RTVSPost2010Prop37
 90
       50
102
RTVSPost2010PropOp37
 70
     1
102
RTVSPost2010Prop38
140
0.0
102
RTVSPost2010PropOp38
 70
     1
102
RTVSPost2010Prop39
140
1.0
102
RTVSPost2010PropOp39
 70
     1
102
RTVSPost2010Prop40
 90
        0
102
RTVSPost2010PropOp40
 70
     1
102
RTVSPost2010Prop41ColorIndex
 90
       18
102
RTVSPost2010Prop41ColorRGB
 90
        0
102
RTVSPost2010PropOp41
 70
     1
102
RTVSPost2010Prop42
 90
       50
102
RTVSPost2010PropOp42
 70
     1
102
RTVSPost2010Prop43
 90
        3
102
RTVSPost2010PropOp43
 70
     1
102
RTVSPost2010Prop44ColorIndex
 90
        5
102
RTVSPost2010Prop44ColorRGB
 90
      255
102
RTVSPost2010PropOp44
 70
     1
102
RTVSPost2010Prop45
280
     0
102
RTVSPost2010PropOp45
 70
     1
102
RTVSPost2010Prop46
 90
       50
102
RTVSPost2010PropOp46
 70
     1
102
RTVSPost2010Prop47
 90
       50
102
RTVSPost2010PropOp47
 70
     1
102
RTVSPost2010Prop48
 90
       50
102
RTVSPost2010PropOp48
 70
     1
102
RTVSPost2010Prop49
280
     0
102
RTVSPost2010PropOp49
 70
     1
102
RTVSPost2010Prop50
 90
       50
102
RTVSPost2010PropOp50
 70
     1
102
RTVSPost2010Prop51ColorIndex
 90
      256
102
RTVSPost2010Prop51ColorRGB
 90
-16777216
102
RTVSPost2010PropOp51
 70
     0
102
RTVSPost2010Prop52
140
1.0
102
RTVSPost2010PropOp52
 70
     0
102
RTVSPost2010Prop53
 90
        2
102
RTVSPost2010PropOp53
 70
     1
102
RTVSPost2010Prop54
  1
strokes_ogs.tif
102
RTVSPost2010PropOp54
 70
     1
102
RTVSPost2010Prop55
280
     0
102
RTVSPost2010PropOp55
 70
     1
102
RTVSPost2010Prop56
140
1.0
102
RTVSPost2010PropOp56
 70
     1
102
RTVSPost2010Prop57
140
1.0
102
RTVSPost2010PropOp57
 70
     1
  0
XRECORD
  5
50E
102
{ACAD_REACTORS
330
50D
102
}
330
50D
100
AcDbXrecord
280
     1
102
RTVSPropertyOp0
 70
     1
102
RTVSPropertyOp1
 70
     1
102
RTVSPropertyOp2
 70
     1
102
RTVSPropertyOp3
 70
     1
102
RTVSPropertyOp4
 70
     1
102
RTVSPropertyOp5
 70
     1
102
RTVSPropertyOp6
 70
     1
102
RTVSPropertyOp7
 70
     1
102
RTVSPropertyOp8
 70
     1
102
RTVSPropertyOp9
 70
     1
102
RTVSPropertyOp10
 70
     1
102
RTVSPropertyOp11
 70
     1
102
RTVSPropertyOp12
 70
     1
102
RTVSPropertyOp13
 70
     1
102
RTVSPropertyOp14
 70
     1
102
RTVSPropertyOp15
 70
     1
102
RTVSPropertyOp16
 70
     1
102
RTVSPropertyOp17
 70
     1
102
RTVSPropertyOp18
 70
     1
102
RTVSPropertyOp19
 70
     1
102
RTVSPropertyOp20
 70
     1
102
RTVSPropertyOp21
 70
     1
102
RTVSPropertyOp22
 70
     1
102
RTVSPropertyOp23
 70
     1
102
RTVSPropertyOp24
 70
     1
102
RTVSPropertyOp25
 70
     1
102
RTVSPropertyOp26
 70
     1
102
RTVSPropertyOp27
 70
     1
102
RTVSPropertyOp28
 70
     1
102
RTVSPropertyOp29
 70
     1
102
RTVSPropertyOp30
 70
     1
102
RTVSPropertyOp31
 70
     1
102
RTVSPropertyOp32
 70
     1
102
RTVSPropertyOp33
 70
     1
102
RTVSPropertyOp34
 70
     1
102
RTVSPropertyOp35
 70
     1
102
RTVSPropertyOp36
 70
     1
102
RTVSPropertyOp37
 70
     1
102
RTVSPropertyOp38
 70
     1
102
RTVSPropertyOp39
 70
     1
102
RTVSPropertyOp40
 70
     1
102
RTVSPropertyOp41
 70
     1
102
RTVSPropertyOp42
 70
     1
102
RTVSPropertyOp43
 70
     1
102
RTVSPropertyOp44
 70
     1
102
RTVSPropertyOp45
 70
     1
102
RTVSPropertyOp46
 70
     1
102
RTVSPropertyOp47
 70
     1
102
RTVSPropertyOp48
 70
     1
102
RTVSPropertyOp49
 70
     1
102
RTVSPropertyOp50
 70
     1
102
RTVSPropertyOp51
 70
     0
102
RTVSPropertyOp52
 70
     0
102
RTVSPropertyOp53
 70
     1
102
RTVSPropertyOp54
 70
     1
102
RTVSPropertyOp55
 70
     1
102
RTVSPropertyOp56
 70
     1
102
RTVSPropertyOp57
 70
     1
102
RTVSPost2010Prop28
280
     0
102
RTVSPost2010PropOp28
 70
     1
102
RTVSPost2010Prop29
280
     1
102
RTVSPost2010PropOp29
 70
     1
102
RTVSPost2010Prop30
280
     1
102
RTVSPost2010PropOp30
 70
     1
102
RTVSPost2010Prop31
280
     0
102
RTVSPost2010PropOp31
 70
     1
102
RTVSPost2010Prop32
280
     0
102
RTVSPost2010PropOp32
 70
     1
102
RTVSPost2010Prop33
280
     0
102
RTVSPost2010PropOp33
 70
     1
102
RTVSPost2010Prop34
280
     0
102
RTVSPost2010PropOp34
 70
     1
102
RTVSPost2010Prop35
280
     0
102
RTVSPost2010PropOp35
 70
     1
102
RTVSPost2010Prop36
280
     0
102
RTVSPost2010PropOp36
 70
     1
102
RTVSPost2010Prop37
 90
       50
102
RTVSPost2010PropOp37
 70
     1
102
RTVSPost2010Prop38
140
0.0
102
RTVSPost2010PropOp38
 70
     1
102
RTVSPost2010Prop39
140
1.0
102
RTVSPost2010PropOp39
 70
     1
102
RTVSPost2010Prop40
 90
        0
102
RTVSPost2010PropOp40
 70
     1
102
RTVSPost2010Prop41ColorIndex
 90
       18
102
RTVSPost2010Prop41ColorRGB
 90
        0
102
RTVSPost2010PropOp41
 70
     1
102
RTVSPost2010Prop42
 90
       50
102
RTVSPost2010PropOp42
 70
     1
102
RTVSPost2010Prop43
 90
        3
102
RTVSPost2010PropOp43
 70
     1
102
RTVSPost2010Prop44ColorIndex
 90
        5
102
RTVSPost2010Prop44ColorRGB
 90
      255
102
RTVSPost2010PropOp44
 70
     1
102
RTVSPost2010Prop45
280
     0
102
RTVSPost2010PropOp45
 70
     1
102
RTVSPost2010Prop46
 90
       50
102
RTVSPost2010PropOp46
 70
     1
102
RTVSPost2010Prop47
 90
       50
102
RTVSPost2010PropOp47
 70
     1
102
RTVSPost2010Prop48
 90
       50
102
RTVSPost2010PropOp48
 70
     1
102
RTVSPost2010Prop49
280
     0
102
RTVSPost2010PropOp49
 70
     1
102
RTVSPost2010Prop50
 90
       50
102
RTVSPost2010PropOp50
 70
     1
102
RTVSPost2010Prop51ColorIndex
 90
      256
102
RTVSPost2010Prop51ColorRGB
 90
-16777216
102
RTVSPost2010PropOp51
 70
     0
102
RTVSPost2010Prop52
140
1.0
102
RTVSPost2010PropOp52
 70
     0
102
RTVSPost2010Prop53
 90
        2
102
RTVSPost2010PropOp53
 70
     1
102
RTVSPost2010Prop54
  1
strokes_ogs.tif
102
RTVSPost2010PropOp54
 70
     1
102
RTVSPost2010Prop55
280
     0
102
RTVSPost2010PropOp55
 70
     1
102
RTVSPost2010Prop56
140
1.0
102
RTVSPost2010PropOp56
 70
     1
102
RTVSPost2010Prop57
140
1.0
102
RTVSPost2010PropOp57
 70
     1
  0
XRECORD
  5
510
102
{ACAD_REACTORS
330
50F
102
}
330
50F
100
AcDbXrecord
280
     1
102
RTVSPropertyOp0
 70
     1
102
RTVSPropertyOp1
 70
     1
102
RTVSPropertyOp2
 70
     1
102
RTVSPropertyOp3
 70
     1
102
RTVSPropertyOp4
 70
     1
102
RTVSPropertyOp5
 70
     1
102
RTVSPropertyOp6
 70
     1
102
RTVSPropertyOp7
 70
     1
102
RTVSPropertyOp8
 70
     1
102
RTVSPropertyOp9
 70
     1
102
RTVSPropertyOp10
 70
     1
102
RTVSPropertyOp11
 70
     1
102
RTVSPropertyOp12
 70
     1
102
RTVSPropertyOp13
 70
     1
102
RTVSPropertyOp14
 70
     1
102
RTVSPropertyOp15
 70
     1
102
RTVSPropertyOp16
 70
     1
102
RTVSPropertyOp17
 70
     1
102
RTVSPropertyOp18
 70
     1
102
RTVSPropertyOp19
 70
     1
102
RTVSPropertyOp20
 70
     1
102
RTVSPropertyOp21
 70
     1
102
RTVSPropertyOp22
 70
     1
102
RTVSPropertyOp23
 70
     1
102
RTVSPropertyOp24
 70
     1
102
RTVSPropertyOp25
 70
     1
102
RTVSPropertyOp26
 70
     1
102
RTVSPropertyOp27
 70
     1
102
RTVSPropertyOp28
 70
     1
102
RTVSPropertyOp29
 70
     1
102
RTVSPropertyOp30
 70
     1
102
RTVSPropertyOp31
 70
     1
102
RTVSPropertyOp32
 70
     1
102
RTVSPropertyOp33
 70
     1
102
RTVSPropertyOp34
 70
     1
102
RTVSPropertyOp35
 70
     1
102
RTVSPropertyOp36
 70
     1
102
RTVSPropertyOp37
 70
     1
102
RTVSPropertyOp38
 70
     1
102
RTVSPropertyOp39
 70
     1
102
RTVSPropertyOp40
 70
     1
102
RTVSPropertyOp41
 70
     1
102
RTVSPropertyOp42
 70
     1
102
RTVSPropertyOp43
 70
     1
102
RTVSPropertyOp44
 70
     1
102
RTVSPropertyOp45
 70
     1
102
RTVSPropertyOp46
 70
     1
102
RTVSPropertyOp47
 70
     1
102
RTVSPropertyOp48
 70
     1
102
RTVSPropertyOp49
 70
     1
102
RTVSPropertyOp50
 70
     1
102
RTVSPropertyOp51
 70
     0
102
RTVSPropertyOp52
 70
     0
102
RTVSPropertyOp53
 70
     1
102
RTVSPropertyOp54
 70
     1
102
RTVSPropertyOp55
 70
     1
102
RTVSPropertyOp56
 70
     1
102
RTVSPropertyOp57
 70
     1
102
RTVSPost2010Prop28
280
     0
102
RTVSPost2010PropOp28
 70
     1
102
RTVSPost2010Prop29
280
     1
102
RTVSPost2010PropOp29
 70
     1
102
RTVSPost2010Prop30
280
     1
102
RTVSPost2010PropOp30
 70
     1
102
RTVSPost2010Prop31
280
     0
102
RTVSPost2010PropOp31
 70
     1
102
RTVSPost2010Prop32
280
     0
102
RTVSPost2010PropOp32
 70
     1
102
RTVSPost2010Prop33
280
     0
102
RTVSPost2010PropOp33
 70
     1
102
RTVSPost2010Prop34
280
     0
102
RTVSPost2010PropOp34
 70
     1
102
RTVSPost2010Prop35
280
     0
102
RTVSPost2010PropOp35
 70
     1
102
RTVSPost2010Prop36
280
     0
102
RTVSPost2010PropOp36
 70
     1
102
RTVSPost2010Prop37
 90
       50
102
RTVSPost2010PropOp37
 70
     1
102
RTVSPost2010Prop38
140
0.0
102
RTVSPost2010PropOp38
 70
     1
102
RTVSPost2010Prop39
140
1.0
102
RTVSPost2010PropOp39
 70
     1
102
RTVSPost2010Prop40
 90
        0
102
RTVSPost2010PropOp40
 70
     1
102
RTVSPost2010Prop41ColorIndex
 90
       18
102
RTVSPost2010Prop41ColorRGB
 90
        0
102
RTVSPost2010PropOp41
 70
     1
102
RTVSPost2010Prop42
 90
       50
102
RTVSPost2010PropOp42
 70
     1
102
RTVSPost2010Prop43
 90
        3
102
RTVSPost2010PropOp43
 70
     1
102
RTVSPost2010Prop44ColorIndex
 90
        5
102
RTVSPost2010Prop44ColorRGB
 90
      255
102
RTVSPost2010PropOp44
 70
     1
102
RTVSPost2010Prop45
280
     0
102
RTVSPost2010PropOp45
 70
     1
102
RTVSPost2010Prop46
 90
       50
102
RTVSPost2010PropOp46
 70
     1
102
RTVSPost2010Prop47
 90
       50
102
RTVSPost2010PropOp47
 70
     1
102
RTVSPost2010Prop48
 90
       50
102
RTVSPost2010PropOp48
 70
     1
102
RTVSPost2010Prop49
280
     0
102
RTVSPost2010PropOp49
 70
     1
102
RTVSPost2010Prop50
 90
       50
102
RTVSPost2010PropOp50
 70
     1
102
RTVSPost2010Prop51ColorIndex
 90
      256
102
RTVSPost2010Prop51ColorRGB
 90
-16777216
102
RTVSPost2010PropOp51
 70
     0
102
RTVSPost2010Prop52
140
1.0
102
RTVSPost2010PropOp52
 70
     0
102
RTVSPost2010Prop53
 90
        2
102
RTVSPost2010PropOp53
 70
     1
102
RTVSPost2010Prop54
  1
strokes_ogs.tif
102
RTVSPost2010PropOp54
 70
     1
102
RTVSPost2010Prop55
280
     0
102
RTVSPost2010PropOp55
 70
     1
102
RTVSPost2010Prop56
140
1.0
102
RTVSPost2010PropOp56
 70
     1
102
RTVSPost2010Prop57
140
1.0
102
RTVSPost2010PropOp57
 70
     1
  0
XRECORD
  5
500
102
{ACAD_REACTORS
330
4FF
102
}
330
4FF
100
AcDbXrecord
280
     1
102
RTVSPropertyOp0
 70
     1
102
RTVSPropertyOp1
 70
     1
102
RTVSPropertyOp2
 70
     1
102
RTVSPropertyOp3
 70
     1
102
RTVSPropertyOp4
 70
     1
102
RTVSPropertyOp5
 70
     1
102
RTVSPropertyOp6
 70
     1
102
RTVSPropertyOp7
 70
     1
102
RTVSPropertyOp8
 70
     1
102
RTVSPropertyOp9
 70
     1
102
RTVSPropertyOp10
 70
     1
102
RTVSPropertyOp11
 70
     1
102
RTVSPropertyOp12
 70
     1
102
RTVSPropertyOp13
 70
     1
102
RTVSPropertyOp14
 70
     1
102
RTVSPropertyOp15
 70
     1
102
RTVSPropertyOp16
 70
     1
102
RTVSPropertyOp17
 70
     1
102
RTVSPropertyOp18
 70
     1
102
RTVSPropertyOp19
 70
     1
102
RTVSPropertyOp20
 70
     1
102
RTVSPropertyOp21
 70
     1
102
RTVSPropertyOp22
 70
     1
102
RTVSPropertyOp23
 70
     1
102
RTVSPropertyOp24
 70
     1
102
RTVSPropertyOp25
 70
     1
102
RTVSPropertyOp26
 70
     1
102
RTVSPropertyOp27
 70
     1
102
RTVSPropertyOp28
 70
     1
102
RTVSPropertyOp29
 70
     1
102
RTVSPropertyOp30
 70
     1
102
RTVSPropertyOp31
 70
     1
102
RTVSPropertyOp32
 70
     1
102
RTVSPropertyOp33
 70
     1
102
RTVSPropertyOp34
 70
     1
102
RTVSPropertyOp35
 70
     1
102
RTVSPropertyOp36
 70
     1
102
RTVSPropertyOp37
 70
     1
102
RTVSPropertyOp38
 70
     1
102
RTVSPropertyOp39
 70
     1
102
RTVSPropertyOp40
 70
     1
102
RTVSPropertyOp41
 70
     1
102
RTVSPropertyOp42
 70
     1
102
RTVSPropertyOp43
 70
     1
102
RTVSPropertyOp44
 70
     1
102
RTVSPropertyOp45
 70
     1
102
RTVSPropertyOp46
 70
     1
102
RTVSPropertyOp47
 70
     1
102
RTVSPropertyOp48
 70
     1
102
RTVSPropertyOp49
 70
     1
102
RTVSPropertyOp50
 70
     1
102
RTVSPropertyOp51
 70
     0
102
RTVSPropertyOp52
 70
     0
102
RTVSPropertyOp53
 70
     1
102
RTVSPropertyOp54
 70
     1
102
RTVSPropertyOp55
 70
     1
102
RTVSPropertyOp56
 70
     1
102
RTVSPropertyOp57
 70
     1
102
RTVSPost2010Prop28
280
     0
102
RTVSPost2010PropOp28
 70
     1
102
RTVSPost2010Prop29
280
     1
102
RTVSPost2010PropOp29
 70
     1
102
RTVSPost2010Prop30
280
     1
102
RTVSPost2010PropOp30
 70
     1
102
RTVSPost2010Prop31
280
     0
102
RTVSPost2010PropOp31
 70
     1
102
RTVSPost2010Prop32
280
     0
102
RTVSPost2010PropOp32
 70
     1
102
RTVSPost2010Prop33
280
     0
102
RTVSPost2010PropOp33
 70
     1
102
RTVSPost2010Prop34
280
     0
102
RTVSPost2010PropOp34
 70
     1
102
RTVSPost2010Prop35
280
     0
102
RTVSPost2010PropOp35
 70
     1
102
RTVSPost2010Prop36
280
     0
102
RTVSPost2010PropOp36
 70
     1
102
RTVSPost2010Prop37
 90
       50
102
RTVSPost2010PropOp37
 70
     1
102
RTVSPost2010Prop38
140
0.0
102
RTVSPost2010PropOp38
 70
     1
102
RTVSPost2010Prop39
140
1.0
102
RTVSPost2010PropOp39
 70
     1
102
RTVSPost2010Prop40
 90
        0
102
RTVSPost2010PropOp40
 70
     1
102
RTVSPost2010Prop41ColorIndex
 90
       18
102
RTVSPost2010Prop41ColorRGB
 90
        0
102
RTVSPost2010PropOp41
 70
     1
102
RTVSPost2010Prop42
 90
       50
102
RTVSPost2010PropOp42
 70
     1
102
RTVSPost2010Prop43
 90
        3
102
RTVSPost2010PropOp43
 70
     1
102
RTVSPost2010Prop44ColorIndex
 90
        5
102
RTVSPost2010Prop44ColorRGB
 90
      255
102
RTVSPost2010PropOp44
 70
     1
102
RTVSPost2010Prop45
280
     0
102
RTVSPost2010PropOp45
 70
     1
102
RTVSPost2010Prop46
 90
       50
102
RTVSPost2010PropOp46
 70
     1
102
RTVSPost2010Prop47
 90
       50
102
RTVSPost2010PropOp47
 70
     1
102
RTVSPost2010Prop48
 90
       50
102
RTVSPost2010PropOp48
 70
     1
102
RTVSPost2010Prop49
280
     0
102
RTVSPost2010PropOp49
 70
     1
102
RTVSPost2010Prop50
 90
       50
102
RTVSPost2010PropOp50
 70
     1
102
RTVSPost2010Prop51ColorIndex
 90
      256
102
RTVSPost2010Prop51ColorRGB
 90
-16777216
102
RTVSPost2010PropOp51
 70
     0
102
RTVSPost2010Prop52
140
1.0
102
RTVSPost2010PropOp52
 70
     0
102
RTVSPost2010Prop53
 90
        2
102
RTVSPost2010PropOp53
 70
     1
102
RTVSPost2010Prop54
  1
strokes_ogs.tif
102
RTVSPost2010PropOp54
 70
     1
102
RTVSPost2010Prop55
280
     0
102
RTVSPost2010PropOp55
 70
     1
102
RTVSPost2010Prop56
140
1.0
102
RTVSPost2010PropOp56
 70
     1
102
RTVSPost2010Prop57
140
1.0
102
RTVSPost2010PropOp57
 70
     1
  0
XRECORD
  5
4F2
102
{ACAD_REACTORS
330
4F1
102
}
330
4F1
100
AcDbXrecord
280
     1
102
RTVSPropertyOp0
 70
     1
102
RTVSPropertyOp1
 70
     1
102
RTVSPropertyOp2
 70
     1
102
RTVSPropertyOp3
 70
     1
102
RTVSPropertyOp4
 70
     1
102
RTVSPropertyOp5
 70
     1
102
RTVSPropertyOp6
 70
     1
102
RTVSPropertyOp7
 70
     1
102
RTVSPropertyOp8
 70
     1
102
RTVSPropertyOp9
 70
     1
102
RTVSPropertyOp10
 70
     1
102
RTVSPropertyOp11
 70
     1
102
RTVSPropertyOp12
 70
     1
102
RTVSPropertyOp13
 70
     1
102
RTVSPropertyOp14
 70
     1
102
RTVSPropertyOp15
 70
     1
102
RTVSPropertyOp16
 70
     1
102
RTVSPropertyOp17
 70
     1
102
RTVSPropertyOp18
 70
     1
102
RTVSPropertyOp19
 70
     1
102
RTVSPropertyOp20
 70
     1
102
RTVSPropertyOp21
 70
     1
102
RTVSPropertyOp22
 70
     1
102
RTVSPropertyOp23
 70
     1
102
RTVSPropertyOp24
 70
     1
102
RTVSPropertyOp25
 70
     1
102
RTVSPropertyOp26
 70
     1
102
RTVSPropertyOp27
 70
     1
102
RTVSPropertyOp28
 70
     1
102
RTVSPropertyOp29
 70
     1
102
RTVSPropertyOp30
 70
     1
102
RTVSPropertyOp31
 70
     1
102
RTVSPropertyOp32
 70
     1
102
RTVSPropertyOp33
 70
     1
102
RTVSPropertyOp34
 70
     1
102
RTVSPropertyOp35
 70
     1
102
RTVSPropertyOp36
 70
     1
102
RTVSPropertyOp37
 70
     1
102
RTVSPropertyOp38
 70
     1
102
RTVSPropertyOp39
 70
     1
102
RTVSPropertyOp40
 70
     1
102
RTVSPropertyOp41
 70
     1
102
RTVSPropertyOp42
 70
     1
102
RTVSPropertyOp43
 70
     1
102
RTVSPropertyOp44
 70
     1
102
RTVSPropertyOp45
 70
     1
102
RTVSPropertyOp46
 70
     1
102
RTVSPropertyOp47
 70
     1
102
RTVSPropertyOp48
 70
     1
102
RTVSPropertyOp49
 70
     1
102
RTVSPropertyOp50
 70
     1
102
RTVSPropertyOp51
 70
     0
102
RTVSPropertyOp52
 70
     0
102
RTVSPropertyOp53
 70
     1
102
RTVSPropertyOp54
 70
     1
102
RTVSPropertyOp55
 70
     1
102
RTVSPropertyOp56
 70
     1
102
RTVSPropertyOp57
 70
     1
102
RTVSPost2010Prop28
280
     0
102
RTVSPost2010PropOp28
 70
     1
102
RTVSPost2010Prop29
280
     1
102
RTVSPost2010PropOp29
 70
     1
102
RTVSPost2010Prop30
280
     1
102
RTVSPost2010PropOp30
 70
     1
102
RTVSPost2010Prop31
280
     0
102
RTVSPost2010PropOp31
 70
     1
102
RTVSPost2010Prop32
280
     0
102
RTVSPost2010PropOp32
 70
     1
102
RTVSPost2010Prop33
280
     0
102
RTVSPost2010PropOp33
 70
     1
102
RTVSPost2010Prop34
280
     0
102
RTVSPost2010PropOp34
 70
     1
102
RTVSPost2010Prop35
280
     0
102
RTVSPost2010PropOp35
 70
     1
102
RTVSPost2010Prop36
280
     0
102
RTVSPost2010PropOp36
 70
     1
102
RTVSPost2010Prop37
 90
       50
102
RTVSPost2010PropOp37
 70
     1
102
RTVSPost2010Prop38
140
0.0
102
RTVSPost2010PropOp38
 70
     1
102
RTVSPost2010Prop39
140
1.0
102
RTVSPost2010PropOp39
 70
     1
102
RTVSPost2010Prop40
 90
        0
102
RTVSPost2010PropOp40
 70
     1
102
RTVSPost2010Prop41ColorIndex
 90
       18
102
RTVSPost2010Prop41ColorRGB
 90
        0
102
RTVSPost2010PropOp41
 70
     1
102
RTVSPost2010Prop42
 90
       50
102
RTVSPost2010PropOp42
 70
     1
102
RTVSPost2010Prop43
 90
        3
102
RTVSPost2010PropOp43
 70
     1
102
RTVSPost2010Prop44ColorIndex
 90
        5
102
RTVSPost2010Prop44ColorRGB
 90
      255
102
RTVSPost2010PropOp44
 70
     1
102
RTVSPost2010Prop45
280
     0
102
RTVSPost2010PropOp45
 70
     1
102
RTVSPost2010Prop46
 90
       50
102
RTVSPost2010PropOp46
 70
     1
102
RTVSPost2010Prop47
 90
       50
102
RTVSPost2010PropOp47
 70
     1
102
RTVSPost2010Prop48
 90
       50
102
RTVSPost2010PropOp48
 70
     1
102
RTVSPost2010Prop49
280
     0
102
RTVSPost2010PropOp49
 70
     1
102
RTVSPost2010Prop50
 90
       50
102
RTVSPost2010PropOp50
 70
     1
102
RTVSPost2010Prop51ColorIndex
 90
      256
102
RTVSPost2010Prop51ColorRGB
 90
-16777216
102
RTVSPost2010PropOp51
 70
     0
102
RTVSPost2010Prop52
140
1.0
102
RTVSPost2010PropOp52
 70
     0
102
RTVSPost2010Prop53
 90
        2
102
RTVSPost2010PropOp53
 70
     1
102
RTVSPost2010Prop54
  1
strokes_ogs.tif
102
RTVSPost2010PropOp54
 70
     1
102
RTVSPost2010Prop55
280
     0
102
RTVSPost2010PropOp55
 70
     1
102
RTVSPost2010Prop56
140
1.0
102
RTVSPost2010PropOp56
 70
     1
102
RTVSPost2010Prop57
140
1.0
102
RTVSPost2010PropOp57
 70
     1
  0
XRECORD
  5
512
102
{ACAD_REACTORS
330
511
102
}
330
511
100
AcDbXrecord
280
     1
102
RTVSPropertyOp0
 70
     1
102
RTVSPropertyOp1
 70
     1
102
RTVSPropertyOp2
 70
     1
102
RTVSPropertyOp3
 70
     1
102
RTVSPropertyOp4
 70
     1
102
RTVSPropertyOp5
 70
     1
102
RTVSPropertyOp6
 70
     1
102
RTVSPropertyOp7
 70
     1
102
RTVSPropertyOp8
 70
     1
102
RTVSPropertyOp9
 70
     1
102
RTVSPropertyOp10
 70
     1
102
RTVSPropertyOp11
 70
     1
102
RTVSPropertyOp12
 70
     1
102
RTVSPropertyOp13
 70
     1
102
RTVSPropertyOp14
 70
     1
102
RTVSPropertyOp15
 70
     1
102
RTVSPropertyOp16
 70
     1
102
RTVSPropertyOp17
 70
     1
102
RTVSPropertyOp18
 70
     1
102
RTVSPropertyOp19
 70
     1
102
RTVSPropertyOp20
 70
     1
102
RTVSPropertyOp21
 70
     1
102
RTVSPropertyOp22
 70
     1
102
RTVSPropertyOp23
 70
     1
102
RTVSPropertyOp24
 70
     1
102
RTVSPropertyOp25
 70
     1
102
RTVSPropertyOp26
 70
     1
102
RTVSPropertyOp27
 70
     1
102
RTVSPropertyOp28
 70
     1
102
RTVSPropertyOp29
 70
     1
102
RTVSPropertyOp30
 70
     1
102
RTVSPropertyOp31
 70
     1
102
RTVSPropertyOp32
 70
     1
102
RTVSPropertyOp33
 70
     1
102
RTVSPropertyOp34
 70
     1
102
RTVSPropertyOp35
 70
     1
102
RTVSPropertyOp36
 70
     1
102
RTVSPropertyOp37
 70
     1
102
RTVSPropertyOp38
 70
     1
102
RTVSPropertyOp39
 70
     1
102
RTVSPropertyOp40
 70
     1
102
RTVSPropertyOp41
 70
     1
102
RTVSPropertyOp42
 70
     1
102
RTVSPropertyOp43
 70
     1
102
RTVSPropertyOp44
 70
     1
102
RTVSPropertyOp45
 70
     1
102
RTVSPropertyOp46
 70
     1
102
RTVSPropertyOp47
 70
     1
102
RTVSPropertyOp48
 70
     1
102
RTVSPropertyOp49
 70
     1
102
RTVSPropertyOp50
 70
     1
102
RTVSPropertyOp51
 70
     0
102
RTVSPropertyOp52
 70
     0
102
RTVSPropertyOp53
 70
     1
102
RTVSPropertyOp54
 70
     1
102
RTVSPropertyOp55
 70
     1
102
RTVSPropertyOp56
 70
     1
102
RTVSPropertyOp57
 70
     1
102
RTVSPost2010Prop28
280
     0
102
RTVSPost2010PropOp28
 70
     1
102
RTVSPost2010Prop29
280
     1
102
RTVSPost2010PropOp29
 70
     1
102
RTVSPost2010Prop30
280
     1
102
RTVSPost2010PropOp30
 70
     1
102
RTVSPost2010Prop31
280
     0
102
RTVSPost2010PropOp31
 70
     1
102
RTVSPost2010Prop32
280
     0
102
RTVSPost2010PropOp32
 70
     1
102
RTVSPost2010Prop33
280
     0
102
RTVSPost2010PropOp33
 70
     1
102
RTVSPost2010Prop34
280
     0
102
RTVSPost2010PropOp34
 70
     1
102
RTVSPost2010Prop35
280
     0
102
RTVSPost2010PropOp35
 70
     1
102
RTVSPost2010Prop36
280
     0
102
RTVSPost2010PropOp36
 70
     1
102
RTVSPost2010Prop37
 90
       50
102
RTVSPost2010PropOp37
 70
     1
102
RTVSPost2010Prop38
140
0.0
102
RTVSPost2010PropOp38
 70
     1
102
RTVSPost2010Prop39
140
1.0
102
RTVSPost2010PropOp39
 70
     1
102
RTVSPost2010Prop40
 90
        0
102
RTVSPost2010PropOp40
 70
     1
102
RTVSPost2010Prop41ColorIndex
 90
       18
102
RTVSPost2010Prop41ColorRGB
 90
        0
102
RTVSPost2010PropOp41
 70
     1
102
RTVSPost2010Prop42
 90
       50
102
RTVSPost2010PropOp42
 70
     1
102
RTVSPost2010Prop43
 90
        3
102
RTVSPost2010PropOp43
 70
     1
102
RTVSPost2010Prop44ColorIndex
 90
        5
102
RTVSPost2010Prop44ColorRGB
 90
      255
102
RTVSPost2010PropOp44
 70
     1
102
RTVSPost2010Prop45
280
     0
102
RTVSPost2010PropOp45
 70
     1
102
RTVSPost2010Prop46
 90
       50
102
RTVSPost2010PropOp46
 70
     1
102
RTVSPost2010Prop47
 90
       50
102
RTVSPost2010PropOp47
 70
     1
102
RTVSPost2010Prop48
 90
       50
102
RTVSPost2010PropOp48
 70
     1
102
RTVSPost2010Prop49
280
     0
102
RTVSPost2010PropOp49
 70
     1
102
RTVSPost2010Prop50
 90
       50
102
RTVSPost2010PropOp50
 70
     1
102
RTVSPost2010Prop51ColorIndex
 90
      256
102
RTVSPost2010Prop51ColorRGB
 90
-16777216
102
RTVSPost2010PropOp51
 70
     0
102
RTVSPost2010Prop52
140
1.0
102
RTVSPost2010PropOp52
 70
     0
102
RTVSPost2010Prop53
 90
        2
102
RTVSPost2010PropOp53
 70
     1
102
RTVSPost2010Prop54
  1
strokes_ogs.tif
102
RTVSPost2010PropOp54
 70
     1
102
RTVSPost2010Prop55
280
     0
102
RTVSPost2010PropOp55
 70
     1
102
RTVSPost2010Prop56
140
1.0
102
RTVSPost2010PropOp56
 70
     1
102
RTVSPost2010Prop57
140
1.0
102
RTVSPost2010PropOp57
 70
     1
  0
ENDSEC
  0
EOF

