  0
SECTION
  2
HEADER
  9
$ACADVER
  1
AC1018
  9
$ACADMAINTVER
 70
     0
  9
$DWGCODEPAGE
  3
ANSI_1252
  9
$INSBASE
 10
0.0
 20
0.0
 30
0.0
  9
$EXTMIN
 10
-2.349250180195206
 20
-1.016852348800306
 30
0.0000000000125
  9
$EXTMAX
 10
2.329439710240337
 20
1.014664266514551
 30
-0.0000000000125
  9
$LIMMIN
 10
0.0
 20
0.0
  9
$LIMMAX
 10
12.0
 20
9.0
  9
$ORTHOMODE
 70
     0
  9
$REGENMODE
 70
     1
  9
$FILLMODE
 70
     1
  9
$QTEXTMODE
 70
     0
  9
$MIRRTEXT
 70
     1
  9
$LTSCALE
 40
1.0
  9
$ATTMODE
 70
     1
  9
$TEXTSIZE
 40
0.2
  9
$TRACEWID
 40
0.05
  9
$TEXTSTYLE
  7
Simplex
  9
$CLAYER
  8
0
  9
$CELTYPE
  6
ByLayer
  9
$CECOLOR
 62
   256
  9
$CELTSCALE
 40
1.0
  9
$DISPSILH
 70
     0
  9
$DIMSCALE
 40
1.0
  9
$DIMASZ
 40
0.18
  9
$DIMEXO
 40
0.0625
  9
$DIMDLI
 40
0.38
  9
$DIMRND
 40
0.0
  9
$DIMDLE
 40
0.0
  9
$DIMEXE
 40
0.18
  9
$DIMTP
 40
0.0
  9
$DIMTM
 40
0.0
  9
$DIMTXT
 40
0.18
  9
$DIMCEN
 40
0.09
  9
$DIMTSZ
 40
0.0
  9
$DIMTOL
 70
     0
  9
$DIMLIM
 70
     0
  9
$DIMTIH
 70
     1
  9
$DIMTOH
 70
     1
  9
$DIMSE1
 70
     0
  9
$DIMSE2
 70
     0
  9
$DIMTAD
 70
     0
  9
$DIMZIN
 70
     0
  9
$DIMBLK
  1

  9
$DIMASO
 70
     1
  9
$DIMSHO
 70
     1
  9
$DIMPOST
  1

  9
$DIMAPOST
  1

  9
$DIMALT
 70
     0
  9
$DIMALTD
 70
     2
  9
$DIMALTF
 40
25.4
  9
$DIMLFAC
 40
1.0
  9
$DIMTOFL
 70
     0
  9
$DIMTVP
 40
0.0
  9
$DIMTIX
 70
     0
  9
$DIMSOXD
 70
     0
  9
$DIMSAH
 70
     0
  9
$DIMBLK1
  1

  9
$DIMBLK2
  1

  9
$DIMSTYLE
  2
Standard
  9
$DIMCLRD
 70
     0
  9
$DIMCLRE
 70
     0
  9
$DIMCLRT
 70
     0
  9
$DIMTFAC
 40
1.0
  9
$DIMGAP
 40
0.09
  9
$DIMJUST
 70
     0
  9
$DIMSD1
 70
     0
  9
$DIMSD2
 70
     0
  9
$DIMTOLJ
 70
     1
  9
$DIMTZIN
 70
     0
  9
$DIMALTZ
 70
     0
  9
$DIMALTTZ
 70
     0
  9
$DIMUPT
 70
     0
  9
$DIMDEC
 70
     4
  9
$DIMTDEC
 70
     4
  9
$DIMALTU
 70
     2
  9
$DIMALTTD
 70
     2
  9
$DIMTXSTY
  7
Standard
  9
$DIMAUNIT
 70
     0
  9
$DIMADEC
 70
     0
  9
$DIMALTRND
 40
0.0
  9
$DIMAZIN
 70
     0
  9
$DIMDSEP
 70
    46
  9
$DIMATFIT
 70
     3
  9
$DIMFRAC
 70
     0
  9
$DIMLDRBLK
  1

  9
$DIMLUNIT
 70
     2
  9
$DIMLWD
 70
    -2
  9
$DIMLWE
 70
    -2
  9
$DIMTMOVE
 70
     0
  9
$LUNITS
 70
     2
  9
$LUPREC
 70
     4
  9
$SKETCHINC
 40
0.1
  9
$FILLETRAD
 40
0.5
  9
$AUNITS
 70
     0
  9
$AUPREC
 70
     0
  9
$MENU
  1
.
  9
$ELEVATION
 40
0.0
  9
$PELEVATION
 40
0.0
  9
$THICKNESS
 40
0.0
  9
$LIMCHECK
 70
     0
  9
$CHAMFERA
 40
0.5
  9
$CHAMFERB
 40
0.5
  9
$CHAMFERC
 40
1.0
  9
$CHAMFERD
 40
0.0
  9
$SKPOLY
 70
     0
  9
$TDCREATE
 40
2452380.98081875
  9
$TDUCREATE
 40
2452380.897485417
  9
$TDUPDATE
 40
2457176.737279815
  9
$TDUUPDATE
 40
2457176.653946482
  9
$TDINDWG
 40
0.0040921296
  9
$TDUSRTIMER
 40
0.0040921296
  9
$USRTIMER
 70
     1
  9
$ANGBASE
 50
0.0
  9
$ANGDIR
 70
     0
  9
$PDMODE
 70
     0
  9
$PDSIZE
 40
0.0
  9
$PLINEWID
 40
0.0
  9
$SPLFRAME
 70
     0
  9
$SPLINETYPE
 70
     6
  9
$SPLINESEGS
 70
     8
  9
$HANDSEED
  5
45C
  9
$SURFTAB1
 70
     6
  9
$SURFTAB2
 70
     6
  9
$SURFTYPE
 70
     6
  9
$SURFU
 70
     6
  9
$SURFV
 70
     6
  9
$UCSBASE
  2

  9
$UCSNAME
  2

  9
$UCSORG
 10
0.0
 20
0.0
 30
0.0
  9
$UCSXDIR
 10
1.0
 20
0.0
 30
0.0
  9
$UCSYDIR
 10
0.0
 20
1.0
 30
0.0
  9
$UCSORTHOREF
  2

  9
$UCSORTHOVIEW
 70
     0
  9
$UCSORGTOP
 10
0.0
 20
0.0
 30
0.0
  9
$UCSORGBOTTOM
 10
0.0
 20
0.0
 30
0.0
  9
$UCSORGLEFT
 10
0.0
 20
0.0
 30
0.0
  9
$UCSORGRIGHT
 10
0.0
 20
0.0
 30
0.0
  9
$UCSORGFRONT
 10
0.0
 20
0.0
 30
0.0
  9
$UCSORGBACK
 10
0.0
 20
0.0
 30
0.0
  9
$PUCSBASE
  2

  9
$PUCSNAME
  2

  9
$PUCSORG
 10
0.0
 20
0.0
 30
0.0
  9
$PUCSXDIR
 10
1.0
 20
0.0
 30
0.0
  9
$PUCSYDIR
 10
0.0
 20
1.0
 30
0.0
  9
$PUCSORTHOREF
  2

  9
$PUCSORTHOVIEW
 70
     0
  9
$PUCSORGTOP
 10
0.0
 20
0.0
 30
0.0
  9
$PUCSORGBOTTOM
 10
0.0
 20
0.0
 30
0.0
  9
$PUCSORGLEFT
 10
0.0
 20
0.0
 30
0.0
  9
$PUCSORGRIGHT
 10
0.0
 20
0.0
 30
0.0
  9
$PUCSORGFRONT
 10
0.0
 20
0.0
 30
0.0
  9
$PUCSORGBACK
 10
0.0
 20
0.0
 30
0.0
  9
$USERI1
 70
     0
  9
$USERI2
 70
     0
  9
$USERI3
 70
     0
  9
$USERI4
 70
     0
  9
$USERI5
 70
     0
  9
$USERR1
 40
0.0
  9
$USERR2
 40
0.0
  9
$USERR3
 40
0.0
  9
$USERR4
 40
0.0
  9
$USERR5
 40
0.0
  9
$WORLDVIEW
 70
     1
  9
$SHADEDGE
 70
     3
  9
$SHADEDIF
 70
    70
  9
$TILEMODE
 70
     1
  9
$MAXACTVP
 70
    64
  9
$PINSBASE
 10
0.0
 20
0.0
 30
0.0
  9
$PLIMCHECK
 70
     0
  9
$PEXTMIN
 10
1.000000000000000E+20
 20
1.000000000000000E+20
 30
1.000000000000000E+20
  9
$PEXTMAX
 10
-1.000000000000000E+20
 20
-1.000000000000000E+20
 30
-1.000000000000000E+20
  9
$PLIMMIN
 10
0.0
 20
0.0
  9
$PLIMMAX
 10
12.0
 20
9.0
  9
$UNITMODE
 70
     0
  9
$VISRETAIN
 70
     1
  9
$PLINEGEN
 70
     0
  9
$PSLTSCALE
 70
     1
  9
$TREEDEPTH
 70
  3020
  9
$CMLSTYLE
  2
Standard
  9
$CMLJUST
 70
     0
  9
$CMLSCALE
 40
1.0
  9
$PROXYGRAPHICS
 70
     1
  9
$MEASUREMENT
 70
     0
  9
$CELWEIGHT
370
    -1
  9
$ENDCAPS
280
     0
  9
$JOINSTYLE
280
     0
  9
$LWDISPLAY
290
     1
  9
$INSUNITS
 70
     4
  9
$HYPERLINKBASE
  1

  9
$STYLESHEET
  1

  9
$XEDIT
290
     1
  9
$CEPSNTYPE
380
     0
  9
$PSTYLEMODE
290
     1
  9
$FINGERPRINTGUID
  2
{2DA8D5D2-0A6F-4433-BE9F-7C818D36D6ED}
  9
$VERSIONGUID
  2
{A098EE71-2063-4C44-BF23-3920F6FD3DB3}
  9
$EXTNAMES
290
     1
  9
$PSVPSCALE
 40
0.0
  9
$OLESTARTUP
290
     0
  9
$SORTENTS
280
   127
  9
$INDEXCTL
280
     0
  9
$HIDETEXT
280
     1
  9
$XCLIPFRAME
290
     0
  9
$HALOGAP
280
     0
  9
$OBSCOLOR
 70
   257
  9
$OBSLTYPE
280
     0
  9
$INTERSECTIONDISPLAY
280
     0
  9
$INTERSECTIONCOLOR
 70
   257
  9
$DIMASSOC
280
     1
  9
$PROJECTNAME
  1

  0
ENDSEC
  0
SECTION
  2
CLASSES
  0
CLASS
  1
ACDBDICTIONARYWDFLT
  2
AcDbDictionaryWithDefault
  3
ObjectDBX Classes
 90
        0
 91
        4
280
     0
281
     0
  0
CLASS
  1
ACDBPLACEHOLDER
  2
AcDbPlaceHolder
  3
ObjectDBX Classes
 90
        0
 91
        1
280
     0
281
     0
  0
CLASS
  1
LAYOUT
  2
AcDbLayout
  3
ObjectDBX Classes
 90
        0
 91
        1
280
     0
281
     0
  0
CLASS
  1
DICTIONARYVAR
  2
AcDbDictionaryVar
  3
ObjectDBX Classes
 90
        0
 91
        4
280
     0
281
     0
  0
CLASS
  1
VISUALSTYLE
  2
AcDbVisualStyle
  3
ObjectDBX Classes
 90
     4095
 91
        4
280
     0
281
     0
  0
CLASS
  1
SCALE
  2
AcDbScale
  3
ObjectDBX Classes
 90
     1153
 91
        4
280
     0
281
     0
  0
CLASS
  1
MATERIAL
  2
AcDbMaterial
  3
ObjectDBX Classes
 90
     1153
 91
        4
280
     0
281
     0
  0
CLASS
  1
RASTERVARIABLES
  2
AcDbRasterVariables
  3
ISM
 90
        0
 91
        4
280
     0
281
     0
  0
CLASS
  1
SUN
  2
AcDbSun
  3
SCENEOE
 90
     1153
 91
        4
280
     0
281
     0
  0
ENDSEC
  0
SECTION
  2
TABLES
  0
TABLE
  2
VPORT
  5
8
102
{ACAD_XDICTIONARY
360
41E
102
}
330
0
100
AcDbSymbolTable
 70
     2
  0
VPORT
  5
55
330
8
100
AcDbSymbolTableRecord
100
AcDbViewportTableRecord
  2
*Active
 70
     0
 10
0.0
 20
0.0
 11
1.0
 21
1.0
 12
0.0
 22
0.0
 13
0.0
 23
0.0
 14
0.5
 24
0.5
 15
0.5
 25
0.5
 16
0.0
 26
0.0
 36
1.0
 17
34.08545601917255
 27
32.04360432181021
 37
0.0
 40
2.234668276846378
 41
2.303052731720013
 42
50.0
 43
0.0
 44
0.0
 50
0.0
 51
0.0
 71
     8
 72
   100
 73
     1
 74
     3
 75
     0
 76
     0
 77
     0
 78
     0
281
     0
 65
     1
110
0.0
120
0.0
130
0.0
111
1.0
121
0.0
131
0.0
112
0.0
122
1.0
132
0.0
 79
     0
146
0.0
  0
ENDTAB
  0
TABLE
  2
LTYPE
  5
5
330
0
100
AcDbSymbolTable
 70
    25
  0
LTYPE
  5
14
330
5
100
AcDbSymbolTableRecord
100
AcDbLinetypeTableRecord
  2
ByBlock
 70
     0
  3

 72
    65
 73
     0
 40
0.0
  0
LTYPE
  5
15
330
5
100
AcDbSymbolTableRecord
100
AcDbLinetypeTableRecord
  2
ByLayer
 70
     0
  3

 72
    65
 73
     0
 40
0.0
  0
LTYPE
  5
16
330
5
100
AcDbSymbolTableRecord
100
AcDbLinetypeTableRecord
  2
Continuous
 70
     0
  3
Solid line
 72
    65
 73
     0
 40
0.0
  0
LTYPE
  5
2D
330
5
100
AcDbSymbolTableRecord
100
AcDbLinetypeTableRecord
  2
BORDER
 70
     0
  3
Border __ __ . __ __ . __ __ . __ __ . __ __ .
 72
    65
 73
     6
 40
1.75
 49
0.5
 74
     0
 49
-0.25
 74
     0
 49
0.5
 74
     0
 49
-0.25
 74
     0
 49
0.0
 74
     0
 49
-0.25
 74
     0
  0
LTYPE
  5
2E
330
5
100
AcDbSymbolTableRecord
100
AcDbLinetypeTableRecord
  2
BORDER2
 70
     0
  3
Border (.5x) __.__.__.__.__.__.__.__.__.__.__.
 72
    65
 73
     6
 40
0.875
 49
0.25
 74
     0
 49
-0.125
 74
     0
 49
0.25
 74
     0
 49
-0.125
 74
     0
 49
0.0
 74
     0
 49
-0.125
 74
     0
  0
LTYPE
  5
2F
330
5
100
AcDbSymbolTableRecord
100
AcDbLinetypeTableRecord
  2
BORDERX2
 70
     0
  3
Border (2x) ____  ____  .  ____  ____  .  ___
 72
    65
 73
     6
 40
3.5
 49
1.0
 74
     0
 49
-0.5
 74
     0
 49
1.0
 74
     0
 49
-0.5
 74
     0
 49
0.0
 74
     0
 49
-0.5
 74
     0
  0
LTYPE
  5
30
330
5
100
AcDbSymbolTableRecord
100
AcDbLinetypeTableRecord
  2
CENTER
 70
     0
  3
Center ____ _ ____ _ ____ _ ____ _ ____ _ ____
 72
    65
 73
     4
 40
2.0
 49
1.25
 74
     0
 49
-0.25
 74
     0
 49
0.25
 74
     0
 49
-0.25
 74
     0
  0
LTYPE
  5
31
330
5
100
AcDbSymbolTableRecord
100
AcDbLinetypeTableRecord
  2
CENTER2
 70
     0
  3
Center (.5x) ___ _ ___ _ ___ _ ___ _ ___ _ ___
 72
    65
 73
     4
 40
1.125
 49
0.75
 74
     0
 49
-0.125
 74
     0
 49
0.125
 74
     0
 49
-0.125
 74
     0
  0
LTYPE
  5
32
330
5
100
AcDbSymbolTableRecord
100
AcDbLinetypeTableRecord
  2
CENTERX2
 70
     0
  3
Center (2x) ________  __  ________  __  _____
 72
    65
 73
     4
 40
4.0
 49
2.5
 74
     0
 49
-0.5
 74
     0
 49
0.5
 74
     0
 49
-0.5
 74
     0
  0
LTYPE
  5
33
330
5
100
AcDbSymbolTableRecord
100
AcDbLinetypeTableRecord
  2
DASHDOT
 70
     0
  3
Dash dot __ . __ . __ . __ . __ . __ . __ . __
 72
    65
 73
     4
 40
1.0
 49
0.5
 74
     0
 49
-0.25
 74
     0
 49
0.0
 74
     0
 49
-0.25
 74
     0
  0
LTYPE
  5
34
330
5
100
AcDbSymbolTableRecord
100
AcDbLinetypeTableRecord
  2
DASHDOT2
 70
     0
  3
Dash dot (.5x) _._._._._._._._._._._._._._._.
 72
    65
 73
     4
 40
0.5
 49
0.25
 74
     0
 49
-0.125
 74
     0
 49
0.0
 74
     0
 49
-0.125
 74
     0
  0
LTYPE
  5
35
330
5
100
AcDbSymbolTableRecord
100
AcDbLinetypeTableRecord
  2
DASHDOTX2
 70
     0
  3
Dash dot (2x) ____  .  ____  .  ____  .  ___
 72
    65
 73
     4
 40
2.0
 49
1.0
 74
     0
 49
-0.5
 74
     0
 49
0.0
 74
     0
 49
-0.5
 74
     0
  0
LTYPE
  5
36
330
5
100
AcDbSymbolTableRecord
100
AcDbLinetypeTableRecord
  2
DASHED
 70
     0
  3
Dashed __ __ __ __ __ __ __ __ __ __ __ __ __ _
 72
    65
 73
     2
 40
0.75
 49
0.5
 74
     0
 49
-0.25
 74
     0
  0
LTYPE
  5
37
330
5
100
AcDbSymbolTableRecord
100
AcDbLinetypeTableRecord
  2
DASHED2
 70
     0
  3
Dashed (.5x) _ _ _ _ _ _ _ _ _ _ _ _ _ _ _ _ _
 72
    65
 73
     2
 40
0.375
 49
0.25
 74
     0
 49
-0.125
 74
     0
  0
LTYPE
  5
38
330
5
100
AcDbSymbolTableRecord
100
AcDbLinetypeTableRecord
  2
DASHEDX2
 70
     0
  3
Dashed (2x) ____  ____  ____  ____  ____  ___
 72
    65
 73
     2
 40
1.5
 49
1.0
 74
     0
 49
-0.5
 74
     0
  0
LTYPE
  5
39
330
5
100
AcDbSymbolTableRecord
100
AcDbLinetypeTableRecord
  2
DIVIDE
 70
     0
  3
Divide ____ . . ____ . . ____ . . ____ . . ____
 72
    65
 73
     6
 40
1.25
 49
0.5
 74
     0
 49
-0.25
 74
     0
 49
0.0
 74
     0
 49
-0.25
 74
     0
 49
0.0
 74
     0
 49
-0.25
 74
     0
  0
LTYPE
  5
3A
330
5
100
AcDbSymbolTableRecord
100
AcDbLinetypeTableRecord
  2
DIVIDE2
 70
     0
  3
Divide (.5x) __..__..__..__..__..__..__..__.._
 72
    65
 73
     6
 40
0.625
 49
0.25
 74
     0
 49
-0.125
 74
     0
 49
0.0
 74
     0
 49
-0.125
 74
     0
 49
0.0
 74
     0
 49
-0.125
 74
     0
  0
LTYPE
  5
3B
330
5
100
AcDbSymbolTableRecord
100
AcDbLinetypeTableRecord
  2
DIVIDEX2
 70
     0
  3
Divide (2x) ________  .  .  ________  .  .  _
 72
    65
 73
     6
 40
2.5
 49
1.0
 74
     0
 49
-0.5
 74
     0
 49
0.0
 74
     0
 49
-0.5
 74
     0
 49
0.0
 74
     0
 49
-0.5
 74
     0
  0
LTYPE
  5
3C
330
5
100
AcDbSymbolTableRecord
100
AcDbLinetypeTableRecord
  2
DOT
 70
     0
  3
Dot . . . . . . . . . . . . . . . . . . . . . .
 72
    65
 73
     2
 40
0.25
 49
0.0
 74
     0
 49
-0.25
 74
     0
  0
LTYPE
  5
3D
330
5
100
AcDbSymbolTableRecord
100
AcDbLinetypeTableRecord
  2
DOT2
 70
     0
  3
Dot (.5x) .....................................
 72
    65
 73
     2
 40
0.125
 49
0.0
 74
     0
 49
-0.125
 74
     0
  0
LTYPE
  5
3E
330
5
100
AcDbSymbolTableRecord
100
AcDbLinetypeTableRecord
  2
DOTX2
 70
     0
  3
Dot (2x) .  .  .  .  .  .  .  .  .  .  .  .  . 
 72
    65
 73
     2
 40
0.5
 49
0.0
 74
     0
 49
-0.5
 74
     0
  0
LTYPE
  5
3F
330
5
100
AcDbSymbolTableRecord
100
AcDbLinetypeTableRecord
  2
HIDDEN
 70
     0
  3
Hidden __ __ __ __ __ __ __ __ __ __ __ __ __ _
 72
    65
 73
     2
 40
0.375
 49
0.25
 74
     0
 49
-0.125
 74
     0
  0
LTYPE
  5
40
330
5
100
AcDbSymbolTableRecord
100
AcDbLinetypeTableRecord
  2
HIDDEN2
 70
     0
  3
Hidden (.5x) _ _ _ _ _ _ _ _ _ _ _ _ _ _ _ _ _
 72
    65
 73
     2
 40
0.1875
 49
0.125
 74
     0
 49
-0.0625
 74
     0
  0
LTYPE
  5
41
330
5
100
AcDbSymbolTableRecord
100
AcDbLinetypeTableRecord
  2
HIDDENX2
 70
     0
  3
Hidden (2x) ____ ____ ____ ____ ____ ____ ____
 72
    65
 73
     2
 40
0.75
 49
0.5
 74
     0
 49
-0.25
 74
     0
  0
LTYPE
  5
42
330
5
100
AcDbSymbolTableRecord
100
AcDbLinetypeTableRecord
  2
PHANTOM
 70
     0
  3
Phantom ______  __  __  ______  __  __  ______
 72
    65
 73
     6
 40
2.5
 49
1.25
 74
     0
 49
-0.25
 74
     0
 49
0.25
 74
     0
 49
-0.25
 74
     0
 49
0.25
 74
     0
 49
-0.25
 74
     0
  0
LTYPE
  5
43
330
5
100
AcDbSymbolTableRecord
100
AcDbLinetypeTableRecord
  2
PHANTOM2
 70
     0
  3
Phantom (.5x) ___ _ _ ___ _ _ ___ _ _ ___ _ _
 72
    65
 73
     6
 40
1.25
 49
0.625
 74
     0
 49
-0.125
 74
     0
 49
0.125
 74
     0
 49
-0.125
 74
     0
 49
0.125
 74
     0
 49
-0.125
 74
     0
  0
LTYPE
  5
44
330
5
100
AcDbSymbolTableRecord
100
AcDbLinetypeTableRecord
  2
PHANTOMX2
 70
     0
  3
Phantom (2x) ____________    ____    ____   _
 72
    65
 73
     6
 40
5.0
 49
2.5
 74
     0
 49
-0.5
 74
     0
 49
0.5
 74
     0
 49
-0.5
 74
     0
 49
0.5
 74
     0
 49
-0.5
 74
     0
  0
ENDTAB
  0
TABLE
  2
LAYER
  5
2
330
0
100
AcDbSymbolTable
 70
     2
  0
LAYER
  5
10
330
2
100
AcDbSymbolTableRecord
100
AcDbLayerTableRecord
  2
0
 70
     0
 62
     7
  6
Continuous
370
    -3
390
F
  0
LAYER
  5
97
330
2
100
AcDbSymbolTableRecord
100
AcDbLayerTableRecord
  2
1
 70
     0
 62
     7
  6
Continuous
370
     0
390
F
  0
ENDTAB
  0
TABLE
  2
STYLE
  5
3
330
0
100
AcDbSymbolTable
 70
     4
  0
STYLE
  5
11
330
3
100
AcDbSymbolTableRecord
100
AcDbTextStyleTableRecord
  2
Standard
 70
     0
 40
0.0
 41
1.0
 50
0.0
 71
     0
 42
0.2
  3
txt
  4

  0
STYLE
  5
2C
330
3
100
AcDbSymbolTableRecord
100
AcDbTextStyleTableRecord
  2

 70
     1
 40
0.0
 41
1.0
 50
0.0
 71
     0
 42
0.2
  3
ltypeshp.shx
  4

  0
STYLE
  5
4A
330
3
100
AcDbSymbolTableRecord
100
AcDbTextStyleTableRecord
  2
Simplex
 70
     0
 40
0.0
 41
1.0
 50
0.0
 71
     0
 42
0.2
  3
simplex.shx
  4

  0
STYLE
  5
4B
330
3
100
AcDbSymbolTableRecord
100
AcDbTextStyleTableRecord
  2
BigFont
 70
     0
 40
0.0
 41
1.0
 50
0.0
 71
     0
 42
0.2
  3
simplex.shx
  4
bigfont.shx
  0
ENDTAB
  0
TABLE
  2
VIEW
  5
6
330
0
100
AcDbSymbolTable
 70
     0
  0
ENDTAB
  0
TABLE
  2
UCS
  5
7
330
0
100
AcDbSymbolTable
 70
     0
  0
ENDTAB
  0
TABLE
  2
APPID
  5
9
330
0
100
AcDbSymbolTable
 70
     1
  0
APPID
  5
12
330
9
100
AcDbSymbolTableRecord
100
AcDbRegAppTableRecord
  2
ACAD
 70
     0
  0
ENDTAB
  0
TABLE
  2
DIMSTYLE
  5
A
330
0
100
AcDbSymbolTable
 70
     1
100
AcDbDimStyleTable
  0
DIMSTYLE
105
27
330
A
100
AcDbSymbolTableRecord
100
AcDbDimStyleTableRecord
  2
Standard
 70
     0
178
     0
340
11
  0
ENDTAB
  0
TABLE
  2
BLOCK_RECORD
  5
1
330
0
100
AcDbSymbolTable
 70
     1
  0
BLOCK_RECORD
  5
1F
330
1
100
AcDbSymbolTableRecord
100
AcDbBlockTableRecord
  2
*Model_Space
340
22
  0
BLOCK_RECORD
  5
1B
330
1
100
AcDbSymbolTableRecord
100
AcDbBlockTableRecord
  2
*Paper_Space
340
1E
  0
ENDTAB
  0
ENDSEC
  0
SECTION
  2
BLOCKS
  0
BLOCK
  5
20
330
1F
100
AcDbEntity
  8
0
100
AcDbBlockBegin
  2
*Model_Space
 70
     0
 10
0.0
 20
0.0
 30
0.0
  3
*Model_Space
  1
*Model_Space
  0
ENDBLK
  5
21
330
1F
100
AcDbEntity
  8
0
100
AcDbBlockEnd
  0
BLOCK
  5
1C
330
1B
100
AcDbEntity
 67
     1
  8
0
100
AcDbBlockBegin
  2
*Paper_Space
 70
     0
 10
0.0
 20
0.0
 30
0.0
  3
*Paper_Space
  1
*Paper_Space
  0
ENDBLK
  5
1D
330
1B
100
AcDbEntity
 67
     1
  8
0
100
AcDbBlockEnd
  0
ENDSEC
  0
SECTION
  2
ENTITIES
  0
POLYLINE
  5
98
330
1F
100
AcDbEntity
  8
1
  6
Continuous
 62
     7
 48
2.0
370
     0
100
AcDb2dPolyline
 66
     1
 10
0.0
 20
0.0
 30
0.0
 70
   128
  0
VERTEX
  5
99
330
98
100
AcDbEntity
  8
1
  6
Continuous
 62
     7
 48
2.0
100
AcDbVertex
100
AcDb2dVertex
 10
0.8779105623088128
 20
-0.8560218450245927
 30
0.0
  0
VERTEX
  5
9A
330
98
100
AcDbEntity
  8
1
  6
Continuous
 62
     7
 48
2.0
100
AcDbVertex
100
AcDb2dVertex
 10
0.9833288803150069
 20
-0.8506157776707859
 30
0.0
  0
VERTEX
  5
9B
330
98
100
AcDbEntity
  8
1
  6
Continuous
 62
     7
 48
2.0
100
AcDbVertex
100
AcDb2dVertex
 10
1.284717148460942
 20
-0.8506157776707859
 30
0.0
  0
VERTEX
  5
9C
330
98
100
AcDbEntity
  8
1
  6
Continuous
 62
     7
 48
2.0
100
AcDbVertex
100
AcDb2dVertex
 10
1.53069322380874
 20
-0.8546703281861383
 30
0.0
  0
VERTEX
  5
9D
330
98
100
AcDbEntity
  8
1
  6
Continuous
 62
     7
 48
2.0
100
AcDbVertex
100
AcDb2dVertex
 10
1.610432720762148
 20
-0.8546703281861383
 30
0.0
  0
SEQEND
  5
9E
330
98
100
AcDbEntity
  8
1
  6
Continuous
 62
     7
 48
2.0
370
     0
  0
POLYLINE
  5
9F
330
1F
100
AcDbEntity
  8
1
  6
Continuous
 62
     7
 48
2.0
370
     0
100
AcDb2dPolyline
 66
     1
 10
0.0
 20
0.0
 30
0.0
 70
   128
  0
VERTEX
  5
A0
330
9F
100
AcDbEntity
  8
1
  6
Continuous
 62
     7
 48
2.0
100
AcDbVertex
100
AcDb2dVertex
 10
2.079409084199987
 20
-0.2897362897134563
 30
0.0
  0
VERTEX
  5
A1
330
9F
100
AcDbEntity
  8
1
  6
Continuous
 62
     7
 48
2.0
100
AcDbVertex
100
AcDb2dVertex
 10
2.05913633073726
 20
-0.3748818505358926
 30
0.0
  0
VERTEX
  5
A2
330
9F
100
AcDbEntity
  8
1
  6
Continuous
 62
     7
 48
2.0
100
AcDbVertex
100
AcDb2dVertex
 10
2.034809026581975
 20
-0.4600274113583325
 30
0.0
  0
SEQEND
  5
A3
330
9F
100
AcDbEntity
  8
1
  6
Continuous
 62
     7
 48
2.0
370
     0
  0
POLYLINE
  5
A4
330
1F
100
AcDbEntity
  8
1
  6
Continuous
 62
     7
 48
2.0
370
     0
100
AcDb2dPolyline
 66
     1
 10
0.0
 20
0.0
 30
0.0
 70
   128
  0
VERTEX
  5
A5
330
A4
100
AcDbEntity
  8
1
  6
Continuous
 62
     7
 48
2.0
100
AcDbVertex
100
AcDb2dVertex
 10
1.969936215501235
 20
-0.528954770119352
 30
0.0
  0
VERTEX
  5
A6
330
A4
100
AcDbEntity
  8
1
  6
Continuous
 62
     7
 48
2.0
100
AcDbVertex
100
AcDb2dVertex
 10
2.037512060377011
 20
-0.4600274113583325
 30
0.0
  0
VERTEX
  5
A7
330
A4
100
AcDbEntity
  8
1
  6
Continuous
 62
     7
 48
2.0
100
AcDbVertex
100
AcDb2dVertex
 10
2.148336445973271
 20
-0.3775848842127978
 30
0.0
  0
VERTEX
  5
A8
330
A4
100
AcDbEntity
  8
1
  6
Continuous
 62
     7
 48
2.0
100
AcDbVertex
100
AcDb2dVertex
 10
2.071299982814892
 20
-0.5127365680579388
 30
0.0
  0
VERTEX
  5
A9
330
A4
100
AcDbEntity
  8
1
  6
Continuous
 62
     7
 48
2.0
100
AcDbVertex
100
AcDb2dVertex
 10
2.002372621041609
 20
-0.6073427467495343
 30
0.0
  0
VERTEX
  5
AA
330
A4
100
AcDbEntity
  8
1
  6
Continuous
 62
     7
 48
2.0
100
AcDbVertex
100
AcDb2dVertex
 10
1.930742225473296
 20
-0.6695125213182997
 30
0.0
  0
VERTEX
  5
AB
330
A4
100
AcDbEntity
  8
1
  6
Continuous
 62
     7
 48
2.0
100
AcDbVertex
100
AcDb2dVertex
 10
1.855057279212431
 20
-0.7154640938256449
 30
0.0
  0
VERTEX
  5
AC
330
A4
100
AcDbEntity
  8
1
  6
Continuous
 62
     7
 48
2.0
100
AcDbVertex
100
AcDb2dVertex
 10
1.784778400541633
 20
-0.7506035316253801
 30
0.0
  0
VERTEX
  5
AD
330
A4
100
AcDbEntity
  8
1
  6
Continuous
 62
     7
 48
2.0
100
AcDbVertex
100
AcDb2dVertex
 10
1.692875251510586
 20
-0.7708762842021528
 30
0.0
  0
VERTEX
  5
AE
330
A4
100
AcDbEntity
  8
1
  6
Continuous
 62
     7
 48
2.0
100
AcDbVertex
100
AcDb2dVertex
 10
1.680711599432954
 20
-0.758712632656092
 30
0.0
  0
VERTEX
  5
AF
330
A4
100
AcDbEntity
  8
1
  6
Continuous
 62
     7
 48
2.0
100
AcDbVertex
100
AcDb2dVertex
 10
1.634760024917426
 20
-0.754658082140736
 30
0.0
  0
VERTEX
  5
B0
330
A4
100
AcDbEntity
  8
1
  6
Continuous
 62
     7
 48
2.0
100
AcDbVertex
100
AcDb2dVertex
 10
1.523935639321166
 20
-0.7560095989791868
 30
0.0
  0
VERTEX
  5
B1
330
A4
100
AcDbEntity
  8
1
  6
Continuous
 62
     7
 48
2.0
100
AcDbVertex
100
AcDb2dVertex
 10
1.498256818268374
 20
-0.7479004979484785
 30
0.0
  0
VERTEX
  5
B2
330
A4
100
AcDbEntity
  8
1
  6
Continuous
 62
     7
 48
2.0
100
AcDbVertex
100
AcDb2dVertex
 10
1.529341706911225
 20
-0.7357368464024141
 30
0.0
  0
VERTEX
  5
B3
330
A4
100
AcDbEntity
  8
1
  6
Continuous
 62
     7
 48
2.0
100
AcDbVertex
100
AcDb2dVertex
 10
1.617190305249721
 20
-0.7195186443410009
 30
0.0
  0
VERTEX
  5
B4
330
A4
100
AcDbEntity
  8
1
  6
Continuous
 62
     7
 48
2.0
100
AcDbVertex
100
AcDb2dVertex
 10
1.705038903588225
 20
-0.6938398244104249
 30
0.0
  0
VERTEX
  5
B5
330
A4
100
AcDbEntity
  8
1
  6
Continuous
 62
     7
 48
2.0
100
AcDbVertex
100
AcDb2dVertex
 10
1.782075366746604
 20
-0.6573488697722354
 30
0.0
  0
VERTEX
  5
B6
330
A4
100
AcDbEntity
  8
1
  6
Continuous
 62
     7
 48
2.0
100
AcDbVertex
100
AcDb2dVertex
 10
1.878033066470195
 20
-0.5911245446881175
 30
0.0
  0
VERTEX
  5
B7
330
A4
100
AcDbEntity
  8
1
  6
Continuous
 62
     7
 48
2.0
100
AcDbVertex
100
AcDb2dVertex
 10
1.968584698603728
 20
-0.5303062869578028
 30
0.0
  0
SEQEND
  5
B8
330
A4
100
AcDbEntity
  8
1
  6
Continuous
 62
     7
 48
2.0
370
     0
  0
POLYLINE
  5
B9
330
1F
100
AcDbEntity
  8
1
  6
Continuous
 62
     7
 48
2.0
370
     0
100
AcDb2dPolyline
 66
     1
 10
0.0
 20
0.0
 30
0.0
 70
   128
  0
VERTEX
  5
BA
330
B9
100
AcDbEntity
  8
1
  6
Continuous
 62
     7
 48
2.0
100
AcDbVertex
100
AcDb2dVertex
 10
2.156445547358366
 20
-0.3059544917748767
 30
0.0
  0
VERTEX
  5
BB
330
B9
100
AcDbEntity
  8
1
  6
Continuous
 62
     7
 48
2.0
100
AcDbVertex
100
AcDb2dVertex
 10
2.103736388355259
 20
-0.3546090979591234
 30
0.0
  0
VERTEX
  5
BC
330
B9
100
AcDbEntity
  8
1
  6
Continuous
 62
     7
 48
2.0
100
AcDbVertex
100
AcDb2dVertex
 10
1.999669587246579
 20
-0.4208334230432413
 30
0.0
  0
VERTEX
  5
BD
330
B9
100
AcDbEntity
  8
1
  6
Continuous
 62
     7
 48
2.0
100
AcDbVertex
100
AcDb2dVertex
 10
1.936148293063354
 20
-0.4640819618736884
 30
0.0
  0
VERTEX
  5
BE
330
B9
100
AcDbEntity
  8
1
  6
Continuous
 62
     7
 48
2.0
100
AcDbVertex
100
AcDb2dVertex
 10
1.807754187799389
 20
-0.5695002752728939
 30
0.0
  0
VERTEX
  5
BF
330
B9
100
AcDbEntity
  8
1
  6
Continuous
 62
     7
 48
2.0
100
AcDbVertex
100
AcDb2dVertex
 10
1.667196430457793
 20
-0.6559973529337846
 30
0.0
  0
VERTEX
  5
C0
330
B9
100
AcDbEntity
  8
1
  6
Continuous
 62
     7
 48
2.0
100
AcDbVertex
100
AcDb2dVertex
 10
1.579347832119296
 20
-0.6897852738950689
 30
0.0
  0
VERTEX
  5
C1
330
B9
100
AcDbEntity
  8
1
  6
Continuous
 62
     7
 48
2.0
100
AcDbVertex
100
AcDb2dVertex
 10
1.449602209957817
 20
-0.7114095433102889
 30
0.0
  0
VERTEX
  5
C2
330
B9
100
AcDbEntity
  8
1
  6
Continuous
 62
     7
 48
2.0
100
AcDbVertex
100
AcDb2dVertex
 10
1.367159679209379
 20
-0.7168156106640957
 30
0.0
  0
SEQEND
  5
C3
330
B9
100
AcDbEntity
  8
1
  6
Continuous
 62
     7
 48
2.0
370
     0
  0
POLYLINE
  5
C4
330
1F
100
AcDbEntity
  8
1
  6
Continuous
 62
     7
 48
2.0
370
     0
100
AcDb2dPolyline
 66
     1
 10
0.0
 20
0.0
 30
0.0
 70
   128
  0
VERTEX
  5
C5
330
C4
100
AcDbEntity
  8
1
  6
Continuous
 62
     7
 48
2.0
100
AcDbVertex
100
AcDb2dVertex
 10
1.496905301370859
 20
-0.7451974642715768
 30
0.0
  0
VERTEX
  5
C6
330
C4
100
AcDbEntity
  8
1
  6
Continuous
 62
     7
 48
2.0
100
AcDbVertex
100
AcDb2dVertex
 10
1.4131112537249
 20
-0.7533065653022852
 30
0.0
  0
VERTEX
  5
C7
330
C4
100
AcDbEntity
  8
1
  6
Continuous
 62
     7
 48
2.0
100
AcDbVertex
100
AcDb2dVertex
 10
1.369862713004409
 20
-0.7519550484638344
 30
0.0
  0
VERTEX
  5
C8
330
C4
100
AcDbEntity
  8
1
  6
Continuous
 62
     7
 48
2.0
100
AcDbVertex
100
AcDb2dVertex
 10
1.325262655386403
 20
-0.7397913969177701
 30
0.0
  0
VERTEX
  5
C9
330
C4
100
AcDbEntity
  8
1
  6
Continuous
 62
     7
 48
2.0
100
AcDbVertex
100
AcDb2dVertex
 10
1.29958383433361
 20
-0.7208701611794517
 30
0.0
  0
SEQEND
  5
CA
330
C4
100
AcDbEntity
  8
1
  6
Continuous
 62
     7
 48
2.0
370
     0
  0
POLYLINE
  5
CB
330
1F
100
AcDbEntity
  8
1
  6
Continuous
 62
     7
 48
2.0
370
     0
100
AcDb2dPolyline
 66
     1
 10
0.0
 20
0.0
 30
0.0
 70
   128
  0
VERTEX
  5
CC
330
CB
100
AcDbEntity
  8
1
  6
Continuous
 62
     7
 48
2.0
100
AcDbVertex
100
AcDb2dVertex
 10
1.488796199985764
 20
-0.758712632656092
 30
0.0
  0
VERTEX
  5
CD
330
CB
100
AcDbEntity
  8
1
  6
Continuous
 62
     7
 48
2.0
100
AcDbVertex
100
AcDb2dVertex
 10
1.398244567852231
 20
-0.765470216848346
 30
0.0
  0
VERTEX
  5
CE
330
CB
100
AcDbEntity
  8
1
  6
Continuous
 62
     7
 48
2.0
100
AcDbVertex
100
AcDb2dVertex
 10
1.222547371175231
 20
-0.765470216848346
 30
0.0
  0
VERTEX
  5
CF
330
CB
100
AcDbEntity
  8
1
  6
Continuous
 62
     7
 48
2.0
100
AcDbVertex
100
AcDb2dVertex
 10
1.088747198321208
 20
-0.7600641494945428
 30
0.0
  0
VERTEX
  5
D0
330
CB
100
AcDbEntity
  8
1
  6
Continuous
 62
     7
 48
2.0
100
AcDbVertex
100
AcDb2dVertex
 10
0.9468379240820965
 20
-0.7492520147869293
 30
0.0
  0
VERTEX
  5
D1
330
CB
100
AcDbEntity
  8
1
  6
Continuous
 62
     7
 48
2.0
100
AcDbVertex
100
AcDb2dVertex
 10
0.7778983118926703
 20
-0.7222216780179025
 30
0.0
  0
VERTEX
  5
D2
330
CB
100
AcDbEntity
  8
1
  6
Continuous
 62
     7
 48
2.0
100
AcDbVertex
100
AcDb2dVertex
 10
0.5413828548274822
 20
-0.6911367907335197
 30
0.0
  0
VERTEX
  5
D3
330
CB
100
AcDbEntity
  8
1
  6
Continuous
 62
     7
 48
2.0
100
AcDbVertex
100
AcDb2dVertex
 10
0.2818916105045304
 20
-0.6735670718336522
 30
0.0
  0
SEQEND
  5
D4
330
CB
100
AcDbEntity
  8
1
  6
Continuous
 62
     7
 48
2.0
370
     0
  0
POLYLINE
  5
D5
330
1F
100
AcDbEntity
  8
1
  6
Continuous
 62
     7
 48
2.0
370
     0
100
AcDb2dPolyline
 66
     1
 10
0.0
 20
0.0
 30
0.0
 70
   128
  0
VERTEX
  5
D6
330
D5
100
AcDbEntity
  8
1
  6
Continuous
 62
     7
 48
2.0
100
AcDbVertex
100
AcDb2dVertex
 10
1.691523734613071
 20
-0.7708762842021528
 30
0.0
  0
VERTEX
  5
D7
330
D5
100
AcDbEntity
  8
1
  6
Continuous
 62
     7
 48
2.0
100
AcDbVertex
100
AcDb2dVertex
 10
1.613135754557177
 20
-0.806015722001888
 30
0.0
  0
VERTEX
  5
D8
330
D5
100
AcDbEntity
  8
1
  6
Continuous
 62
     7
 48
2.0
100
AcDbVertex
100
AcDb2dVertex
 10
1.492850750678315
 20
-0.8708885302475551
 30
0.0
  0
SEQEND
  5
D9
330
D5
100
AcDbEntity
  8
1
  6
Continuous
 62
     7
 48
2.0
370
     0
  0
POLYLINE
  5
DA
330
1F
100
AcDbEntity
  8
1
  6
Continuous
 62
     7
 48
2.0
370
     0
100
AcDb2dPolyline
 66
     1
 10
0.0
 20
0.0
 30
0.0
 70
   128
  0
VERTEX
  5
DB
330
DA
100
AcDbEntity
  8
1
  6
Continuous
 62
     7
 48
2.0
100
AcDbVertex
100
AcDb2dVertex
 10
0.7603285922249725
 20
-0.8073672388403388
 30
0.0
  0
VERTEX
  5
DC
330
DA
100
AcDbEntity
  8
1
  6
Continuous
 62
     7
 48
2.0
100
AcDbVertex
100
AcDb2dVertex
 10
0.7981710653554046
 20
-0.8114217893556948
 30
0.0
  0
VERTEX
  5
DD
330
DA
100
AcDbEntity
  8
1
  6
Continuous
 62
     7
 48
2.0
100
AcDbVertex
100
AcDb2dVertex
 10
0.8130377512280731
 20
-0.827639991417108
 30
0.0
  0
VERTEX
  5
DE
330
DA
100
AcDbEntity
  8
1
  6
Continuous
 62
     7
 48
2.0
100
AcDbVertex
100
AcDb2dVertex
 10
0.8130377512280731
 20
-0.8560218450245927
 30
0.0
  0
VERTEX
  5
DF
330
DA
100
AcDbEntity
  8
1
  6
Continuous
 62
     7
 48
2.0
100
AcDbVertex
100
AcDb2dVertex
 10
0.7900619639703095
 20
-0.9141370690780022
 30
0.0
  0
VERTEX
  5
E0
330
DA
100
AcDbEntity
  8
1
  6
Continuous
 62
     7
 48
2.0
100
AcDbVertex
100
AcDb2dVertex
 10
0.745461906352304
 20
-0.9857674615159233
 30
0.0
  0
VERTEX
  5
E1
330
DA
100
AcDbEntity
  8
1
  6
Continuous
 62
     7
 48
2.0
100
AcDbVertex
100
AcDb2dVertex
 10
0.7197830852995182
 20
-1.010094764608048
 30
0.0
  0
VERTEX
  5
E2
330
DA
100
AcDbEntity
  8
1
  6
Continuous
 62
     7
 48
2.0
100
AcDbVertex
100
AcDb2dVertex
 10
0.6886981966566594
 20
-1.016852348800306
 30
0.0
  0
VERTEX
  5
E3
330
DA
100
AcDbEntity
  8
1
  6
Continuous
 62
     7
 48
2.0
100
AcDbVertex
100
AcDb2dVertex
 10
0.6535587573212567
 20
-1.010094764608048
 30
0.0
  0
VERTEX
  5
E4
330
DA
100
AcDbEntity
  8
1
  6
Continuous
 62
     7
 48
2.0
100
AcDbVertex
100
AcDb2dVertex
 10
0.7305952204796355
 20
-0.810070272517244
 30
0.0
  0
VERTEX
  5
E5
330
DA
100
AcDbEntity
  8
1
  6
Continuous
 62
     7
 48
2.0
100
AcDbVertex
100
AcDb2dVertex
 10
0.7589770753274578
 20
-0.8087187556787896
 30
0.0
  0
SEQEND
  5
E6
330
DA
100
AcDbEntity
  8
1
  6
Continuous
 62
     7
 48
2.0
370
     0
  0
LINE
  5
E7
330
1F
100
AcDbEntity
  8
1
  6
Continuous
 62
     7
 48
2.0
370
     0
100
AcDbLine
 10
0.7508679739423698
 20
-0.810070272517244
 30
0.0
 11
0.677886061476535
 21
-1.014149315123401
 31
0.0
  0
LINE
  5
E8
330
1F
100
AcDbEntity
  8
1
  6
Continuous
 62
     7
 48
2.0
370
     0
100
AcDbLine
 10
0.7141563426013207
 20
-0.8592902995990457
 30
0.0
 11
0.2370708777783932
 21
-0.8552357490836933
 31
0.0
  0
POLYLINE
  5
E9
330
1F
100
AcDbEntity
  8
1
  6
Continuous
 62
     7
 48
2.0
370
     0
100
AcDb2dPolyline
 66
     1
 10
0.0
 20
0.0
 30
0.0
 70
   128
  0
VERTEX
  5
EA
330
E9
100
AcDbEntity
  8
1
  6
Continuous
 62
     7
 48
2.0
100
AcDbVertex
100
AcDb2dVertex
 10
0.8224983695106829
 20
-0.8587248787014907
 30
0.0
  0
VERTEX
  5
EB
330
E9
100
AcDbEntity
  8
1
  6
Continuous
 62
     7
 48
2.0
100
AcDbVertex
100
AcDb2dVertex
 10
0.8184438188181318
 20
-0.801961171486532
 30
0.0
  0
VERTEX
  5
EC
330
E9
100
AcDbEntity
  8
1
  6
Continuous
 62
     7
 48
2.0
100
AcDbVertex
100
AcDb2dVertex
 10
0.8116862343305584
 20
-0.7776338683944104
 30
0.0
  0
VERTEX
  5
ED
330
E9
100
AcDbEntity
  8
1
  6
Continuous
 62
     7
 48
2.0
100
AcDbVertex
100
AcDb2dVertex
 10
0.7954680315603682
 20
-0.7600641494945428
 30
0.0
  0
VERTEX
  5
EE
330
E9
100
AcDbEntity
  8
1
  6
Continuous
 62
     7
 48
2.0
100
AcDbVertex
100
AcDb2dVertex
 10
0.7346497711721796
 20
-0.7384398800793193
 30
0.0
  0
VERTEX
  5
EF
330
E9
100
AcDbEntity
  8
1
  6
Continuous
 62
     7
 48
2.0
100
AcDbVertex
100
AcDb2dVertex
 10
0.5913889800355534
 20
-0.7195186443410009
 30
0.0
  0
VERTEX
  5
F0
330
E9
100
AcDbEntity
  8
1
  6
Continuous
 62
     7
 48
2.0
100
AcDbVertex
100
AcDb2dVertex
 10
0.2778370598119793
 20
-0.6965428580873265
 30
0.0
  0
SEQEND
  5
F1
330
E9
100
AcDbEntity
  8
1
  6
Continuous
 62
     7
 48
2.0
370
     0
  0
POLYLINE
  5
F2
330
1F
100
AcDbEntity
  8
1
  6
Continuous
 62
     7
 48
2.0
370
     0
100
AcDb2dPolyline
 66
     1
 10
0.0
 20
0.0
 30
0.0
 70
   128
  0
VERTEX
  5
F3
330
F2
100
AcDbEntity
  8
1
  6
Continuous
 62
     7
 48
2.0
100
AcDbVertex
100
AcDb2dVertex
 10
0.7387043218647236
 20
-0.7370883632408649
 30
0.0
  0
VERTEX
  5
F4
330
F2
100
AcDbEntity
  8
1
  6
Continuous
 62
     7
 48
2.0
100
AcDbVertex
100
AcDb2dVertex
 10
0.894128765078996
 20
-0.7735793178790544
 30
0.0
  0
VERTEX
  5
F5
330
F2
100
AcDbEntity
  8
1
  6
Continuous
 62
     7
 48
2.0
100
AcDbVertex
100
AcDb2dVertex
 10
0.9630561268522797
 20
-0.7938520704558272
 30
0.0
  0
VERTEX
  5
F6
330
F2
100
AcDbEntity
  8
1
  6
Continuous
 62
     7
 48
2.0
100
AcDbVertex
100
AcDb2dVertex
 10
0.9373773057994867
 20
-0.8046642051634372
 30
0.0
  0
VERTEX
  5
F7
330
F2
100
AcDbEntity
  8
1
  6
Continuous
 62
     7
 48
2.0
100
AcDbVertex
100
AcDb2dVertex
 10
0.8197953357156536
 20
-0.806015722001888
 30
0.0
  0
SEQEND
  5
F8
330
F2
100
AcDbEntity
  8
1
  6
Continuous
 62
     7
 48
2.0
370
     0
  0
POLYLINE
  5
F9
330
1F
100
AcDbEntity
  8
1
  6
Continuous
 62
     7
 48
2.0
370
     0
100
AcDb2dPolyline
 66
     1
 10
0.0
 20
0.0
 30
0.0
 70
   128
  0
VERTEX
  5
FA
330
F9
100
AcDbEntity
  8
1
  6
Continuous
 62
     7
 48
2.0
100
AcDbVertex
100
AcDb2dVertex
 10
0.7441103894547894
 20
-0.8087187556787896
 30
0.0
  0
VERTEX
  5
FB
330
F9
100
AcDbEntity
  8
1
  6
Continuous
 62
     7
 48
2.0
100
AcDbVertex
100
AcDb2dVertex
 10
0.7441103894547894
 20
-0.7789853852328612
 30
0.0
  0
VERTEX
  5
FC
330
F9
100
AcDbEntity
  8
1
  6
Continuous
 62
     7
 48
2.0
100
AcDbVertex
100
AcDb2dVertex
 10
0.7724922443026117
 20
-0.7695247673636985
 30
0.0
  0
VERTEX
  5
FD
330
F9
100
AcDbEntity
  8
1
  6
Continuous
 62
     7
 48
2.0
100
AcDbVertex
100
AcDb2dVertex
 10
0.8062801667404926
 20
-0.7749308347175052
 30
0.0
  0
SEQEND
  5
FE
330
F9
100
AcDbEntity
  8
1
  6
Continuous
 62
     7
 48
2.0
370
     0
  0
LINE
  5
FF
330
1F
100
AcDbEntity
  8
1
  6
Continuous
 62
     7
 48
2.0
370
     0
100
AcDbLine
 10
0.8103347174330437
 20
-0.820882407224854
 30
0.0
 11
0.8170923019206171
 21
-0.8046642051634372
 31
0.0
  0
LINE
  5
100
330
1F
100
AcDbEntity
  8
1
  6
Continuous
 62
     7
 48
2.0
370
     0
100
AcDbLine
 10
0.74140735565976
 20
-0.806015722001888
 30
0.0
 11
0.2359400359890103
 21
-0.801961171486532
 31
0.0
  0
POLYLINE
  5
101
330
1F
100
AcDbEntity
  8
1
  6
Continuous
 62
     7
 48
2.0
370
     0
100
AcDb2dPolyline
 66
     1
 10
0.0
 20
0.0
 30
0.0
 70
   128
  0
VERTEX
  5
102
330
101
100
AcDbEntity
  8
1
  6
Continuous
 62
     7
 48
2.0
100
AcDbVertex
100
AcDb2dVertex
 10
0.7184315684019964
 20
-0.8046642051634372
 30
0.0
  0
VERTEX
  5
103
330
101
100
AcDbEntity
  8
1
  6
Continuous
 62
     7
 48
2.0
100
AcDbVertex
100
AcDb2dVertex
 10
0.6995103318367839
 20
-0.7438459474331225
 30
0.0
  0
VERTEX
  5
104
330
101
100
AcDbEntity
  8
1
  6
Continuous
 62
     7
 48
2.0
100
AcDbVertex
100
AcDb2dVertex
 10
0.5576010575976724
 20
-0.7208701611794517
 30
0.0
  0
VERTEX
  5
105
330
101
100
AcDbEntity
  8
1
  6
Continuous
 62
     7
 48
2.0
100
AcDbVertex
100
AcDb2dVertex
 10
0.312976499147382
 20
-0.7033004422795841
 30
0.0
  0
SEQEND
  5
106
330
101
100
AcDbEntity
  8
1
  6
Continuous
 62
     7
 48
2.0
370
     0
  0
POLYLINE
  5
107
330
1F
100
AcDbEntity
  8
1
  6
Continuous
 62
     7
 48
2.0
370
     0
100
AcDb2dPolyline
 66
     1
 10
0.0
 20
0.0
 30
0.0
 70
   128
  0
VERTEX
  5
108
330
107
100
AcDbEntity
  8
1
  6
Continuous
 62
     7
 48
2.0
100
AcDbVertex
100
AcDb2dVertex
 10
0.9184560692342743
 20
-0.7100580264718381
 30
0.0
  0
VERTEX
  5
109
330
107
100
AcDbEntity
  8
1
  6
Continuous
 62
     7
 48
2.0
100
AcDbVertex
100
AcDb2dVertex
 10
0.9035893833615987
 20
-0.7411429137562209
 30
0.0
  0
VERTEX
  5
10A
330
107
100
AcDbEntity
  8
1
  6
Continuous
 62
     7
 48
2.0
100
AcDbVertex
100
AcDb2dVertex
 10
0.8738560116162688
 20
-0.7668217336867968
 30
0.0
  0
SEQEND
  5
10B
330
107
100
AcDbEntity
  8
1
  6
Continuous
 62
     7
 48
2.0
370
     0
  0
POLYLINE
  5
10C
330
1F
100
AcDbEntity
  8
1
  6
Continuous
 62
     7
 48
2.0
370
     0
100
AcDb2dPolyline
 66
     1
 10
0.0
 20
0.0
 30
0.0
 70
   128
  0
VERTEX
  5
10D
330
10C
100
AcDbEntity
  8
1
  6
Continuous
 62
     7
 48
2.0
100
AcDbVertex
100
AcDb2dVertex
 10
0.2878820249995684
 20
-0.6378876967228067
 30
0.0
  0
VERTEX
  5
10E
330
10C
100
AcDbEntity
  8
1
  6
Continuous
 62
     7
 48
2.0
100
AcDbVertex
100
AcDb2dVertex
 10
0.1109195782915933
 20
-0.6287793360797522
 30
0.0
  0
VERTEX
  5
10F
330
10C
100
AcDbEntity
  8
1
  6
Continuous
 62
     7
 48
2.0
100
AcDbVertex
100
AcDb2dVertex
 10
-0.3471008720114028
 20
-0.6196709754366978
 30
0.0
  0
VERTEX
  5
110
330
10C
100
AcDbEntity
  8
1
  6
Continuous
 62
     7
 48
2.0
100
AcDbVertex
100
AcDb2dVertex
 10
-1.157745021269271
 20
-0.6170685866815369
 30
0.0
  0
SEQEND
  5
111
330
10C
100
AcDbEntity
  8
1
  6
Continuous
 62
     7
 48
2.0
370
     0
  0
POLYLINE
  5
112
330
1F
100
AcDbEntity
  8
1
  6
Continuous
 62
     7
 48
2.0
370
     0
100
AcDb2dPolyline
 66
     1
 10
0.0
 20
0.0
 30
0.0
 70
   128
  0
VERTEX
  5
113
330
112
100
AcDbEntity
  8
1
  6
Continuous
 62
     7
 48
2.0
100
AcDbVertex
100
AcDb2dVertex
 10
0.5260006113786844
 20
-0.570225589088686
 30
0.0
  0
VERTEX
  5
114
330
112
100
AcDbEntity
  8
1
  6
Continuous
 62
     7
 48
2.0
100
AcDbVertex
100
AcDb2dVertex
 10
0.3308214422154734
 20
-0.5546112565577346
 30
0.0
  0
VERTEX
  5
115
330
112
100
AcDbEntity
  8
1
  6
Continuous
 62
     7
 48
2.0
100
AcDbVertex
100
AcDb2dVertex
 10
0.1200279395192112
 20
-0.5429005071595228
 30
0.0
  0
VERTEX
  5
116
330
112
100
AcDbEntity
  8
1
  6
Continuous
 62
     7
 48
2.0
100
AcDbVertex
100
AcDb2dVertex
 10
-0.2820411489570063
 20
-0.5272861746285713
 30
0.0
  0
VERTEX
  5
117
330
112
100
AcDbEntity
  8
1
  6
Continuous
 62
     7
 48
2.0
100
AcDbVertex
100
AcDb2dVertex
 10
-1.125215159742069
 20
-0.5181778139855169
 30
0.0
  0
SEQEND
  5
118
330
112
100
AcDbEntity
  8
1
  6
Continuous
 62
     7
 48
2.0
370
     0
  0
POLYLINE
  5
119
330
1F
100
AcDbEntity
  8
1
  6
Continuous
 62
     7
 48
2.0
370
     0
100
AcDb2dPolyline
 66
     1
 10
0.0
 20
0.0
 30
0.0
 70
   128
  0
VERTEX
  5
11A
330
119
100
AcDbEntity
  8
1
  6
Continuous
 62
     7
 48
2.0
100
AcDbVertex
100
AcDb2dVertex
 10
0.5168922501510664
 20
-0.6196709754366978
 30
0.0
  0
VERTEX
  5
11B
330
119
100
AcDbEntity
  8
1
  6
Continuous
 62
     7
 48
2.0
100
AcDbVertex
100
AcDb2dVertex
 10
0.2631593302388922
 20
-0.6001530597730103
 30
0.0
  0
VERTEX
  5
11C
330
119
100
AcDbEntity
  8
1
  6
Continuous
 62
     7
 48
2.0
100
AcDbVertex
100
AcDb2dVertex
 10
-0.0608380905720338
 20
-0.5845387272420552
 30
0.0
  0
VERTEX
  5
11D
330
119
100
AcDbEntity
  8
1
  6
Continuous
 62
     7
 48
2.0
100
AcDbVertex
100
AcDb2dVertex
 10
-0.4980394294976236
 20
-0.5741291722214257
 30
0.0
  0
VERTEX
  5
11E
330
119
100
AcDbEntity
  8
1
  6
Continuous
 62
     7
 48
2.0
100
AcDbVertex
100
AcDb2dVertex
 10
-1.084878131448342
 20
-0.5676232003335286
 30
0.0
  0
SEQEND
  5
11F
330
119
100
AcDbEntity
  8
1
  6
Continuous
 62
     7
 48
2.0
370
     0
  0
POLYLINE
  5
120
330
1F
100
AcDbEntity
  8
1
  6
Continuous
 62
     7
 48
2.0
370
     0
100
AcDb2dPolyline
 66
     1
 10
0.0
 20
0.0
 30
0.0
 70
   128
  0
VERTEX
  5
121
330
120
100
AcDbEntity
  8
1
  6
Continuous
 62
     7
 48
2.0
100
AcDbVertex
100
AcDb2dVertex
 10
0.2345330520949602
 20
-0.8018381882977863
 30
0.0
  0
VERTEX
  5
122
330
120
100
AcDbEntity
  8
1
  6
Continuous
 62
     7
 48
2.0
100
AcDbVertex
100
AcDb2dVertex
 10
-0.066042868416389
 20
-0.7940310220323106
 30
0.0
  0
VERTEX
  5
123
330
120
100
AcDbEntity
  8
1
  6
Continuous
 62
     7
 48
2.0
100
AcDbVertex
100
AcDb2dVertex
 10
-0.1076810911712087
 20
-0.7719107176134656
 30
0.0
  0
VERTEX
  5
124
330
120
100
AcDbEntity
  8
1
  6
Continuous
 62
     7
 48
2.0
100
AcDbVertex
100
AcDb2dVertex
 10
-0.1376085637762259
 20
-0.7380796637964053
 30
0.0
  0
VERTEX
  5
125
330
120
100
AcDbEntity
  8
1
  6
Continuous
 62
     7
 48
2.0
100
AcDbVertex
100
AcDb2dVertex
 10
-0.1610300640758169
 20
-0.697742638091448
 30
0.0
  0
VERTEX
  5
126
330
120
100
AcDbEntity
  8
1
  6
Continuous
 62
     7
 48
2.0
100
AcDbVertex
100
AcDb2dVertex
 10
0.1785816902681674
 20
-0.697742638091448
 30
0.0
  0
VERTEX
  5
127
330
120
100
AcDbEntity
  8
1
  6
Continuous
 62
     7
 48
2.0
100
AcDbVertex
100
AcDb2dVertex
 10
0.3113035252991523
 20
-0.7029474156017663
 30
0.0
  0
SEQEND
  5
128
330
120
100
AcDbEntity
  8
1
  6
Continuous
 62
     7
 48
2.0
370
     0
  0
POLYLINE
  5
129
330
1F
100
AcDbEntity
  8
1
  6
Continuous
 62
     7
 48
2.0
370
     0
100
AcDb2dPolyline
 66
     1
 10
0.0
 20
0.0
 30
0.0
 70
   128
  0
VERTEX
  5
12A
330
129
100
AcDbEntity
  8
1
  6
Continuous
 62
     7
 48
2.0
100
AcDbVertex
100
AcDb2dVertex
 10
-0.2169814259026026
 20
-0.6873330830708184
 30
0.0
  0
VERTEX
  5
12B
330
129
100
AcDbEntity
  8
1
  6
Continuous
 62
     7
 48
2.0
100
AcDbVertex
100
AcDb2dVertex
 10
-0.2052706757528071
 20
-0.7836214670116775
 30
0.0
  0
VERTEX
  5
12C
330
129
100
AcDbEntity
  8
1
  6
Continuous
 62
     7
 48
2.0
100
AcDbVertex
100
AcDb2dVertex
 10
-0.1857527588364931
 20
-0.8551871577785342
 30
0.0
  0
VERTEX
  5
12D
330
129
100
AcDbEntity
  8
1
  6
Continuous
 62
     7
 48
2.0
100
AcDbVertex
100
AcDb2dVertex
 10
0.2423402188614858
 20
-0.8551871577785342
 30
0.0
  0
SEQEND
  5
12E
330
129
100
AcDbEntity
  8
1
  6
Continuous
 62
     7
 48
2.0
370
     0
  0
POLYLINE
  5
12F
330
1F
100
AcDbEntity
  8
1
  6
Continuous
 62
     7
 48
2.0
370
     0
100
AcDb2dPolyline
 66
     1
 10
0.0
 20
0.0
 30
0.0
 70
   128
  0
VERTEX
  5
130
330
12F
100
AcDbEntity
  8
1
  6
Continuous
 62
     7
 48
2.0
100
AcDbVertex
100
AcDb2dVertex
 10
-1.861571874008433
 20
-0.835101762725774
 30
0.0
  0
VERTEX
  5
131
330
12F
100
AcDbEntity
  8
1
  6
Continuous
 62
     7
 48
2.0
100
AcDbVertex
100
AcDb2dVertex
 10
-1.498445187404521
 20
-0.8433546425844227
 30
0.0
  0
VERTEX
  5
132
330
12F
100
AcDbEntity
  8
1
  6
Continuous
 62
     7
 48
2.0
100
AcDbVertex
100
AcDb2dVertex
 10
-1.013883277683071
 20
-0.8504285396061206
 30
0.0
  0
SEQEND
  5
133
330
12F
100
AcDbEntity
  8
1
  6
Continuous
 62
     7
 48
2.0
370
     0
  0
POLYLINE
  5
134
330
1F
100
AcDbEntity
  8
1
  6
Continuous
 62
     7
 48
2.0
370
     0
100
AcDb2dPolyline
 66
     1
 10
0.0
 20
0.0
 30
0.0
 70
   128
  0
VERTEX
  5
135
330
134
100
AcDbEntity
  8
1
  6
Continuous
 62
     7
 48
2.0
100
AcDbVertex
100
AcDb2dVertex
 10
-1.909910166705707
 20
0.0149448627150051
 30
0.0
  0
VERTEX
  5
136
330
134
100
AcDbEntity
  8
1
  6
Continuous
 62
     7
 48
2.0
100
AcDbVertex
100
AcDb2dVertex
 10
-1.919342028695418
 20
-0.5580407960425795
 30
0.0
  0
VERTEX
  5
137
330
134
100
AcDbEntity
  8
1
  6
Continuous
 62
     7
 48
2.0
100
AcDbVertex
100
AcDb2dVertex
 10
-1.929952873433848
 20
-0.6052001095205704
 30
0.0
  0
VERTEX
  5
138
330
134
100
AcDbEntity
  8
1
  6
Continuous
 62
     7
 48
2.0
100
AcDbVertex
100
AcDb2dVertex
 10
-1.940563718172271
 20
-0.6276007834226149
 30
0.0
  0
VERTEX
  5
139
330
134
100
AcDbEntity
  8
1
  6
Continuous
 62
     7
 48
2.0
100
AcDbVertex
100
AcDb2dVertex
 10
-2.014839631341253
 20
-0.6323167147704147
 30
0.0
  0
VERTEX
  5
13A
330
134
100
AcDbEntity
  8
1
  6
Continuous
 62
     7
 48
2.0
100
AcDbVertex
100
AcDb2dVertex
 10
-2.076146734274381
 20
-0.666507217041957
 30
0.0
  0
VERTEX
  5
13B
330
134
100
AcDbEntity
  8
1
  6
Continuous
 62
     7
 48
2.0
100
AcDbVertex
100
AcDb2dVertex
 10
-2.159854509433075
 20
-0.7278143245633437
 30
0.0
  0
SEQEND
  5
13C
330
134
100
AcDbEntity
  8
1
  6
Continuous
 62
     7
 48
2.0
370
     0
  0
POLYLINE
  5
13D
330
1F
100
AcDbEntity
  8
1
  6
Continuous
 62
     7
 48
2.0
370
     0
100
AcDb2dPolyline
 66
     1
 10
0.0
 20
0.0
 30
0.0
 70
   128
  0
VERTEX
  5
13E
330
13D
100
AcDbEntity
  8
1
  6
Continuous
 62
     7
 48
2.0
100
AcDbVertex
100
AcDb2dVertex
 10
-2.018376579587397
 20
-0.6287797662595658
 30
0.0
  0
VERTEX
  5
13F
330
13D
100
AcDbEntity
  8
1
  6
Continuous
 62
     7
 48
2.0
100
AcDbVertex
100
AcDb2dVertex
 10
-2.045493182807817
 20
-0.4554692892279526
 30
0.0
  0
VERTEX
  5
140
330
13D
100
AcDbEntity
  8
1
  6
Continuous
 62
     7
 48
2.0
100
AcDbVertex
100
AcDb2dVertex
 10
-2.063177924038527
 20
-0.2432523785769938
 30
0.0
  0
VERTEX
  5
141
330
13D
100
AcDbEntity
  8
1
  6
Continuous
 62
     7
 48
2.0
100
AcDbVertex
100
AcDb2dVertex
 10
-2.071430803279526
 20
0.0031550343455038
 30
0.0
  0
SEQEND
  5
142
330
13D
100
AcDbEntity
  8
1
  6
Continuous
 62
     7
 48
2.0
370
     0
  0
POLYLINE
  5
143
330
1F
100
AcDbEntity
  8
1
  6
Continuous
 62
     7
 48
2.0
370
     0
100
AcDb2dPolyline
 66
     1
 10
0.0
 20
0.0
 30
0.0
 70
   128
  0
VERTEX
  5
144
330
143
100
AcDbEntity
  8
1
  6
Continuous
 62
     7
 48
2.0
100
AcDbVertex
100
AcDb2dVertex
 10
-1.118812742318617
 20
-0.5179553795862901
 30
0.0
  0
VERTEX
  5
145
330
143
100
AcDbEntity
  8
1
  6
Continuous
 62
     7
 48
2.0
100
AcDbVertex
100
AcDb2dVertex
 10
-1.725988857906323
 20
-0.5203133452601882
 30
0.0
  0
VERTEX
  5
146
330
143
100
AcDbEntity
  8
1
  6
Continuous
 62
     7
 48
2.0
100
AcDbVertex
100
AcDb2dVertex
 10
-1.908731183956995
 20
-0.5262082594449353
 30
0.0
  0
VERTEX
  5
147
330
143
100
AcDbEntity
  8
1
  6
Continuous
 62
     7
 48
2.0
100
AcDbVertex
100
AcDb2dVertex
 10
-1.906373218459564
 20
-0.5816204527815749
 30
0.0
  0
VERTEX
  5
148
330
143
100
AcDbEntity
  8
1
  6
Continuous
 62
     7
 48
2.0
100
AcDbVertex
100
AcDb2dVertex
 10
-1.085801225354629
 20
-0.5674726587381755
 30
0.0
  0
SEQEND
  5
149
330
143
100
AcDbEntity
  8
1
  6
Continuous
 62
     7
 48
2.0
370
     0
  0
LINE
  5
14A
330
1F
100
AcDbEntity
  8
1
  6
Continuous
 62
     7
 48
2.0
370
     0
100
AcDbLine
 10
-1.155361207528756
 20
-0.6169899378900681
 30
0.0
 11
-1.933489821679991
 21
-0.6217058692378643
 31
0.0
  0
POLYLINE
  5
14B
330
1F
100
AcDbEntity
  8
1
  6
Continuous
 62
     7
 48
2.0
370
     0
100
AcDb2dPolyline
 66
     1
 10
0.0
 20
0.0
 30
0.0
 70
   128
  0
VERTEX
  5
14C
330
14B
100
AcDbEntity
  8
1
  6
Continuous
 62
     7
 48
2.0
100
AcDbVertex
100
AcDb2dVertex
 10
-2.158675526684362
 20
-0.7230983932155439
 30
0.0
  0
VERTEX
  5
14D
330
14B
100
AcDbEntity
  8
1
  6
Continuous
 62
     7
 48
2.0
100
AcDbVertex
100
AcDb2dVertex
 10
-2.135095871710078
 20
-0.7643627925087877
 30
0.0
  0
VERTEX
  5
14E
330
14B
100
AcDbEntity
  8
1
  6
Continuous
 62
     7
 48
2.0
100
AcDbVertex
100
AcDb2dVertex
 10
-2.11859011322808
 20
-0.7879424492477831
 30
0.0
  0
VERTEX
  5
14F
330
14B
100
AcDbEntity
  8
1
  6
Continuous
 62
     7
 48
2.0
100
AcDbVertex
100
AcDb2dVertex
 10
-2.109158251238373
 20
-0.7891214320847304
 30
0.0
  0
VERTEX
  5
150
330
14B
100
AcDbEntity
  8
1
  6
Continuous
 62
     7
 48
2.0
100
AcDbVertex
100
AcDb2dVertex
 10
-2.109158251238373
 20
-0.7761526208782819
 30
0.0
  0
VERTEX
  5
151
330
14B
100
AcDbEntity
  8
1
  6
Continuous
 62
     7
 48
2.0
100
AcDbVertex
100
AcDb2dVertex
 10
-2.096189441002519
 20
-0.7761526208782819
 30
0.0
  0
SEQEND
  5
152
330
14B
100
AcDbEntity
  8
1
  6
Continuous
 62
     7
 48
2.0
370
     0
  0
POLYLINE
  5
153
330
1F
100
AcDbEntity
  8
1
  6
Continuous
 62
     7
 48
2.0
370
     0
100
AcDb2dPolyline
 66
     1
 10
0.0
 20
0.0
 30
0.0
 70
   128
  0
VERTEX
  5
154
330
153
100
AcDbEntity
  8
1
  6
Continuous
 62
     7
 48
2.0
100
AcDbVertex
100
AcDb2dVertex
 10
-2.095010458253803
 20
-0.7761526208782819
 30
0.0
  0
VERTEX
  5
155
330
153
100
AcDbEntity
  8
1
  6
Continuous
 62
     7
 48
2.0
100
AcDbVertex
100
AcDb2dVertex
 10
-2.117411130479368
 20
-0.7537519469762408
 30
0.0
  0
VERTEX
  5
156
330
153
100
AcDbEntity
  8
1
  6
Continuous
 62
     7
 48
2.0
100
AcDbVertex
100
AcDb2dVertex
 10
-2.133916888961366
 20
-0.7172034790307968
 30
0.0
  0
VERTEX
  5
157
330
153
100
AcDbEntity
  8
1
  6
Continuous
 62
     7
 48
2.0
100
AcDbVertex
100
AcDb2dVertex
 10
-2.152780612940788
 20
-0.7278143245633437
 30
0.0
  0
SEQEND
  5
158
330
153
100
AcDbEntity
  8
1
  6
Continuous
 62
     7
 48
2.0
370
     0
  0
LINE
  5
159
330
1F
100
AcDbEntity
  8
1
  6
Continuous
 62
     7
 48
2.0
370
     0
100
AcDbLine
 10
-2.06671487228467
 20
-0.139501888925416
 30
0.0
 11
-2.207013819381636
 21
-0.1536496829688119
 31
0.0
  0
LINE
  5
15A
330
1F
100
AcDbEntity
  8
1
  6
Continuous
 62
     7
 48
2.0
370
     0
100
AcDbLine
 10
-2.207013819381636
 20
-0.1418598545993142
 30
0.0
 11
-2.067893855033383
 21
-0.1300700262298164
 31
0.0
  0
LINE
  5
15B
330
1F
100
AcDbEntity
  8
1
  6
Continuous
 62
     7
 48
2.0
370
     0
100
AcDbLine
 10
-2.349250180195206
 20
-0.0012230177616672
 30
0.0
 11
-1.955469942124729
 21
-0.0012230177616672
 31
0.0
  0
LINE
  5
15C
330
1F
100
AcDbEntity
  8
1
  6
Continuous
 62
     7
 48
2.0
370
     0
100
AcDbLine
 10
2.329439710240337
 20
-0.0012094373239009
 30
0.0
 11
1.940202843755905
 21
-0.0012094373239009
 31
0.0
  0
POLYLINE
  5
15D
330
1F
100
AcDbEntity
  8
1
  6
Continuous
 62
     7
 48
2.0
370
     0
100
AcDb2dPolyline
 66
     1
 10
0.0
 20
0.0
 30
0.0
 70
   128
  0
VERTEX
  5
15E
330
15D
100
AcDbEntity
  8
1
  6
Continuous
 62
     7
 48
2.0
100
AcDbVertex
100
AcDb2dVertex
 10
0.8779105623088128
 20
0.8538337627388373
 30
0.0
  0
VERTEX
  5
15F
330
15D
100
AcDbEntity
  8
1
  6
Continuous
 62
     7
 48
2.0
100
AcDbVertex
100
AcDb2dVertex
 10
0.9833288803150069
 20
0.848427695385034
 30
0.0
  0
VERTEX
  5
160
330
15D
100
AcDbEntity
  8
1
  6
Continuous
 62
     7
 48
2.0
100
AcDbVertex
100
AcDb2dVertex
 10
1.284717148460942
 20
0.848427695385034
 30
0.0
  0
VERTEX
  5
161
330
15D
100
AcDbEntity
  8
1
  6
Continuous
 62
     7
 48
2.0
100
AcDbVertex
100
AcDb2dVertex
 10
1.53069322380874
 20
0.85248224590039
 30
0.0
  0
VERTEX
  5
162
330
15D
100
AcDbEntity
  8
1
  6
Continuous
 62
     7
 48
2.0
100
AcDbVertex
100
AcDb2dVertex
 10
1.610432720762148
 20
0.85248224590039
 30
0.0
  0
SEQEND
  5
163
330
15D
100
AcDbEntity
  8
1
  6
Continuous
 62
     7
 48
2.0
370
     0
  0
POLYLINE
  5
164
330
1F
100
AcDbEntity
  8
1
  6
Continuous
 62
     7
 48
2.0
370
     0
100
AcDb2dPolyline
 66
     1
 10
0.0
 20
0.0
 30
0.0
 70
   128
  0
VERTEX
  5
165
330
164
100
AcDbEntity
  8
1
  6
Continuous
 62
     7
 48
2.0
100
AcDbVertex
100
AcDb2dVertex
 10
2.079409084199987
 20
0.2875482074277116
 30
0.0
  0
VERTEX
  5
166
330
164
100
AcDbEntity
  8
1
  6
Continuous
 62
     7
 48
2.0
100
AcDbVertex
100
AcDb2dVertex
 10
2.05913633073726
 20
0.3726937682501443
 30
0.0
  0
VERTEX
  5
167
330
164
100
AcDbEntity
  8
1
  6
Continuous
 62
     7
 48
2.0
100
AcDbVertex
100
AcDb2dVertex
 10
2.034809026581975
 20
0.4578393290725842
 30
0.0
  0
SEQEND
  5
168
330
164
100
AcDbEntity
  8
1
  6
Continuous
 62
     7
 48
2.0
370
     0
  0
POLYLINE
  5
169
330
1F
100
AcDbEntity
  8
1
  6
Continuous
 62
     7
 48
2.0
370
     0
100
AcDb2dPolyline
 66
     1
 10
0.0
 20
0.0
 30
0.0
 70
   128
  0
VERTEX
  5
16A
330
169
100
AcDbEntity
  8
1
  6
Continuous
 62
     7
 48
2.0
100
AcDbVertex
100
AcDb2dVertex
 10
1.969936215501235
 20
0.5267666878336073
 30
0.0
  0
VERTEX
  5
16B
330
169
100
AcDbEntity
  8
1
  6
Continuous
 62
     7
 48
2.0
100
AcDbVertex
100
AcDb2dVertex
 10
2.037512060377011
 20
0.4578393290725842
 30
0.0
  0
VERTEX
  5
16C
330
169
100
AcDbEntity
  8
1
  6
Continuous
 62
     7
 48
2.0
100
AcDbVertex
100
AcDb2dVertex
 10
2.148336445973271
 20
0.3753968019270459
 30
0.0
  0
VERTEX
  5
16D
330
169
100
AcDbEntity
  8
1
  6
Continuous
 62
     7
 48
2.0
100
AcDbVertex
100
AcDb2dVertex
 10
2.071299982814892
 20
0.5105484857721834
 30
0.0
  0
VERTEX
  5
16E
330
169
100
AcDbEntity
  8
1
  6
Continuous
 62
     7
 48
2.0
100
AcDbVertex
100
AcDb2dVertex
 10
2.002372621041609
 20
0.6051546644637895
 30
0.0
  0
VERTEX
  5
16F
330
169
100
AcDbEntity
  8
1
  6
Continuous
 62
     7
 48
2.0
100
AcDbVertex
100
AcDb2dVertex
 10
1.930742225473296
 20
0.6673244390325479
 30
0.0
  0
VERTEX
  5
170
330
169
100
AcDbEntity
  8
1
  6
Continuous
 62
     7
 48
2.0
100
AcDbVertex
100
AcDb2dVertex
 10
1.855057279212431
 20
0.7132760115398966
 30
0.0
  0
VERTEX
  5
171
330
169
100
AcDbEntity
  8
1
  6
Continuous
 62
     7
 48
2.0
100
AcDbVertex
100
AcDb2dVertex
 10
1.784778400541633
 20
0.7484154493396318
 30
0.0
  0
VERTEX
  5
172
330
169
100
AcDbEntity
  8
1
  6
Continuous
 62
     7
 48
2.0
100
AcDbVertex
100
AcDb2dVertex
 10
1.692875251510586
 20
0.7686882019163974
 30
0.0
  0
VERTEX
  5
173
330
169
100
AcDbEntity
  8
1
  6
Continuous
 62
     7
 48
2.0
100
AcDbVertex
100
AcDb2dVertex
 10
1.680711599432954
 20
0.7565245503703366
 30
0.0
  0
VERTEX
  5
174
330
169
100
AcDbEntity
  8
1
  6
Continuous
 62
     7
 48
2.0
100
AcDbVertex
100
AcDb2dVertex
 10
1.634760024917426
 20
0.7524699998549877
 30
0.0
  0
VERTEX
  5
175
330
169
100
AcDbEntity
  8
1
  6
Continuous
 62
     7
 48
2.0
100
AcDbVertex
100
AcDb2dVertex
 10
1.523935639321166
 20
0.7538215166934421
 30
0.0
  0
VERTEX
  5
176
330
169
100
AcDbEntity
  8
1
  6
Continuous
 62
     7
 48
2.0
100
AcDbVertex
100
AcDb2dVertex
 10
1.498256818268374
 20
0.7457124156627302
 30
0.0
  0
VERTEX
  5
177
330
169
100
AcDbEntity
  8
1
  6
Continuous
 62
     7
 48
2.0
100
AcDbVertex
100
AcDb2dVertex
 10
1.529341706911225
 20
0.7335487641166694
 30
0.0
  0
VERTEX
  5
178
330
169
100
AcDbEntity
  8
1
  6
Continuous
 62
     7
 48
2.0
100
AcDbVertex
100
AcDb2dVertex
 10
1.617190305249721
 20
0.7173305620552455
 30
0.0
  0
VERTEX
  5
179
330
169
100
AcDbEntity
  8
1
  6
Continuous
 62
     7
 48
2.0
100
AcDbVertex
100
AcDb2dVertex
 10
1.705038903588225
 20
0.6916517421246695
 30
0.0
  0
VERTEX
  5
17A
330
169
100
AcDbEntity
  8
1
  6
Continuous
 62
     7
 48
2.0
100
AcDbVertex
100
AcDb2dVertex
 10
1.782075366746604
 20
0.6551607874864871
 30
0.0
  0
VERTEX
  5
17B
330
169
100
AcDbEntity
  8
1
  6
Continuous
 62
     7
 48
2.0
100
AcDbVertex
100
AcDb2dVertex
 10
1.878033066470195
 20
0.5889364624023656
 30
0.0
  0
VERTEX
  5
17C
330
169
100
AcDbEntity
  8
1
  6
Continuous
 62
     7
 48
2.0
100
AcDbVertex
100
AcDb2dVertex
 10
1.968584698603728
 20
0.5281182046720545
 30
0.0
  0
SEQEND
  5
17D
330
169
100
AcDbEntity
  8
1
  6
Continuous
 62
     7
 48
2.0
370
     0
  0
POLYLINE
  5
17E
330
1F
100
AcDbEntity
  8
1
  6
Continuous
 62
     7
 48
2.0
370
     0
100
AcDb2dPolyline
 66
     1
 10
0.0
 20
0.0
 30
0.0
 70
   128
  0
VERTEX
  5
17F
330
17E
100
AcDbEntity
  8
1
  6
Continuous
 62
     7
 48
2.0
100
AcDbVertex
100
AcDb2dVertex
 10
2.156445547358366
 20
0.3037664094891213
 30
0.0
  0
VERTEX
  5
180
330
17E
100
AcDbEntity
  8
1
  6
Continuous
 62
     7
 48
2.0
100
AcDbVertex
100
AcDb2dVertex
 10
2.103736388355259
 20
0.3524210156733787
 30
0.0
  0
VERTEX
  5
181
330
17E
100
AcDbEntity
  8
1
  6
Continuous
 62
     7
 48
2.0
100
AcDbVertex
100
AcDb2dVertex
 10
1.999669587246579
 20
0.418645340757493
 30
0.0
  0
VERTEX
  5
182
330
17E
100
AcDbEntity
  8
1
  6
Continuous
 62
     7
 48
2.0
100
AcDbVertex
100
AcDb2dVertex
 10
1.936148293063354
 20
0.4618938795879401
 30
0.0
  0
VERTEX
  5
183
330
17E
100
AcDbEntity
  8
1
  6
Continuous
 62
     7
 48
2.0
100
AcDbVertex
100
AcDb2dVertex
 10
1.807754187799389
 20
0.5673121929871456
 30
0.0
  0
VERTEX
  5
184
330
17E
100
AcDbEntity
  8
1
  6
Continuous
 62
     7
 48
2.0
100
AcDbVertex
100
AcDb2dVertex
 10
1.667196430457793
 20
0.6538092706480327
 30
0.0
  0
VERTEX
  5
185
330
17E
100
AcDbEntity
  8
1
  6
Continuous
 62
     7
 48
2.0
100
AcDbVertex
100
AcDb2dVertex
 10
1.579347832119296
 20
0.6875971916093206
 30
0.0
  0
VERTEX
  5
186
330
17E
100
AcDbEntity
  8
1
  6
Continuous
 62
     7
 48
2.0
100
AcDbVertex
100
AcDb2dVertex
 10
1.449602209957817
 20
0.7092214610245406
 30
0.0
  0
VERTEX
  5
187
330
17E
100
AcDbEntity
  8
1
  6
Continuous
 62
     7
 48
2.0
100
AcDbVertex
100
AcDb2dVertex
 10
1.367159679209379
 20
0.714627528378351
 30
0.0
  0
SEQEND
  5
188
330
17E
100
AcDbEntity
  8
1
  6
Continuous
 62
     7
 48
2.0
370
     0
  0
POLYLINE
  5
189
330
1F
100
AcDbEntity
  8
1
  6
Continuous
 62
     7
 48
2.0
370
     0
100
AcDb2dPolyline
 66
     1
 10
0.0
 20
0.0
 30
0.0
 70
   128
  0
VERTEX
  5
18A
330
189
100
AcDbEntity
  8
1
  6
Continuous
 62
     7
 48
2.0
100
AcDbVertex
100
AcDb2dVertex
 10
1.496905301370859
 20
0.7430093819858214
 30
0.0
  0
VERTEX
  5
18B
330
189
100
AcDbEntity
  8
1
  6
Continuous
 62
     7
 48
2.0
100
AcDbVertex
100
AcDb2dVertex
 10
1.4131112537249
 20
0.7511184830165334
 30
0.0
  0
VERTEX
  5
18C
330
189
100
AcDbEntity
  8
1
  6
Continuous
 62
     7
 48
2.0
100
AcDbVertex
100
AcDb2dVertex
 10
1.369862713004409
 20
0.749766966178079
 30
0.0
  0
VERTEX
  5
18D
330
189
100
AcDbEntity
  8
1
  6
Continuous
 62
     7
 48
2.0
100
AcDbVertex
100
AcDb2dVertex
 10
1.325262655386403
 20
0.7376033146320182
 30
0.0
  0
VERTEX
  5
18E
330
189
100
AcDbEntity
  8
1
  6
Continuous
 62
     7
 48
2.0
100
AcDbVertex
100
AcDb2dVertex
 10
1.29958383433361
 20
0.7186820788936998
 30
0.0
  0
SEQEND
  5
18F
330
189
100
AcDbEntity
  8
1
  6
Continuous
 62
     7
 48
2.0
370
     0
  0
POLYLINE
  5
190
330
1F
100
AcDbEntity
  8
1
  6
Continuous
 62
     7
 48
2.0
370
     0
100
AcDb2dPolyline
 66
     1
 10
0.0
 20
0.0
 30
0.0
 70
   128
  0
VERTEX
  5
191
330
190
100
AcDbEntity
  8
1
  6
Continuous
 62
     7
 48
2.0
100
AcDbVertex
100
AcDb2dVertex
 10
1.488796199985764
 20
0.7565245503703366
 30
0.0
  0
VERTEX
  5
192
330
190
100
AcDbEntity
  8
1
  6
Continuous
 62
     7
 48
2.0
100
AcDbVertex
100
AcDb2dVertex
 10
1.398244567852231
 20
0.7632821345625942
 30
0.0
  0
VERTEX
  5
193
330
190
100
AcDbEntity
  8
1
  6
Continuous
 62
     7
 48
2.0
100
AcDbVertex
100
AcDb2dVertex
 10
1.222547371175231
 20
0.7632821345625942
 30
0.0
  0
VERTEX
  5
194
330
190
100
AcDbEntity
  8
1
  6
Continuous
 62
     7
 48
2.0
100
AcDbVertex
100
AcDb2dVertex
 10
1.088747198321208
 20
0.757876067208791
 30
0.0
  0
VERTEX
  5
195
330
190
100
AcDbEntity
  8
1
  6
Continuous
 62
     7
 48
2.0
100
AcDbVertex
100
AcDb2dVertex
 10
0.9468379240820965
 20
0.7470639325011845
 30
0.0
  0
VERTEX
  5
196
330
190
100
AcDbEntity
  8
1
  6
Continuous
 62
     7
 48
2.0
100
AcDbVertex
100
AcDb2dVertex
 10
0.7778983118926703
 20
0.7200335957321542
 30
0.0
  0
VERTEX
  5
197
330
190
100
AcDbEntity
  8
1
  6
Continuous
 62
     7
 48
2.0
100
AcDbVertex
100
AcDb2dVertex
 10
0.5413828548274822
 20
0.688948708447775
 30
0.0
  0
VERTEX
  5
198
330
190
100
AcDbEntity
  8
1
  6
Continuous
 62
     7
 48
2.0
100
AcDbVertex
100
AcDb2dVertex
 10
0.2818916105045304
 20
0.6713789895479039
 30
0.0
  0
SEQEND
  5
199
330
190
100
AcDbEntity
  8
1
  6
Continuous
 62
     7
 48
2.0
370
     0
  0
POLYLINE
  5
19A
330
1F
100
AcDbEntity
  8
1
  6
Continuous
 62
     7
 48
2.0
370
     0
100
AcDb2dPolyline
 66
     1
 10
0.0
 20
0.0
 30
0.0
 70
   128
  0
VERTEX
  5
19B
330
19A
100
AcDbEntity
  8
1
  6
Continuous
 62
     7
 48
2.0
100
AcDbVertex
100
AcDb2dVertex
 10
1.691523734613071
 20
0.7686882019163974
 30
0.0
  0
VERTEX
  5
19C
330
19A
100
AcDbEntity
  8
1
  6
Continuous
 62
     7
 48
2.0
100
AcDbVertex
100
AcDb2dVertex
 10
1.613135754557177
 20
0.8038276397161397
 30
0.0
  0
VERTEX
  5
19D
330
19A
100
AcDbEntity
  8
1
  6
Continuous
 62
     7
 48
2.0
100
AcDbVertex
100
AcDb2dVertex
 10
1.492850750678315
 20
0.8687004479618068
 30
0.0
  0
SEQEND
  5
19E
330
19A
100
AcDbEntity
  8
1
  6
Continuous
 62
     7
 48
2.0
370
     0
  0
POLYLINE
  5
19F
330
1F
100
AcDbEntity
  8
1
  6
Continuous
 62
     7
 48
2.0
370
     0
100
AcDb2dPolyline
 66
     1
 10
0.0
 20
0.0
 30
0.0
 70
   128
  0
VERTEX
  5
1A0
330
19F
100
AcDbEntity
  8
1
  6
Continuous
 62
     7
 48
2.0
100
AcDbVertex
100
AcDb2dVertex
 10
0.7603285922249725
 20
0.805179156554594
 30
0.0
  0
VERTEX
  5
1A1
330
19F
100
AcDbEntity
  8
1
  6
Continuous
 62
     7
 48
2.0
100
AcDbVertex
100
AcDb2dVertex
 10
0.7981710653554046
 20
0.8092337070699429
 30
0.0
  0
VERTEX
  5
1A2
330
19F
100
AcDbEntity
  8
1
  6
Continuous
 62
     7
 48
2.0
100
AcDbVertex
100
AcDb2dVertex
 10
0.8130377512280731
 20
0.8254519091313597
 30
0.0
  0
VERTEX
  5
1A3
330
19F
100
AcDbEntity
  8
1
  6
Continuous
 62
     7
 48
2.0
100
AcDbVertex
100
AcDb2dVertex
 10
0.8130377512280731
 20
0.8538337627388373
 30
0.0
  0
VERTEX
  5
1A4
330
19F
100
AcDbEntity
  8
1
  6
Continuous
 62
     7
 48
2.0
100
AcDbVertex
100
AcDb2dVertex
 10
0.7900619639703095
 20
0.9119489867922468
 30
0.0
  0
VERTEX
  5
1A5
330
19F
100
AcDbEntity
  8
1
  6
Continuous
 62
     7
 48
2.0
100
AcDbVertex
100
AcDb2dVertex
 10
0.745461906352304
 20
0.9835793792301715
 30
0.0
  0
VERTEX
  5
1A6
330
19F
100
AcDbEntity
  8
1
  6
Continuous
 62
     7
 48
2.0
100
AcDbVertex
100
AcDb2dVertex
 10
0.7197830852995182
 20
1.007906682322293
 30
0.0
  0
VERTEX
  5
1A7
330
19F
100
AcDbEntity
  8
1
  6
Continuous
 62
     7
 48
2.0
100
AcDbVertex
100
AcDb2dVertex
 10
0.6886981966566594
 20
1.014664266514551
 30
0.0
  0
VERTEX
  5
1A8
330
19F
100
AcDbEntity
  8
1
  6
Continuous
 62
     7
 48
2.0
100
AcDbVertex
100
AcDb2dVertex
 10
0.6535587573212567
 20
1.007906682322293
 30
0.0
  0
VERTEX
  5
1A9
330
19F
100
AcDbEntity
  8
1
  6
Continuous
 62
     7
 48
2.0
100
AcDbVertex
100
AcDb2dVertex
 10
0.7305952204796355
 20
0.8078821902314886
 30
0.0
  0
VERTEX
  5
1AA
330
19F
100
AcDbEntity
  8
1
  6
Continuous
 62
     7
 48
2.0
100
AcDbVertex
100
AcDb2dVertex
 10
0.7589770753274578
 20
0.8065306733930413
 30
0.0
  0
SEQEND
  5
1AB
330
19F
100
AcDbEntity
  8
1
  6
Continuous
 62
     7
 48
2.0
370
     0
  0
LINE
  5
1AC
330
1F
100
AcDbEntity
  8
1
  6
Continuous
 62
     7
 48
2.0
370
     0
100
AcDbLine
 10
0.7508679739423698
 20
0.8078821902314886
 30
0.0
 11
0.677886061476535
 21
1.011961232837656
 31
0.0
  0
LINE
  5
1AD
330
1F
100
AcDbEntity
  8
1
  6
Continuous
 62
     7
 48
2.0
370
     0
100
AcDbLine
 10
0.7130255008119306
 20
0.856536796415746
 30
0.0
 11
0.2359400359890103
 21
0.85248224590039
 31
0.0
  0
POLYLINE
  5
1AE
330
1F
100
AcDbEntity
  8
1
  6
Continuous
 62
     7
 48
2.0
370
     0
100
AcDb2dPolyline
 66
     1
 10
0.0
 20
0.0
 30
0.0
 70
   128
  0
VERTEX
  5
1AF
330
1AE
100
AcDbEntity
  8
1
  6
Continuous
 62
     7
 48
2.0
100
AcDbVertex
100
AcDb2dVertex
 10
0.8224983695106829
 20
0.856536796415746
 30
0.0
  0
VERTEX
  5
1B0
330
1AE
100
AcDbEntity
  8
1
  6
Continuous
 62
     7
 48
2.0
100
AcDbVertex
100
AcDb2dVertex
 10
0.8184438188181318
 20
0.7997730892007837
 30
0.0
  0
VERTEX
  5
1B1
330
1AE
100
AcDbEntity
  8
1
  6
Continuous
 62
     7
 48
2.0
100
AcDbVertex
100
AcDb2dVertex
 10
0.8116862343305584
 20
0.775445786108655
 30
0.0
  0
VERTEX
  5
1B2
330
1AE
100
AcDbEntity
  8
1
  6
Continuous
 62
     7
 48
2.0
100
AcDbVertex
100
AcDb2dVertex
 10
0.7954680315603682
 20
0.757876067208791
 30
0.0
  0
VERTEX
  5
1B3
330
1AE
100
AcDbEntity
  8
1
  6
Continuous
 62
     7
 48
2.0
100
AcDbVertex
100
AcDb2dVertex
 10
0.7346497711721796
 20
0.7362517977935639
 30
0.0
  0
VERTEX
  5
1B4
330
1AE
100
AcDbEntity
  8
1
  6
Continuous
 62
     7
 48
2.0
100
AcDbVertex
100
AcDb2dVertex
 10
0.5913889800355534
 20
0.7173305620552455
 30
0.0
  0
VERTEX
  5
1B5
330
1AE
100
AcDbEntity
  8
1
  6
Continuous
 62
     7
 48
2.0
100
AcDbVertex
100
AcDb2dVertex
 10
0.2778370598119793
 20
0.6943547758015782
 30
0.0
  0
SEQEND
  5
1B6
330
1AE
100
AcDbEntity
  8
1
  6
Continuous
 62
     7
 48
2.0
370
     0
  0
POLYLINE
  5
1B7
330
1F
100
AcDbEntity
  8
1
  6
Continuous
 62
     7
 48
2.0
370
     0
100
AcDb2dPolyline
 66
     1
 10
0.0
 20
0.0
 30
0.0
 70
   128
  0
VERTEX
  5
1B8
330
1B7
100
AcDbEntity
  8
1
  6
Continuous
 62
     7
 48
2.0
100
AcDbVertex
100
AcDb2dVertex
 10
0.7387043218647236
 20
0.7349002809551166
 30
0.0
  0
VERTEX
  5
1B9
330
1B7
100
AcDbEntity
  8
1
  6
Continuous
 62
     7
 48
2.0
100
AcDbVertex
100
AcDb2dVertex
 10
0.894128765078996
 20
0.7713912355933061
 30
0.0
  0
VERTEX
  5
1BA
330
1B7
100
AcDbEntity
  8
1
  6
Continuous
 62
     7
 48
2.0
100
AcDbVertex
100
AcDb2dVertex
 10
0.9630561268522797
 20
0.7916639881700789
 30
0.0
  0
VERTEX
  5
1BB
330
1B7
100
AcDbEntity
  8
1
  6
Continuous
 62
     7
 48
2.0
100
AcDbVertex
100
AcDb2dVertex
 10
0.9373773057994867
 20
0.8024761228776853
 30
0.0
  0
VERTEX
  5
1BC
330
1B7
100
AcDbEntity
  8
1
  6
Continuous
 62
     7
 48
2.0
100
AcDbVertex
100
AcDb2dVertex
 10
0.8197953357156536
 20
0.8038276397161397
 30
0.0
  0
SEQEND
  5
1BD
330
1B7
100
AcDbEntity
  8
1
  6
Continuous
 62
     7
 48
2.0
370
     0
  0
POLYLINE
  5
1BE
330
1F
100
AcDbEntity
  8
1
  6
Continuous
 62
     7
 48
2.0
370
     0
100
AcDb2dPolyline
 66
     1
 10
0.0
 20
0.0
 30
0.0
 70
   128
  0
VERTEX
  5
1BF
330
1BE
100
AcDbEntity
  8
1
  6
Continuous
 62
     7
 48
2.0
100
AcDbVertex
100
AcDb2dVertex
 10
0.7441103894547894
 20
0.8065306733930413
 30
0.0
  0
VERTEX
  5
1C0
330
1BE
100
AcDbEntity
  8
1
  6
Continuous
 62
     7
 48
2.0
100
AcDbVertex
100
AcDb2dVertex
 10
0.7441103894547894
 20
0.7767973029471094
 30
0.0
  0
VERTEX
  5
1C1
330
1BE
100
AcDbEntity
  8
1
  6
Continuous
 62
     7
 48
2.0
100
AcDbVertex
100
AcDb2dVertex
 10
0.7724922443026117
 20
0.7673366850779502
 30
0.0
  0
VERTEX
  5
1C2
330
1BE
100
AcDbEntity
  8
1
  6
Continuous
 62
     7
 48
2.0
100
AcDbVertex
100
AcDb2dVertex
 10
0.8062801667404926
 20
0.7727427524317605
 30
0.0
  0
SEQEND
  5
1C3
330
1BE
100
AcDbEntity
  8
1
  6
Continuous
 62
     7
 48
2.0
370
     0
  0
LINE
  5
1C4
330
1F
100
AcDbEntity
  8
1
  6
Continuous
 62
     7
 48
2.0
370
     0
100
AcDbLine
 10
0.8103347174330437
 20
0.8186943249391092
 30
0.0
 11
0.8170923019206171
 21
0.8024761228776853
 31
0.0
  0
LINE
  5
1C5
330
1F
100
AcDbEntity
  8
1
  6
Continuous
 62
     7
 48
2.0
370
     0
100
AcDbLine
 10
0.74140735565976
 20
0.8038276397161397
 30
0.0
 11
0.2359400359890103
 21
0.7997730892007837
 31
0.0
  0
POLYLINE
  5
1C6
330
1F
100
AcDbEntity
  8
1
  6
Continuous
 62
     7
 48
2.0
370
     0
100
AcDb2dPolyline
 66
     1
 10
0.0
 20
0.0
 30
0.0
 70
   128
  0
VERTEX
  5
1C7
330
1C6
100
AcDbEntity
  8
1
  6
Continuous
 62
     7
 48
2.0
100
AcDbVertex
100
AcDb2dVertex
 10
0.7184315684019964
 20
0.8024761228776853
 30
0.0
  0
VERTEX
  5
1C8
330
1C6
100
AcDbEntity
  8
1
  6
Continuous
 62
     7
 48
2.0
100
AcDbVertex
100
AcDb2dVertex
 10
0.6995103318367839
 20
0.7416578651473742
 30
0.0
  0
VERTEX
  5
1C9
330
1C6
100
AcDbEntity
  8
1
  6
Continuous
 62
     7
 48
2.0
100
AcDbVertex
100
AcDb2dVertex
 10
0.5576010575976724
 20
0.7186820788936998
 30
0.0
  0
VERTEX
  5
1CA
330
1C6
100
AcDbEntity
  8
1
  6
Continuous
 62
     7
 48
2.0
100
AcDbVertex
100
AcDb2dVertex
 10
0.312976499147382
 20
0.7011123599938358
 30
0.0
  0
SEQEND
  5
1CB
330
1C6
100
AcDbEntity
  8
1
  6
Continuous
 62
     7
 48
2.0
370
     0
  0
POLYLINE
  5
1CC
330
1F
100
AcDbEntity
  8
1
  6
Continuous
 62
     7
 48
2.0
370
     0
100
AcDb2dPolyline
 66
     1
 10
0.0
 20
0.0
 30
0.0
 70
   128
  0
VERTEX
  5
1CD
330
1CC
100
AcDbEntity
  8
1
  6
Continuous
 62
     7
 48
2.0
100
AcDbVertex
100
AcDb2dVertex
 10
0.9184560692342743
 20
0.7078699441860934
 30
0.0
  0
VERTEX
  5
1CE
330
1CC
100
AcDbEntity
  8
1
  6
Continuous
 62
     7
 48
2.0
100
AcDbVertex
100
AcDb2dVertex
 10
0.9035893833615987
 20
0.7389548314704726
 30
0.0
  0
VERTEX
  5
1CF
330
1CC
100
AcDbEntity
  8
1
  6
Continuous
 62
     7
 48
2.0
100
AcDbVertex
100
AcDb2dVertex
 10
0.8738560116162688
 20
0.7646336514010486
 30
0.0
  0
SEQEND
  5
1D0
330
1CC
100
AcDbEntity
  8
1
  6
Continuous
 62
     7
 48
2.0
370
     0
  0
POLYLINE
  5
1D1
330
1F
100
AcDbEntity
  8
1
  6
Continuous
 62
     7
 48
2.0
370
     0
100
AcDb2dPolyline
 66
     1
 10
0.0
 20
0.0
 30
0.0
 70
   128
  0
VERTEX
  5
1D2
330
1D1
100
AcDbEntity
  8
1
  6
Continuous
 62
     7
 48
2.0
100
AcDbVertex
100
AcDb2dVertex
 10
0.2878820249995684
 20
0.6356996144370513
 30
0.0
  0
VERTEX
  5
1D3
330
1D1
100
AcDbEntity
  8
1
  6
Continuous
 62
     7
 48
2.0
100
AcDbVertex
100
AcDb2dVertex
 10
0.1109195782915933
 20
0.6265912537939968
 30
0.0
  0
VERTEX
  5
1D4
330
1D1
100
AcDbEntity
  8
1
  6
Continuous
 62
     7
 48
2.0
100
AcDbVertex
100
AcDb2dVertex
 10
-0.3471008720114028
 20
0.6174828931509424
 30
0.0
  0
VERTEX
  5
1D5
330
1D1
100
AcDbEntity
  8
1
  6
Continuous
 62
     7
 48
2.0
100
AcDbVertex
100
AcDb2dVertex
 10
-1.157745021269271
 20
0.6148805043957921
 30
0.0
  0
SEQEND
  5
1D6
330
1D1
100
AcDbEntity
  8
1
  6
Continuous
 62
     7
 48
2.0
370
     0
  0
POLYLINE
  5
1D7
330
1F
100
AcDbEntity
  8
1
  6
Continuous
 62
     7
 48
2.0
370
     0
100
AcDb2dPolyline
 66
     1
 10
0.0
 20
0.0
 30
0.0
 70
   128
  0
VERTEX
  5
1D8
330
1D7
100
AcDbEntity
  8
1
  6
Continuous
 62
     7
 48
2.0
100
AcDbVertex
100
AcDb2dVertex
 10
0.5260006113786844
 20
0.5680375068029377
 30
0.0
  0
VERTEX
  5
1D9
330
1D7
100
AcDbEntity
  8
1
  6
Continuous
 62
     7
 48
2.0
100
AcDbVertex
100
AcDb2dVertex
 10
0.3308214422154734
 20
0.5524231742719863
 30
0.0
  0
VERTEX
  5
1DA
330
1D7
100
AcDbEntity
  8
1
  6
Continuous
 62
     7
 48
2.0
100
AcDbVertex
100
AcDb2dVertex
 10
0.1200279395192112
 20
0.5407124248737674
 30
0.0
  0
VERTEX
  5
1DB
330
1D7
100
AcDbEntity
  8
1
  6
Continuous
 62
     7
 48
2.0
100
AcDbVertex
100
AcDb2dVertex
 10
-0.2820411489570063
 20
0.525098092342823
 30
0.0
  0
VERTEX
  5
1DC
330
1D7
100
AcDbEntity
  8
1
  6
Continuous
 62
     7
 48
2.0
100
AcDbVertex
100
AcDb2dVertex
 10
-1.125215159742069
 20
0.5159897316997686
 30
0.0
  0
SEQEND
  5
1DD
330
1D7
100
AcDbEntity
  8
1
  6
Continuous
 62
     7
 48
2.0
370
     0
  0
POLYLINE
  5
1DE
330
1F
100
AcDbEntity
  8
1
  6
Continuous
 62
     7
 48
2.0
370
     0
100
AcDb2dPolyline
 66
     1
 10
0.0
 20
0.0
 30
0.0
 70
   128
  0
VERTEX
  5
1DF
330
1DE
100
AcDbEntity
  8
1
  6
Continuous
 62
     7
 48
2.0
100
AcDbVertex
100
AcDb2dVertex
 10
0.5168922501510664
 20
0.6174828931509424
 30
0.0
  0
VERTEX
  5
1E0
330
1DE
100
AcDbEntity
  8
1
  6
Continuous
 62
     7
 48
2.0
100
AcDbVertex
100
AcDb2dVertex
 10
0.2631593302388922
 20
0.5979649774872584
 30
0.0
  0
VERTEX
  5
1E1
330
1DE
100
AcDbEntity
  8
1
  6
Continuous
 62
     7
 48
2.0
100
AcDbVertex
100
AcDb2dVertex
 10
-0.0608380905720338
 20
0.582350644956307
 30
0.0
  0
VERTEX
  5
1E2
330
1DE
100
AcDbEntity
  8
1
  6
Continuous
 62
     7
 48
2.0
100
AcDbVertex
100
AcDb2dVertex
 10
-0.4980394294976236
 20
0.5719410899356703
 30
0.0
  0
VERTEX
  5
1E3
330
1DE
100
AcDbEntity
  8
1
  6
Continuous
 62
     7
 48
2.0
100
AcDbVertex
100
AcDb2dVertex
 10
-1.084878131448342
 20
0.5654351180477803
 30
0.0
  0
SEQEND
  5
1E4
330
1DE
100
AcDbEntity
  8
1
  6
Continuous
 62
     7
 48
2.0
370
     0
  0
POLYLINE
  5
1E5
330
1F
100
AcDbEntity
  8
1
  6
Continuous
 62
     7
 48
2.0
370
     0
100
AcDb2dPolyline
 66
     1
 10
0.0
 20
0.0
 30
0.0
 70
   128
  0
VERTEX
  5
1E6
330
1E5
100
AcDbEntity
  8
1
  6
Continuous
 62
     7
 48
2.0
100
AcDbVertex
100
AcDb2dVertex
 10
0.2345330520949602
 20
0.799650106012038
 30
0.0
  0
VERTEX
  5
1E7
330
1E5
100
AcDbEntity
  8
1
  6
Continuous
 62
     7
 48
2.0
100
AcDbVertex
100
AcDb2dVertex
 10
-0.066042868416389
 20
0.7918429397465658
 30
0.0
  0
VERTEX
  5
1E8
330
1E5
100
AcDbEntity
  8
1
  6
Continuous
 62
     7
 48
2.0
100
AcDbVertex
100
AcDb2dVertex
 10
-0.1076810911712087
 20
0.7697226353277173
 30
0.0
  0
VERTEX
  5
1E9
330
1E5
100
AcDbEntity
  8
1
  6
Continuous
 62
     7
 48
2.0
100
AcDbVertex
100
AcDb2dVertex
 10
-0.1376085637762259
 20
0.7358915815106499
 30
0.0
  0
VERTEX
  5
1EA
330
1E5
100
AcDbEntity
  8
1
  6
Continuous
 62
     7
 48
2.0
100
AcDbVertex
100
AcDb2dVertex
 10
-0.1610300640758169
 20
0.6955545558056997
 30
0.0
  0
VERTEX
  5
1EB
330
1E5
100
AcDbEntity
  8
1
  6
Continuous
 62
     7
 48
2.0
100
AcDbVertex
100
AcDb2dVertex
 10
0.1785816902681674
 20
0.6955545558056997
 30
0.0
  0
VERTEX
  5
1EC
330
1E5
100
AcDbEntity
  8
1
  6
Continuous
 62
     7
 48
2.0
100
AcDbVertex
100
AcDb2dVertex
 10
0.3113035252991523
 20
0.7007593333160216
 30
0.0
  0
SEQEND
  5
1ED
330
1E5
100
AcDbEntity
  8
1
  6
Continuous
 62
     7
 48
2.0
370
     0
  0
POLYLINE
  5
1EE
330
1F
100
AcDbEntity
  8
1
  6
Continuous
 62
     7
 48
2.0
370
     0
100
AcDb2dPolyline
 66
     1
 10
0.0
 20
0.0
 30
0.0
 70
   128
  0
VERTEX
  5
1EF
330
1EE
100
AcDbEntity
  8
1
  6
Continuous
 62
     7
 48
2.0
100
AcDbVertex
100
AcDb2dVertex
 10
-0.2169814259026026
 20
0.685145000785063
 30
0.0
  0
VERTEX
  5
1F0
330
1EE
100
AcDbEntity
  8
1
  6
Continuous
 62
     7
 48
2.0
100
AcDbVertex
100
AcDb2dVertex
 10
-0.2052706757528071
 20
0.7814333847259292
 30
0.0
  0
VERTEX
  5
1F1
330
1EE
100
AcDbEntity
  8
1
  6
Continuous
 62
     7
 48
2.0
100
AcDbVertex
100
AcDb2dVertex
 10
-0.1857527588364931
 20
0.8529990754927823
 30
0.0
  0
VERTEX
  5
1F2
330
1EE
100
AcDbEntity
  8
1
  6
Continuous
 62
     7
 48
2.0
100
AcDbVertex
100
AcDb2dVertex
 10
0.2423402188614858
 20
0.8529990754927823
 30
0.0
  0
SEQEND
  5
1F3
330
1EE
100
AcDbEntity
  8
1
  6
Continuous
 62
     7
 48
2.0
370
     0
  0
POLYLINE
  5
1F4
330
1F
100
AcDbEntity
  8
1
  6
Continuous
 62
     7
 48
2.0
370
     0
100
AcDb2dPolyline
 66
     1
 10
0.0
 20
0.0
 30
0.0
 70
   128
  0
VERTEX
  5
1F5
330
1F4
100
AcDbEntity
  8
1
  6
Continuous
 62
     7
 48
2.0
100
AcDbVertex
100
AcDb2dVertex
 10
-0.1831503699143084
 20
0.8529990754927823
 30
0.0
  0
VERTEX
  5
1F6
330
1F4
100
AcDbEntity
  8
1
  6
Continuous
 62
     7
 48
2.0
100
AcDbVertex
100
AcDb2dVertex
 10
-0.8649762675244546
 20
0.8438907148497279
 30
0.0
  0
VERTEX
  5
1F7
330
1F4
100
AcDbEntity
  8
1
  6
Continuous
 62
     7
 48
2.0
100
AcDbVertex
100
AcDb2dVertex
 10
-1.082275742526164
 20
0.8529990754927823
 30
0.0
  0
VERTEX
  5
1F8
330
1F4
100
AcDbEntity
  8
1
  6
Continuous
 62
     7
 48
2.0
100
AcDbVertex
100
AcDb2dVertex
 10
-1.217599966479327
 20
0.8621074361358367
 30
0.0
  0
SEQEND
  5
1F9
330
1F4
100
AcDbEntity
  8
1
  6
Continuous
 62
     7
 48
2.0
370
     0
  0
POLYLINE
  5
1FA
330
1F
100
AcDbEntity
  8
1
  6
Continuous
 62
     7
 48
2.0
370
     0
100
AcDb2dPolyline
 66
     1
 10
0.0
 20
0.0
 30
0.0
 70
   128
  0
VERTEX
  5
1FB
330
1FA
100
AcDbEntity
  8
1
  6
Continuous
 62
     7
 48
2.0
100
AcDbVertex
100
AcDb2dVertex
 10
-1.14863666004166
 20
0.68775989174123
 30
0.0
  0
VERTEX
  5
1FC
330
1FA
100
AcDbEntity
  8
1
  6
Continuous
 62
     7
 48
2.0
100
AcDbVertex
100
AcDb2dVertex
 10
-1.161648604652534
 20
0.7801446925493494
 30
0.0
  0
VERTEX
  5
1FD
330
1FA
100
AcDbEntity
  8
1
  6
Continuous
 62
     7
 48
2.0
100
AcDbVertex
100
AcDb2dVertex
 10
-1.168154576957974
 20
0.8582163552041067
 30
0.0
  0
SEQEND
  5
1FE
330
1FA
100
AcDbEntity
  8
1
  6
Continuous
 62
     7
 48
2.0
370
     0
  0
POLYLINE
  5
1FF
330
1F
100
AcDbEntity
  8
1
  6
Continuous
 62
     7
 48
2.0
370
     0
100
AcDb2dPolyline
 66
     1
 10
0.0
 20
0.0
 30
0.0
 70
   128
  0
VERTEX
  5
200
330
1FF
100
AcDbEntity
  8
1
  6
Continuous
 62
     7
 48
2.0
100
AcDbVertex
100
AcDb2dVertex
 10
-1.221384241456732
 20
0.8623882513637611
 30
0.0
  0
VERTEX
  5
201
330
1FF
100
AcDbEntity
  8
1
  6
Continuous
 62
     7
 48
2.0
100
AcDbVertex
100
AcDb2dVertex
 10
-1.591584824552932
 20
0.8623882513637682
 30
0.0
  0
VERTEX
  5
202
330
1FF
100
AcDbEntity
  8
1
  6
Continuous
 62
     7
 48
2.0
100
AcDbVertex
100
AcDb2dVertex
 10
-1.748389530131888
 20
0.8564933371790175
 30
0.0
  0
VERTEX
  5
203
330
1FF
100
AcDbEntity
  8
1
  6
Continuous
 62
     7
 48
2.0
100
AcDbVertex
100
AcDb2dVertex
 10
-1.827381374295733
 20
0.8482404573203723
 30
0.0
  0
VERTEX
  5
204
330
1FF
100
AcDbEntity
  8
1
  6
Continuous
 62
     7
 48
2.0
100
AcDbVertex
100
AcDb2dVertex
 10
-1.909910166705707
 20
0.8423455431356217
 30
0.0
  0
VERTEX
  5
205
330
1FF
100
AcDbEntity
  8
1
  6
Continuous
 62
     7
 48
2.0
100
AcDbVertex
100
AcDb2dVertex
 10
-2.06671487228467
 20
0.8317346976030748
 30
0.0
  0
VERTEX
  5
206
330
1FF
100
AcDbEntity
  8
1
  6
Continuous
 62
     7
 48
2.0
100
AcDbVertex
100
AcDb2dVertex
 10
-2.122127061474224
 20
0.8234818177444296
 30
0.0
  0
VERTEX
  5
207
330
1FF
100
AcDbEntity
  8
1
  6
Continuous
 62
     7
 48
2.0
100
AcDbVertex
100
AcDb2dVertex
 10
-2.164570440427926
 20
0.7963652124945853
 30
0.0
  0
VERTEX
  5
208
330
1FF
100
AcDbEntity
  8
1
  6
Continuous
 62
     7
 48
2.0
100
AcDbVertex
100
AcDb2dVertex
 10
-2.189329078150926
 20
0.762174710223043
 30
0.0
  0
VERTEX
  5
209
330
1FF
100
AcDbEntity
  8
1
  6
Continuous
 62
     7
 48
2.0
100
AcDbVertex
100
AcDb2dVertex
 10
-2.212908733125204
 20
0.7091204825603015
 30
0.0
  0
VERTEX
  5
20A
330
1FF
100
AcDbEntity
  8
1
  6
Continuous
 62
     7
 48
2.0
100
AcDbVertex
100
AcDb2dVertex
 10
-2.237667370848197
 20
0.597117113050075
 30
0.0
  0
VERTEX
  5
20B
330
1FF
100
AcDbEntity
  8
1
  6
Continuous
 62
     7
 48
2.0
100
AcDbVertex
100
AcDb2dVertex
 10
-2.255352112078906
 20
0.3589625799862191
 30
0.0
  0
VERTEX
  5
20C
330
1FF
100
AcDbEntity
  8
1
  6
Continuous
 62
     7
 48
2.0
100
AcDbVertex
100
AcDb2dVertex
 10
-2.263604991319909
 20
0.1467456693352673
 30
0.0
  0
VERTEX
  5
20D
330
1FF
100
AcDbEntity
  8
1
  6
Continuous
 62
     7
 48
2.0
100
AcDbVertex
100
AcDb2dVertex
 10
-2.265962956817333
 20
-0.0065220994681994
 30
0.0
  0
SEQEND
  5
20E
330
1FF
100
AcDbEntity
  8
1
  6
Continuous
 62
     7
 48
2.0
370
     0
  0
POLYLINE
  5
20F
330
1F
100
AcDbEntity
  8
1
  6
Continuous
 62
     7
 48
2.0
370
     0
100
AcDb2dPolyline
 66
     1
 10
0.0
 20
0.0
 30
0.0
 70
   128
  0
VERTEX
  5
210
330
20F
100
AcDbEntity
  8
1
  6
Continuous
 62
     7
 48
2.0
100
AcDbVertex
100
AcDb2dVertex
 10
-1.861571874008433
 20
0.8329136804400221
 30
0.0
  0
VERTEX
  5
211
330
20F
100
AcDbEntity
  8
1
  6
Continuous
 62
     7
 48
2.0
100
AcDbVertex
100
AcDb2dVertex
 10
-1.498445187404521
 20
0.8411665602986673
 30
0.0
  0
VERTEX
  5
212
330
20F
100
AcDbEntity
  8
1
  6
Continuous
 62
     7
 48
2.0
100
AcDbVertex
100
AcDb2dVertex
 10
-1.013883277683071
 20
0.8482404573203652
 30
0.0
  0
SEQEND
  5
213
330
20F
100
AcDbEntity
  8
1
  6
Continuous
 62
     7
 48
2.0
370
     0
  0
POLYLINE
  5
214
330
1F
100
AcDbEntity
  8
1
  6
Continuous
 62
     7
 48
2.0
370
     0
100
AcDb2dPolyline
 66
     1
 10
0.0
 20
0.0
 30
0.0
 70
   128
  0
VERTEX
  5
215
330
214
100
AcDbEntity
  8
1
  6
Continuous
 62
     7
 48
2.0
100
AcDbVertex
100
AcDb2dVertex
 10
-1.909910166705707
 20
-0.0171329450007462
 30
0.0
  0
VERTEX
  5
216
330
214
100
AcDbEntity
  8
1
  6
Continuous
 62
     7
 48
2.0
100
AcDbVertex
100
AcDb2dVertex
 10
-1.919342028695418
 20
0.5558527137568277
 30
0.0
  0
VERTEX
  5
217
330
214
100
AcDbEntity
  8
1
  6
Continuous
 62
     7
 48
2.0
100
AcDbVertex
100
AcDb2dVertex
 10
-1.929952873433848
 20
0.6030120272348185
 30
0.0
  0
VERTEX
  5
218
330
214
100
AcDbEntity
  8
1
  6
Continuous
 62
     7
 48
2.0
100
AcDbVertex
100
AcDb2dVertex
 10
-1.940563718172271
 20
0.6254127011368666
 30
0.0
  0
VERTEX
  5
219
330
214
100
AcDbEntity
  8
1
  6
Continuous
 62
     7
 48
2.0
100
AcDbVertex
100
AcDb2dVertex
 10
-2.014839631341253
 20
0.6301286324846629
 30
0.0
  0
VERTEX
  5
21A
330
214
100
AcDbEntity
  8
1
  6
Continuous
 62
     7
 48
2.0
100
AcDbVertex
100
AcDb2dVertex
 10
-2.076146734274381
 20
0.6643191347562052
 30
0.0
  0
VERTEX
  5
21B
330
214
100
AcDbEntity
  8
1
  6
Continuous
 62
     7
 48
2.0
100
AcDbVertex
100
AcDb2dVertex
 10
-2.159854509433075
 20
0.725626242277599
 30
0.0
  0
SEQEND
  5
21C
330
214
100
AcDbEntity
  8
1
  6
Continuous
 62
     7
 48
2.0
370
     0
  0
POLYLINE
  5
21D
330
1F
100
AcDbEntity
  8
1
  6
Continuous
 62
     7
 48
2.0
370
     0
100
AcDb2dPolyline
 66
     1
 10
0.0
 20
0.0
 30
0.0
 70
   128
  0
VERTEX
  5
21E
330
21D
100
AcDbEntity
  8
1
  6
Continuous
 62
     7
 48
2.0
100
AcDbVertex
100
AcDb2dVertex
 10
-2.018376579587397
 20
0.626591683973821
 30
0.0
  0
VERTEX
  5
21F
330
21D
100
AcDbEntity
  8
1
  6
Continuous
 62
     7
 48
2.0
100
AcDbVertex
100
AcDb2dVertex
 10
-2.045493182807817
 20
0.4532812069422008
 30
0.0
  0
VERTEX
  5
220
330
21D
100
AcDbEntity
  8
1
  6
Continuous
 62
     7
 48
2.0
100
AcDbVertex
100
AcDb2dVertex
 10
-2.063177924038527
 20
0.241064296291249
 30
0.0
  0
VERTEX
  5
221
330
21D
100
AcDbEntity
  8
1
  6
Continuous
 62
     7
 48
2.0
100
AcDbVertex
100
AcDb2dVertex
 10
-2.071430803279526
 20
-0.0053431166312521
 30
0.0
  0
SEQEND
  5
222
330
21D
100
AcDbEntity
  8
1
  6
Continuous
 62
     7
 48
2.0
370
     0
  0
POLYLINE
  5
223
330
1F
100
AcDbEntity
  8
1
  6
Continuous
 62
     7
 48
2.0
370
     0
100
AcDb2dPolyline
 66
     1
 10
0.0
 20
0.0
 30
0.0
 70
   128
  0
VERTEX
  5
224
330
223
100
AcDbEntity
  8
1
  6
Continuous
 62
     7
 48
2.0
100
AcDbVertex
100
AcDb2dVertex
 10
-1.118812742318617
 20
0.5157672973005347
 30
0.0
  0
VERTEX
  5
225
330
223
100
AcDbEntity
  8
1
  6
Continuous
 62
     7
 48
2.0
100
AcDbVertex
100
AcDb2dVertex
 10
-1.725988857906323
 20
0.5181252629744435
 30
0.0
  0
VERTEX
  5
226
330
223
100
AcDbEntity
  8
1
  6
Continuous
 62
     7
 48
2.0
100
AcDbVertex
100
AcDb2dVertex
 10
-1.908731183956995
 20
0.524020177159187
 30
0.0
  0
VERTEX
  5
227
330
223
100
AcDbEntity
  8
1
  6
Continuous
 62
     7
 48
2.0
100
AcDbVertex
100
AcDb2dVertex
 10
-1.906373218459564
 20
0.5794323704958302
 30
0.0
  0
VERTEX
  5
228
330
223
100
AcDbEntity
  8
1
  6
Continuous
 62
     7
 48
2.0
100
AcDbVertex
100
AcDb2dVertex
 10
-1.085801225354629
 20
0.5652845764524272
 30
0.0
  0
SEQEND
  5
229
330
223
100
AcDbEntity
  8
1
  6
Continuous
 62
     7
 48
2.0
370
     0
  0
LINE
  5
22A
330
1F
100
AcDbEntity
  8
1
  6
Continuous
 62
     7
 48
2.0
370
     0
100
AcDbLine
 10
-1.155361207528756
 20
0.6148018556043198
 30
0.0
 11
-1.933489821679991
 21
0.619517786952116
 31
0.0
  0
POLYLINE
  5
22B
330
1F
100
AcDbEntity
  8
1
  6
Continuous
 62
     7
 48
2.0
370
     0
100
AcDb2dPolyline
 66
     1
 10
0.0
 20
0.0
 30
0.0
 70
   128
  0
VERTEX
  5
22C
330
22B
100
AcDbEntity
  8
1
  6
Continuous
 62
     7
 48
2.0
100
AcDbVertex
100
AcDb2dVertex
 10
-2.158675526684362
 20
0.7209103109297956
 30
0.0
  0
VERTEX
  5
22D
330
22B
100
AcDbEntity
  8
1
  6
Continuous
 62
     7
 48
2.0
100
AcDbVertex
100
AcDb2dVertex
 10
-2.135095871710078
 20
0.762174710223043
 30
0.0
  0
VERTEX
  5
22E
330
22B
100
AcDbEntity
  8
1
  6
Continuous
 62
     7
 48
2.0
100
AcDbVertex
100
AcDb2dVertex
 10
-2.11859011322808
 20
0.7857543669620313
 30
0.0
  0
VERTEX
  5
22F
330
22B
100
AcDbEntity
  8
1
  6
Continuous
 62
     7
 48
2.0
100
AcDbVertex
100
AcDb2dVertex
 10
-2.109158251238373
 20
0.7869333497989857
 30
0.0
  0
VERTEX
  5
230
330
22B
100
AcDbEntity
  8
1
  6
Continuous
 62
     7
 48
2.0
100
AcDbVertex
100
AcDb2dVertex
 10
-2.109158251238373
 20
0.7739645385925371
 30
0.0
  0
VERTEX
  5
231
330
22B
100
AcDbEntity
  8
1
  6
Continuous
 62
     7
 48
2.0
100
AcDbVertex
100
AcDb2dVertex
 10
-2.096189441002519
 20
0.7739645385925371
 30
0.0
  0
SEQEND
  5
232
330
22B
100
AcDbEntity
  8
1
  6
Continuous
 62
     7
 48
2.0
370
     0
  0
POLYLINE
  5
233
330
1F
100
AcDbEntity
  8
1
  6
Continuous
 62
     7
 48
2.0
370
     0
100
AcDb2dPolyline
 66
     1
 10
0.0
 20
0.0
 30
0.0
 70
   128
  0
VERTEX
  5
234
330
233
100
AcDbEntity
  8
1
  6
Continuous
 62
     7
 48
2.0
100
AcDbVertex
100
AcDb2dVertex
 10
-2.095010458253803
 20
0.7739645385925371
 30
0.0
  0
VERTEX
  5
235
330
233
100
AcDbEntity
  8
1
  6
Continuous
 62
     7
 48
2.0
100
AcDbVertex
100
AcDb2dVertex
 10
-2.117411130479368
 20
0.751563864690489
 30
0.0
  0
VERTEX
  5
236
330
233
100
AcDbEntity
  8
1
  6
Continuous
 62
     7
 48
2.0
100
AcDbVertex
100
AcDb2dVertex
 10
-2.133916888961366
 20
0.7150153967450521
 30
0.0
  0
VERTEX
  5
237
330
233
100
AcDbEntity
  8
1
  6
Continuous
 62
     7
 48
2.0
100
AcDbVertex
100
AcDb2dVertex
 10
-2.152780612940788
 20
0.725626242277599
 30
0.0
  0
SEQEND
  5
238
330
233
100
AcDbEntity
  8
1
  6
Continuous
 62
     7
 48
2.0
370
     0
  0
LINE
  5
239
330
1F
100
AcDbEntity
  8
1
  6
Continuous
 62
     7
 48
2.0
370
     0
100
AcDbLine
 10
-2.194045009145782
 20
0.0043340171824511
 30
0.0
 11
-2.191722629062468
 21
-0.1401180348105413
 31
0.0
  0
POLYLINE
  5
23A
330
1F
100
AcDbEntity
  8
1
  6
Continuous
 62
     7
 48
2.0
370
     0
100
AcDb2dPolyline
 66
     1
 10
0.0
 20
0.0
 30
0.0
 70
   128
  0
VERTEX
  5
23B
330
23A
100
AcDbEntity
  8
1
  6
Continuous
 62
     7
 48
2.0
100
AcDbVertex
100
AcDb2dVertex
 10
-2.191526009434202
 20
-0.1523477766033281
 30
0.0
  0
VERTEX
  5
23C
330
23A
100
AcDbEntity
  8
1
  6
Continuous
 62
     7
 48
2.0
100
AcDbVertex
100
AcDb2dVertex
 10
-2.188150095402207
 20
-0.3623296451089182
 30
0.0
  0
VERTEX
  5
23D
330
23A
100
AcDbEntity
  8
1
  6
Continuous
 62
     7
 48
2.0
100
AcDbVertex
100
AcDb2dVertex
 10
-2.176360267915072
 20
-0.5226713109340864
 30
0.0
  0
VERTEX
  5
23E
330
23A
100
AcDbEntity
  8
1
  6
Continuous
 62
     7
 48
2.0
100
AcDbVertex
100
AcDb2dVertex
 10
-2.164570440427926
 20
-0.5934102811510691
 30
0.0
  0
VERTEX
  5
23F
330
23A
100
AcDbEntity
  8
1
  6
Continuous
 62
     7
 48
2.0
100
AcDbVertex
100
AcDb2dVertex
 10
-2.145706716448505
 20
-0.6570753543463574
 30
0.0
  0
VERTEX
  5
240
330
23A
100
AcDbEntity
  8
1
  6
Continuous
 62
     7
 48
2.0
100
AcDbVertex
100
AcDb2dVertex
 10
-2.124485026971655
 20
-0.6558963715094102
 30
0.0
  0
VERTEX
  5
241
330
23A
100
AcDbEntity
  8
1
  6
Continuous
 62
     7
 48
2.0
100
AcDbVertex
100
AcDb2dVertex
 10
-2.038419286315538
 20
-0.6122740065422683
 30
0.0
  0
VERTEX
  5
242
330
23A
100
AcDbEntity
  8
1
  6
Continuous
 62
     7
 48
2.0
100
AcDbVertex
100
AcDb2dVertex
 10
-2.045493182807817
 20
-0.5639357102273301
 30
0.0
  0
VERTEX
  5
243
330
23A
100
AcDbEntity
  8
1
  6
Continuous
 62
     7
 48
2.0
100
AcDbVertex
100
AcDb2dVertex
 10
-2.071430803279526
 20
-0.3564347309241711
 30
0.0
  0
VERTEX
  5
244
330
23A
100
AcDbEntity
  8
1
  6
Continuous
 62
     7
 48
2.0
100
AcDbVertex
100
AcDb2dVertex
 10
-2.077325717023093
 20
-0.1548286658057627
 30
0.0
  0
VERTEX
  5
245
330
23A
100
AcDbEntity
  8
1
  6
Continuous
 62
     7
 48
2.0
100
AcDbVertex
100
AcDb2dVertex
 10
-2.077714300483343
 20
-0.1414225354236081
 30
0.0
  0
SEQEND
  5
246
330
23A
100
AcDbEntity
  8
1
  6
Continuous
 62
     7
 48
2.0
370
     0
  0
POLYLINE
  5
247
330
1F
100
AcDbEntity
  8
1
  6
Continuous
 62
     7
 48
2.0
370
     0
100
AcDb2dPolyline
 66
     1
 10
0.0
 20
0.0
 30
0.0
 70
   128
  0
VERTEX
  5
248
330
247
100
AcDbEntity
  8
1
  6
Continuous
 62
     7
 48
2.0
100
AcDbVertex
100
AcDb2dVertex
 10
-2.235019670797385
 20
0.0006210422254682
 30
0.0
  0
VERTEX
  5
249
330
247
100
AcDbEntity
  8
1
  6
Continuous
 62
     7
 48
2.0
100
AcDbVertex
100
AcDb2dVertex
 10
-2.229414491607201
 20
0.2528541246607432
 30
0.0
  0
VERTEX
  5
24A
330
247
100
AcDbEntity
  8
1
  6
Continuous
 62
     7
 48
2.0
100
AcDbVertex
100
AcDb2dVertex
 10
-2.221161612366203
 20
0.4591761211269514
 30
0.0
  0
VERTEX
  5
24B
330
247
100
AcDbEntity
  8
1
  6
Continuous
 62
     7
 48
2.0
100
AcDbVertex
100
AcDb2dVertex
 10
-2.203476871135493
 20
0.5994750787239767
 30
0.0
  0
VERTEX
  5
24C
330
247
100
AcDbEntity
  8
1
  6
Continuous
 62
     7
 48
2.0
100
AcDbVertex
100
AcDb2dVertex
 10
-2.163391457679214
 20
0.7232682766036973
 30
0.0
  0
VERTEX
  5
24D
330
247
100
AcDbEntity
  8
1
  6
Continuous
 62
     7
 48
2.0
100
AcDbVertex
100
AcDb2dVertex
 10
-2.144527733699793
 20
0.7704275900816882
 30
0.0
  0
VERTEX
  5
24E
330
247
100
AcDbEntity
  8
1
  6
Continuous
 62
     7
 48
2.0
100
AcDbVertex
100
AcDb2dVertex
 10
-2.104442320243514
 20
0.8057970751901777
 30
0.0
  0
VERTEX
  5
24F
330
247
100
AcDbEntity
  8
1
  6
Continuous
 62
     7
 48
2.0
100
AcDbVertex
100
AcDb2dVertex
 10
-1.992438959115688
 20
0.8234818177444296
 30
0.0
  0
VERTEX
  5
250
330
247
100
AcDbEntity
  8
1
  6
Continuous
 62
     7
 48
2.0
100
AcDbVertex
100
AcDb2dVertex
 10
-1.879256615239143
 20
0.8281977490922259
 30
0.0
  0
VERTEX
  5
251
330
247
100
AcDbEntity
  8
1
  6
Continuous
 62
     7
 48
2.0
100
AcDbVertex
100
AcDb2dVertex
 10
-1.828560357044445
 20
0.8458824916464707
 30
0.0
  0
SEQEND
  5
252
330
247
100
AcDbEntity
  8
1
  6
Continuous
 62
     7
 48
2.0
370
     0
  0
LINE
  5
253
330
1F
100
AcDbEntity
  8
1
  6
Continuous
 62
     7
 48
2.0
370
     0
100
AcDbLine
 10
-2.235309405350772
 20
0.0102289313672017
 30
0.0
 11
-2.235308707367267
 21
0.0101975221071342
 31
0.0
  0
POLYLINE
  5
254
330
1F
100
AcDbEntity
  8
1
  6
Continuous
 62
     7
 48
2.0
370
     0
100
AcDb2dPolyline
 66
     1
 10
0.0
 20
0.0
 30
0.0
 70
   128
  0
VERTEX
  5
255
330
254
100
AcDbEntity
  8
1
  6
Continuous
 62
     7
 48
2.0
100
AcDbVertex
100
AcDb2dVertex
 10
-2.235049125841805
 20
-0.001483647413167
 30
0.0
  0
VERTEX
  5
256
330
254
100
AcDbEntity
  8
1
  6
Continuous
 62
     7
 48
2.0
100
AcDbVertex
100
AcDb2dVertex
 10
-2.229414491607201
 20
-0.2550422069464915
 30
0.0
  0
VERTEX
  5
257
330
254
100
AcDbEntity
  8
1
  6
Continuous
 62
     7
 48
2.0
100
AcDbVertex
100
AcDb2dVertex
 10
-2.221161612366203
 20
-0.4613642034126997
 30
0.0
  0
VERTEX
  5
258
330
254
100
AcDbEntity
  8
1
  6
Continuous
 62
     7
 48
2.0
100
AcDbVertex
100
AcDb2dVertex
 10
-2.203476871135493
 20
-0.6016631610097214
 30
0.0
  0
VERTEX
  5
259
330
254
100
AcDbEntity
  8
1
  6
Continuous
 62
     7
 48
2.0
100
AcDbVertex
100
AcDb2dVertex
 10
-2.163391457679214
 20
-0.7254563588894456
 30
0.0
  0
VERTEX
  5
25A
330
254
100
AcDbEntity
  8
1
  6
Continuous
 62
     7
 48
2.0
100
AcDbVertex
100
AcDb2dVertex
 10
-2.144527733699793
 20
-0.7726156723674364
 30
0.0
  0
VERTEX
  5
25B
330
254
100
AcDbEntity
  8
1
  6
Continuous
 62
     7
 48
2.0
100
AcDbVertex
100
AcDb2dVertex
 10
-2.104442320243514
 20
-0.8079851574759296
 30
0.0
  0
VERTEX
  5
25C
330
254
100
AcDbEntity
  8
1
  6
Continuous
 62
     7
 48
2.0
100
AcDbVertex
100
AcDb2dVertex
 10
-1.992438959115688
 20
-0.8256699000301744
 30
0.0
  0
VERTEX
  5
25D
330
254
100
AcDbEntity
  8
1
  6
Continuous
 62
     7
 48
2.0
100
AcDbVertex
100
AcDb2dVertex
 10
-1.879256615239143
 20
-0.8303858313779706
 30
0.0
  0
VERTEX
  5
25E
330
254
100
AcDbEntity
  8
1
  6
Continuous
 62
     7
 48
2.0
100
AcDbVertex
100
AcDb2dVertex
 10
-1.828560357044445
 20
-0.848070573932219
 30
0.0
  0
SEQEND
  5
25F
330
254
100
AcDbEntity
  8
1
  6
Continuous
 62
     7
 48
2.0
370
     0
  0
POLYLINE
  5
260
330
1F
100
AcDbEntity
  8
1
  6
Continuous
 62
     7
 48
2.0
370
     0
100
AcDb2dPolyline
 66
     1
 10
0.0
 20
0.0
 30
0.0
 70
   128
  0
VERTEX
  5
261
330
260
100
AcDbEntity
  8
1
  6
Continuous
 62
     7
 48
2.0
100
AcDbVertex
100
AcDb2dVertex
 10
-2.212627500059483
 20
0.000502816835386
 30
0.0
  0
VERTEX
  5
262
330
260
100
AcDbEntity
  8
1
  6
Continuous
 62
     7
 48
2.0
100
AcDbVertex
100
AcDb2dVertex
 10
-2.202297888386777
 20
0.3884371509099651
 30
0.0
  0
VERTEX
  5
263
330
260
100
AcDbEntity
  8
1
  6
Continuous
 62
     7
 48
2.0
100
AcDbVertex
100
AcDb2dVertex
 10
-2.182255181658636
 20
0.5841483018436264
 30
0.0
  0
VERTEX
  5
264
330
260
100
AcDbEntity
  8
1
  6
Continuous
 62
     7
 48
2.0
100
AcDbVertex
100
AcDb2dVertex
 10
-2.146885699197217
 20
0.6843618429843517
 30
0.0
  0
VERTEX
  5
265
330
260
100
AcDbEntity
  8
1
  6
Continuous
 62
     7
 48
2.0
100
AcDbVertex
100
AcDb2dVertex
 10
-2.130379940715226
 20
0.7161943795819994
 30
0.0
  0
VERTEX
  5
266
330
260
100
AcDbEntity
  8
1
  6
Continuous
 62
     7
 48
2.0
100
AcDbVertex
100
AcDb2dVertex
 10
-2.087936561761524
 20
0.7798594527772877
 30
0.0
  0
VERTEX
  5
267
330
260
100
AcDbEntity
  8
1
  6
Continuous
 62
     7
 48
2.0
100
AcDbVertex
100
AcDb2dVertex
 10
-2.013660648592541
 20
0.8046180923532305
 30
0.0
  0
VERTEX
  5
268
330
260
100
AcDbEntity
  8
1
  6
Continuous
 62
     7
 48
2.0
100
AcDbVertex
100
AcDb2dVertex
 10
-1.888688477228854
 20
0.8199448692335736
 30
0.0
  0
VERTEX
  5
269
330
260
100
AcDbEntity
  8
1
  6
Continuous
 62
     7
 48
2.0
100
AcDbVertex
100
AcDb2dVertex
 10
-1.169509000513322
 20
0.8329136804400221
 30
0.0
  0
SEQEND
  5
26A
330
260
100
AcDbEntity
  8
1
  6
Continuous
 62
     7
 48
2.0
370
     0
  0
POLYLINE
  5
26B
330
1F
100
AcDbEntity
  8
1
  6
Continuous
 62
     7
 48
2.0
370
     0
100
AcDb2dPolyline
 66
     1
 10
0.0
 20
0.0
 30
0.0
 70
   128
  0
VERTEX
  5
26C
330
26B
100
AcDbEntity
  8
1
  6
Continuous
 62
     7
 48
2.0
100
AcDbVertex
100
AcDb2dVertex
 10
-2.212653425824378
 20
-0.0017172425443661
 30
0.0
  0
VERTEX
  5
26D
330
26B
100
AcDbEntity
  8
1
  6
Continuous
 62
     7
 48
2.0
100
AcDbVertex
100
AcDb2dVertex
 10
-2.202297888386777
 20
-0.3906252331957134
 30
0.0
  0
VERTEX
  5
26E
330
26B
100
AcDbEntity
  8
1
  6
Continuous
 62
     7
 48
2.0
100
AcDbVertex
100
AcDb2dVertex
 10
-2.182255181658636
 20
-0.5863363841293712
 30
0.0
  0
VERTEX
  5
26F
330
26B
100
AcDbEntity
  8
1
  6
Continuous
 62
     7
 48
2.0
100
AcDbVertex
100
AcDb2dVertex
 10
-2.146885699197217
 20
-0.6865499252701035
 30
0.0
  0
VERTEX
  5
270
330
26B
100
AcDbEntity
  8
1
  6
Continuous
 62
     7
 48
2.0
100
AcDbVertex
100
AcDb2dVertex
 10
-2.130379940715226
 20
-0.7183824618677477
 30
0.0
  0
VERTEX
  5
271
330
26B
100
AcDbEntity
  8
1
  6
Continuous
 62
     7
 48
2.0
100
AcDbVertex
100
AcDb2dVertex
 10
-2.087936561761524
 20
-0.7820475350630325
 30
0.0
  0
VERTEX
  5
272
330
26B
100
AcDbEntity
  8
1
  6
Continuous
 62
     7
 48
2.0
100
AcDbVertex
100
AcDb2dVertex
 10
-2.013660648592541
 20
-0.8068061746389787
 30
0.0
  0
VERTEX
  5
273
330
26B
100
AcDbEntity
  8
1
  6
Continuous
 62
     7
 48
2.0
100
AcDbVertex
100
AcDb2dVertex
 10
-1.888688477228854
 20
-0.8221329515193254
 30
0.0
  0
VERTEX
  5
274
330
26B
100
AcDbEntity
  8
1
  6
Continuous
 62
     7
 48
2.0
100
AcDbVertex
100
AcDb2dVertex
 10
-1.169509000513322
 20
-0.835101762725774
 30
0.0
  0
SEQEND
  5
275
330
26B
100
AcDbEntity
  8
1
  6
Continuous
 62
     7
 48
2.0
370
     0
  0
POLYLINE
  5
276
330
1F
100
AcDbEntity
  8
1
  6
Continuous
 62
     7
 48
2.0
370
     0
100
AcDb2dPolyline
 66
     1
 10
0.0
 20
0.0
 30
0.0
 70
   128
  0
VERTEX
  5
277
330
276
100
AcDbEntity
  8
1
  6
Continuous
 62
     7
 48
2.0
100
AcDbVertex
100
AcDb2dVertex
 10
-2.194045009145782
 20
-0.0065220994681994
 30
0.0
  0
VERTEX
  5
278
330
276
100
AcDbEntity
  8
1
  6
Continuous
 62
     7
 48
2.0
100
AcDbVertex
100
AcDb2dVertex
 10
-2.188150095402207
 20
0.3601415628231734
 30
0.0
  0
VERTEX
  5
279
330
276
100
AcDbEntity
  8
1
  6
Continuous
 62
     7
 48
2.0
100
AcDbVertex
100
AcDb2dVertex
 10
-2.176360267915072
 20
0.5204832286483381
 30
0.0
  0
VERTEX
  5
27A
330
276
100
AcDbEntity
  8
1
  6
Continuous
 62
     7
 48
2.0
100
AcDbVertex
100
AcDb2dVertex
 10
-2.164570440427926
 20
0.5912221988653243
 30
0.0
  0
VERTEX
  5
27B
330
276
100
AcDbEntity
  8
1
  6
Continuous
 62
     7
 48
2.0
100
AcDbVertex
100
AcDb2dVertex
 10
-2.145706716448505
 20
0.6548872720606127
 30
0.0
  0
VERTEX
  5
27C
330
276
100
AcDbEntity
  8
1
  6
Continuous
 62
     7
 48
2.0
100
AcDbVertex
100
AcDb2dVertex
 10
-2.124485026971655
 20
0.6537082892236654
 30
0.0
  0
VERTEX
  5
27D
330
276
100
AcDbEntity
  8
1
  6
Continuous
 62
     7
 48
2.0
100
AcDbVertex
100
AcDb2dVertex
 10
-2.038419286315538
 20
0.6100859242565164
 30
0.0
  0
VERTEX
  5
27E
330
276
100
AcDbEntity
  8
1
  6
Continuous
 62
     7
 48
2.0
100
AcDbVertex
100
AcDb2dVertex
 10
-2.045493182807817
 20
0.5617476279415783
 30
0.0
  0
VERTEX
  5
27F
330
276
100
AcDbEntity
  8
1
  6
Continuous
 62
     7
 48
2.0
100
AcDbVertex
100
AcDb2dVertex
 10
-2.071430803279526
 20
0.3542466486384228
 30
0.0
  0
VERTEX
  5
280
330
276
100
AcDbEntity
  8
1
  6
Continuous
 62
     7
 48
2.0
100
AcDbVertex
100
AcDb2dVertex
 10
-2.077325717023093
 20
0.152640583520018
 30
0.0
  0
VERTEX
  5
281
330
276
100
AcDbEntity
  8
1
  6
Continuous
 62
     7
 48
2.0
100
AcDbVertex
100
AcDb2dVertex
 10
-2.081759495616431
 20
-0.0003247893981211
 30
0.0
  0
SEQEND
  5
282
330
276
100
AcDbEntity
  8
1
  6
Continuous
 62
     7
 48
2.0
370
     0
  0
LINE
  5
283
330
1F
100
AcDbEntity
  8
1
  6
Continuous
 62
     7
 48
2.0
370
     0
100
AcDbLine
 10
-2.07805047389791
 20
-0.1298245517532024
 30
0.0
 11
-2.081807956956666
 21
-0.0001913765242563
 31
0.0
  0
POLYLINE
  5
284
330
1F
100
AcDbEntity
  8
1
  6
Continuous
 62
     7
 48
2.0
370
     0
100
AcDb2dPolyline
 66
     1
 10
0.0
 20
0.0
 30
0.0
 70
   128
  0
VERTEX
  5
285
330
284
100
AcDbEntity
  8
1
  6
Continuous
 62
     7
 48
2.0
100
AcDbVertex
100
AcDb2dVertex
 10
-2.046079575214257
 20
0.0049162551557416
 30
0.0
  0
VERTEX
  5
286
330
284
100
AcDbEntity
  8
1
  6
Continuous
 62
     7
 48
2.0
100
AcDbVertex
100
AcDb2dVertex
 10
-2.037240303566819
 20
0.2634649701932901
 30
0.0
  0
VERTEX
  5
287
330
284
100
AcDbEntity
  8
1
  6
Continuous
 62
     7
 48
2.0
100
AcDbVertex
100
AcDb2dVertex
 10
-2.019555562336109
 20
0.4721449323333999
 30
0.0
  0
VERTEX
  5
288
330
284
100
AcDbEntity
  8
1
  6
Continuous
 62
     7
 48
2.0
100
AcDbVertex
100
AcDb2dVertex
 10
-1.978291166131122
 20
0.6018330443978712
 30
0.0
  0
VERTEX
  5
289
330
284
100
AcDbEntity
  8
1
  6
Continuous
 62
     7
 48
2.0
100
AcDbVertex
100
AcDb2dVertex
 10
-1.962964390397836
 20
0.6254127011368666
 30
0.0
  0
SEQEND
  5
28A
330
284
100
AcDbEntity
  8
1
  6
Continuous
 62
     7
 48
2.0
370
     0
  0
POLYLINE
  5
28B
330
1F
100
AcDbEntity
  8
1
  6
Continuous
 62
     7
 48
2.0
370
     0
100
AcDb2dPolyline
 66
     1
 10
0.0
 20
0.0
 30
0.0
 70
   128
  0
VERTEX
  5
28C
330
28B
100
AcDbEntity
  8
1
  6
Continuous
 62
     7
 48
2.0
100
AcDbVertex
100
AcDb2dVertex
 10
-2.046306548756895
 20
-0.0004653608223748
 30
0.0
  0
VERTEX
  5
28D
330
28B
100
AcDbEntity
  8
1
  6
Continuous
 62
     7
 48
2.0
100
AcDbVertex
100
AcDb2dVertex
 10
-2.037240303566819
 20
-0.2656530524790384
 30
0.0
  0
VERTEX
  5
28E
330
28B
100
AcDbEntity
  8
1
  6
Continuous
 62
     7
 48
2.0
100
AcDbVertex
100
AcDb2dVertex
 10
-2.019555562336109
 20
-0.4743330146191482
 30
0.0
  0
VERTEX
  5
28F
330
28B
100
AcDbEntity
  8
1
  6
Continuous
 62
     7
 48
2.0
100
AcDbVertex
100
AcDb2dVertex
 10
-1.978291166131122
 20
-0.6040211266836195
 30
0.0
  0
VERTEX
  5
290
330
28B
100
AcDbEntity
  8
1
  6
Continuous
 62
     7
 48
2.0
100
AcDbVertex
100
AcDb2dVertex
 10
-1.962964390397836
 20
-0.6276007834226149
 30
0.0
  0
SEQEND
  5
291
330
28B
100
AcDbEntity
  8
1
  6
Continuous
 62
     7
 48
2.0
370
     0
  0
LINE
  5
292
330
1F
100
AcDbEntity
  8
1
  6
Continuous
 62
     7
 48
2.0
370
     0
100
AcDbLine
 10
-2.04612701777021
 20
0.0054693745737069
 30
0.0
 11
-2.046268520400226
 21
-0.0008982440064358
 31
0.0
  0
LINE
  5
293
330
1F
100
AcDbEntity
  8
1
  6
Continuous
 62
     7
 48
2.0
370
     0
100
AcDbLine
 10
0.5724677434703338
 20
-0.0070824633546991
 30
0.0
 11
0.5724671899761304
 21
-0.0070625375644298
 31
0.0
  0
POLYLINE
  5
294
330
1F
100
AcDbEntity
  8
1
  6
Continuous
 62
     7
 48
2.0
370
     0
100
AcDb2dPolyline
 66
     1
 10
0.0
 20
0.0
 30
0.0
 70
   128
  0
VERTEX
  5
295
330
294
100
AcDbEntity
  8
1
  6
Continuous
 62
     7
 48
2.0
100
AcDbVertex
100
AcDb2dVertex
 10
0.5722795380615366
 20
-0.0003070689341982
 30
0.0
  0
VERTEX
  5
296
330
294
100
AcDbEntity
  8
1
  6
Continuous
 62
     7
 48
2.0
100
AcDbVertex
100
AcDb2dVertex
 10
0.5657101589827604
 20
0.2361905675665597
 30
0.0
  0
VERTEX
  5
297
330
294
100
AcDbEntity
  8
1
  6
Continuous
 62
     7
 48
2.0
100
AcDbVertex
100
AcDb2dVertex
 10
0.5440858886225115
 20
0.4551362953956826
 30
0.0
  0
VERTEX
  5
298
330
294
100
AcDbEntity
  8
1
  6
Continuous
 62
     7
 48
2.0
100
AcDbVertex
100
AcDb2dVertex
 10
0.5224616182622626
 20
0.6132637654944872
 30
0.0
  0
VERTEX
  5
299
330
294
100
AcDbEntity
  8
1
  6
Continuous
 62
     7
 48
2.0
100
AcDbVertex
100
AcDb2dVertex
 10
0.5089464492871159
 20
0.6511062369711311
 30
0.0
  0
SEQEND
  5
29A
330
294
100
AcDbEntity
  8
1
  6
Continuous
 62
     7
 48
2.0
370
     0
  0
POLYLINE
  5
29B
330
1F
100
AcDbEntity
  8
1
  6
Continuous
 62
     7
 48
2.0
370
     0
100
AcDb2dPolyline
 66
     1
 10
0.0
 20
0.0
 30
0.0
 70
   128
  0
VERTEX
  5
29C
330
29B
100
AcDbEntity
  8
1
  6
Continuous
 62
     7
 48
2.0
100
AcDbVertex
100
AcDb2dVertex
 10
0.5722932838182189
 20
-0.0013861661324839
 30
0.0
  0
VERTEX
  5
29D
330
29B
100
AcDbEntity
  8
1
  6
Continuous
 62
     7
 48
2.0
100
AcDbVertex
100
AcDb2dVertex
 10
0.5657101589827604
 20
-0.2383786498523044
 30
0.0
  0
VERTEX
  5
29E
330
29B
100
AcDbEntity
  8
1
  6
Continuous
 62
     7
 48
2.0
100
AcDbVertex
100
AcDb2dVertex
 10
0.5440858886225115
 20
-0.4573243776814309
 30
0.0
  0
VERTEX
  5
29F
330
29B
100
AcDbEntity
  8
1
  6
Continuous
 62
     7
 48
2.0
100
AcDbVertex
100
AcDb2dVertex
 10
0.5224616182622626
 20
-0.6154518477802426
 30
0.0
  0
VERTEX
  5
2A0
330
29B
100
AcDbEntity
  8
1
  6
Continuous
 62
     7
 48
2.0
100
AcDbVertex
100
AcDb2dVertex
 10
0.5089464492871159
 20
-0.6532943192568794
 30
0.0
  0
SEQEND
  5
2A1
330
29B
100
AcDbEntity
  8
1
  6
Continuous
 62
     7
 48
2.0
370
     0
  0
LINE
  5
2A2
330
1F
100
AcDbEntity
  8
1
  6
Continuous
 62
     7
 48
2.0
370
     0
100
AcDbLine
 10
0.6864057683769644
 20
0.0069263914246136
 30
0.0
 11
0.6867595249520093
 21
-0.0001487400449705
 31
0.0
  0
POLYLINE
  5
2A3
330
1F
100
AcDbEntity
  8
1
  6
Continuous
 62
     7
 48
2.0
370
     0
100
AcDb2dPolyline
 66
     1
 10
0.0
 20
0.0
 30
0.0
 70
   128
  0
VERTEX
  5
2A4
330
2A3
100
AcDbEntity
  8
1
  6
Continuous
 62
     7
 48
2.0
100
AcDbVertex
100
AcDb2dVertex
 10
1.469345345060141
 20
0.002133958808507
 30
0.0
  0
VERTEX
  5
2A5
330
2A3
100
AcDbEntity
  8
1
  6
Continuous
 62
     7
 48
2.0
100
AcDbVertex
100
AcDb2dVertex
 10
1.448250693060302
 20
0.2267299496973934
 30
0.0
  0
VERTEX
  5
2A6
330
2A3
100
AcDbEntity
  8
1
  6
Continuous
 62
     7
 48
2.0
100
AcDbVertex
100
AcDb2dVertex
 10
1.398244567852231
 20
0.440269610172713
 30
0.0
  0
VERTEX
  5
2A7
330
2A3
100
AcDbEntity
  8
1
  6
Continuous
 62
     7
 48
2.0
100
AcDbVertex
100
AcDb2dVertex
 10
1.329317206078947
 20
0.6065061813022368
 30
0.0
  0
VERTEX
  5
2A8
330
2A3
100
AcDbEntity
  8
1
  6
Continuous
 62
     7
 48
2.0
100
AcDbVertex
100
AcDb2dVertex
 10
1.275256530178332
 20
0.688948708447775
 30
0.0
  0
VERTEX
  5
2A9
330
2A3
100
AcDbEntity
  8
1
  6
Continuous
 62
     7
 48
2.0
100
AcDbVertex
100
AcDb2dVertex
 10
1.241468607740451
 20
0.7119244947014423
 30
0.0
  0
VERTEX
  5
2AA
330
2A3
100
AcDbEntity
  8
1
  6
Continuous
 62
     7
 48
2.0
100
AcDbVertex
100
AcDb2dVertex
 10
1.173892762864675
 20
0.7213851125706086
 30
0.0
  0
VERTEX
  5
2AB
330
2A3
100
AcDbEntity
  8
1
  6
Continuous
 62
     7
 48
2.0
100
AcDbVertex
100
AcDb2dVertex
 10
1.048201691395747
 20
0.7078699441860934
 30
0.0
  0
VERTEX
  5
2AC
330
2A3
100
AcDbEntity
  8
1
  6
Continuous
 62
     7
 48
2.0
100
AcDbVertex
100
AcDb2dVertex
 10
0.554898023802636
 20
0.63353651807126
 30
0.0
  0
VERTEX
  5
2AD
330
2A3
100
AcDbEntity
  8
1
  6
Continuous
 62
     7
 48
2.0
100
AcDbVertex
100
AcDb2dVertex
 10
0.5751707772653702
 20
0.4172938239190458
 30
0.0
  0
VERTEX
  5
2AE
330
2A3
100
AcDbEntity
  8
1
  6
Continuous
 62
     7
 48
2.0
100
AcDbVertex
100
AcDb2dVertex
 10
0.5954435307280974
 20
0.2118632644744309
 30
0.0
  0
VERTEX
  5
2AF
330
2A3
100
AcDbEntity
  8
1
  6
Continuous
 62
     7
 48
2.0
100
AcDbVertex
100
AcDb2dVertex
 10
0.6116617334982877
 20
0.1753723098362414
 30
0.0
  0
VERTEX
  5
2B0
330
2A3
100
AcDbEntity
  8
1
  6
Continuous
 62
     7
 48
2.0
100
AcDbVertex
100
AcDb2dVertex
 10
0.6508557235262273
 20
0.1591541077748317
 30
0.0
  0
VERTEX
  5
2B1
330
2A3
100
AcDbEntity
  8
1
  6
Continuous
 62
     7
 48
2.0
100
AcDbVertex
100
AcDb2dVertex
 10
0.6751830276815056
 20
0.1307722541673471
 30
0.0
  0
VERTEX
  5
2B2
330
2A3
100
AcDbEntity
  8
1
  6
Continuous
 62
     7
 48
2.0
100
AcDbVertex
100
AcDb2dVertex
 10
0.6832921290666008
 20
0.0915782658522559
 30
0.0
  0
VERTEX
  5
2B3
330
2A3
100
AcDbEntity
  8
1
  6
Continuous
 62
     7
 48
2.0
100
AcDbVertex
100
AcDb2dVertex
 10
0.6864723675719446
 20
0.0067719094157965
 30
0.0
  0
SEQEND
  5
2B4
330
2A3
100
AcDbEntity
  8
1
  6
Continuous
 62
     7
 48
2.0
370
     0
  0
POLYLINE
  5
2B5
330
1F
100
AcDbEntity
  8
1
  6
Continuous
 62
     7
 48
2.0
370
     0
100
AcDb2dPolyline
 66
     1
 10
0.0
 20
0.0
 30
0.0
 70
   128
  0
VERTEX
  5
2B6
330
2B5
100
AcDbEntity
  8
1
  6
Continuous
 62
     7
 48
2.0
100
AcDbVertex
100
AcDb2dVertex
 10
1.53634428456408
 20
0.0080772303705103
 30
0.0
  0
VERTEX
  5
2B7
330
2B5
100
AcDbEntity
  8
1
  6
Continuous
 62
     7
 48
2.0
100
AcDbVertex
100
AcDb2dVertex
 10
1.53069322380874
 20
0.182129894028499
 30
0.0
  0
VERTEX
  5
2B8
330
2B5
100
AcDbEntity
  8
1
  6
Continuous
 62
     7
 48
2.0
100
AcDbVertex
100
AcDb2dVertex
 10
1.500959852063403
 20
0.3307967462581516
 30
0.0
  0
VERTEX
  5
2B9
330
2B5
100
AcDbEntity
  8
1
  6
Continuous
 62
     7
 48
2.0
100
AcDbVertex
100
AcDb2dVertex
 10
1.442844625470244
 20
0.4821666321647129
 30
0.0
  0
VERTEX
  5
2BA
330
2B5
100
AcDbEntity
  8
1
  6
Continuous
 62
     7
 48
2.0
100
AcDbVertex
100
AcDb2dVertex
 10
1.352292993336711
 20
0.6484032032942295
 30
0.0
  0
VERTEX
  5
2BB
330
2B5
100
AcDbEntity
  8
1
  6
Continuous
 62
     7
 48
2.0
100
AcDbVertex
100
AcDb2dVertex
 10
1.295529283641066
 20
0.7227366294090558
 30
0.0
  0
VERTEX
  5
2BC
330
2B5
100
AcDbEntity
  8
1
  6
Continuous
 62
     7
 48
2.0
100
AcDbVertex
100
AcDb2dVertex
 10
1.252280742920576
 20
0.7335487641166694
 30
0.0
  0
VERTEX
  5
2BD
330
2B5
100
AcDbEntity
  8
1
  6
Continuous
 62
     7
 48
2.0
100
AcDbVertex
100
AcDb2dVertex
 10
1.15497152629947
 20
0.7335487641166694
 30
0.0
  0
VERTEX
  5
2BE
330
2B5
100
AcDbEntity
  8
1
  6
Continuous
 62
     7
 48
2.0
100
AcDbVertex
100
AcDb2dVertex
 10
0.9400803395945161
 20
0.7119244947014423
 30
0.0
  0
VERTEX
  5
2BF
330
2B5
100
AcDbEntity
  8
1
  6
Continuous
 62
     7
 48
2.0
100
AcDbVertex
100
AcDb2dVertex
 10
0.6346375207560442
 20
0.6686759558710023
 30
0.0
  0
VERTEX
  5
2C0
330
2B5
100
AcDbEntity
  8
1
  6
Continuous
 62
     7
 48
2.0
100
AcDbVertex
100
AcDb2dVertex
 10
0.5130009999796599
 20
0.6524577538095784
 30
0.0
  0
VERTEX
  5
2C1
330
2B5
100
AcDbEntity
  8
1
  6
Continuous
 62
     7
 48
2.0
100
AcDbVertex
100
AcDb2dVertex
 10
0.2900007118896255
 20
0.6362395517481687
 30
0.0
  0
SEQEND
  5
2C2
330
2B5
100
AcDbEntity
  8
1
  6
Continuous
 62
     7
 48
2.0
370
     0
  0
POLYLINE
  5
2C3
330
1F
100
AcDbEntity
  8
1
  6
Continuous
 62
     7
 48
2.0
370
     0
100
AcDb2dPolyline
 66
     1
 10
0.0
 20
0.0
 30
0.0
 70
   128
  0
VERTEX
  5
2C4
330
2C3
100
AcDbEntity
  8
1
  6
Continuous
 62
     7
 48
2.0
100
AcDbVertex
100
AcDb2dVertex
 10
1.536639822356889
 20
-0.0011627490355082
 30
0.0
  0
VERTEX
  5
2C5
330
2C3
100
AcDbEntity
  8
1
  6
Continuous
 62
     7
 48
2.0
100
AcDbVertex
100
AcDb2dVertex
 10
1.53069322380874
 20
-0.1843179763142508
 30
0.0
  0
VERTEX
  5
2C6
330
2C3
100
AcDbEntity
  8
1
  6
Continuous
 62
     7
 48
2.0
100
AcDbVertex
100
AcDb2dVertex
 10
1.500959852063403
 20
-0.3329848285439034
 30
0.0
  0
VERTEX
  5
2C7
330
2C3
100
AcDbEntity
  8
1
  6
Continuous
 62
     7
 48
2.0
100
AcDbVertex
100
AcDb2dVertex
 10
1.442844625470244
 20
-0.4843547144504576
 30
0.0
  0
VERTEX
  5
2C8
330
2C3
100
AcDbEntity
  8
1
  6
Continuous
 62
     7
 48
2.0
100
AcDbVertex
100
AcDb2dVertex
 10
1.352292993336711
 20
-0.6505912855799778
 30
0.0
  0
VERTEX
  5
2C9
330
2C3
100
AcDbEntity
  8
1
  6
Continuous
 62
     7
 48
2.0
100
AcDbVertex
100
AcDb2dVertex
 10
1.295529283641066
 20
-0.7249247116948041
 30
0.0
  0
VERTEX
  5
2CA
330
2C3
100
AcDbEntity
  8
1
  6
Continuous
 62
     7
 48
2.0
100
AcDbVertex
100
AcDb2dVertex
 10
1.252280742920576
 20
-0.7357368464024141
 30
0.0
  0
VERTEX
  5
2CB
330
2C3
100
AcDbEntity
  8
1
  6
Continuous
 62
     7
 48
2.0
100
AcDbVertex
100
AcDb2dVertex
 10
1.15497152629947
 20
-0.7357368464024141
 30
0.0
  0
VERTEX
  5
2CC
330
2C3
100
AcDbEntity
  8
1
  6
Continuous
 62
     7
 48
2.0
100
AcDbVertex
100
AcDb2dVertex
 10
0.9400803395945161
 20
-0.7141125769871941
 30
0.0
  0
VERTEX
  5
2CD
330
2C3
100
AcDbEntity
  8
1
  6
Continuous
 62
     7
 48
2.0
100
AcDbVertex
100
AcDb2dVertex
 10
0.6346375207560442
 20
-0.6708640381567506
 30
0.0
  0
VERTEX
  5
2CE
330
2C3
100
AcDbEntity
  8
1
  6
Continuous
 62
     7
 48
2.0
100
AcDbVertex
100
AcDb2dVertex
 10
0.5130009999796599
 20
-0.6546458360953338
 30
0.0
  0
VERTEX
  5
2CF
330
2C3
100
AcDbEntity
  8
1
  6
Continuous
 62
     7
 48
2.0
100
AcDbVertex
100
AcDb2dVertex
 10
0.2900007118896255
 20
-0.638427634033917
 30
0.0
  0
SEQEND
  5
2D0
330
2C3
100
AcDbEntity
  8
1
  6
Continuous
 62
     7
 48
2.0
370
     0
  0
LINE
  5
2D1
330
1F
100
AcDbEntity
  8
1
  6
Continuous
 62
     7
 48
2.0
370
     0
100
AcDbLine
 10
1.536255810316725
 20
0.008429331870154
 30
0.0
 11
1.536616642002187
 21
-0.0018543715337316
 31
0.0
  0
LINE
  5
2D2
330
1F
100
AcDbEntity
  8
1
  6
Continuous
 62
     7
 48
2.0
370
     0
100
AcDbLine
 10
1.469321532663777
 20
0.0019343612992699
 30
0.0
 11
1.469321532663777
 21
-0.0038389458748398
 31
0.0
  0
LINE
  5
2D3
330
1F
100
AcDbEntity
  8
1
  6
Continuous
 62
     7
 48
2.0
370
     0
100
AcDbLine
 10
1.469813192939995
 20
0.0006591625853289
 30
0.0
 11
1.469801128824081
 21
0.0005307152391012
 31
0.0
  0
POLYLINE
  5
2D4
330
1F
100
AcDbEntity
  8
1
  6
Continuous
 62
     7
 48
2.0
370
     0
100
AcDb2dPolyline
 66
     1
 10
0.0
 20
0.0
 30
0.0
 70
   128
  0
VERTEX
  5
2D5
330
2D4
100
AcDbEntity
  8
1
  6
Continuous
 62
     7
 48
2.0
100
AcDbVertex
100
AcDb2dVertex
 10
1.469319770582992
 20
-0.004594334044981
 30
0.0
  0
VERTEX
  5
2D6
330
2D4
100
AcDbEntity
  8
1
  6
Continuous
 62
     7
 48
2.0
100
AcDbVertex
100
AcDb2dVertex
 10
1.448250693060302
 20
-0.2289180319831452
 30
0.0
  0
VERTEX
  5
2D7
330
2D4
100
AcDbEntity
  8
1
  6
Continuous
 62
     7
 48
2.0
100
AcDbVertex
100
AcDb2dVertex
 10
1.398244567852231
 20
-0.4424576924584649
 30
0.0
  0
VERTEX
  5
2D8
330
2D4
100
AcDbEntity
  8
1
  6
Continuous
 62
     7
 48
2.0
100
AcDbVertex
100
AcDb2dVertex
 10
1.329317206078947
 20
-0.6086942635879851
 30
0.0
  0
VERTEX
  5
2D9
330
2D4
100
AcDbEntity
  8
1
  6
Continuous
 62
     7
 48
2.0
100
AcDbVertex
100
AcDb2dVertex
 10
1.275256530178332
 20
-0.6911367907335197
 30
0.0
  0
VERTEX
  5
2DA
330
2D4
100
AcDbEntity
  8
1
  6
Continuous
 62
     7
 48
2.0
100
AcDbVertex
100
AcDb2dVertex
 10
1.241468607740451
 20
-0.7141125769871941
 30
0.0
  0
VERTEX
  5
2DB
330
2D4
100
AcDbEntity
  8
1
  6
Continuous
 62
     7
 48
2.0
100
AcDbVertex
100
AcDb2dVertex
 10
1.173892762864675
 20
-0.7235731948563533
 30
0.0
  0
VERTEX
  5
2DC
330
2D4
100
AcDbEntity
  8
1
  6
Continuous
 62
     7
 48
2.0
100
AcDbVertex
100
AcDb2dVertex
 10
1.048201691395747
 20
-0.7100580264718381
 30
0.0
  0
VERTEX
  5
2DD
330
2D4
100
AcDbEntity
  8
1
  6
Continuous
 62
     7
 48
2.0
100
AcDbVertex
100
AcDb2dVertex
 10
0.554898023802636
 20
-0.6357246003570154
 30
0.0
  0
VERTEX
  5
2DE
330
2D4
100
AcDbEntity
  8
1
  6
Continuous
 62
     7
 48
2.0
100
AcDbVertex
100
AcDb2dVertex
 10
0.5751707772653702
 20
-0.4194819062047905
 30
0.0
  0
VERTEX
  5
2DF
330
2D4
100
AcDbEntity
  8
1
  6
Continuous
 62
     7
 48
2.0
100
AcDbVertex
100
AcDb2dVertex
 10
0.5954435307280974
 20
-0.2140513467601792
 30
0.0
  0
VERTEX
  5
2E0
330
2D4
100
AcDbEntity
  8
1
  6
Continuous
 62
     7
 48
2.0
100
AcDbVertex
100
AcDb2dVertex
 10
0.6116617334982877
 20
-0.1775603921219933
 30
0.0
  0
VERTEX
  5
2E1
330
2D4
100
AcDbEntity
  8
1
  6
Continuous
 62
     7
 48
2.0
100
AcDbVertex
100
AcDb2dVertex
 10
0.6508557235262273
 20
-0.1613421900605765
 30
0.0
  0
VERTEX
  5
2E2
330
2D4
100
AcDbEntity
  8
1
  6
Continuous
 62
     7
 48
2.0
100
AcDbVertex
100
AcDb2dVertex
 10
0.6751830276815056
 20
-0.1329603364530954
 30
0.0
  0
VERTEX
  5
2E3
330
2D4
100
AcDbEntity
  8
1
  6
Continuous
 62
     7
 48
2.0
100
AcDbVertex
100
AcDb2dVertex
 10
0.6832921290666008
 20
-0.0937663481380078
 30
0.0
  0
VERTEX
  5
2E4
330
2D4
100
AcDbEntity
  8
1
  6
Continuous
 62
     7
 48
2.0
100
AcDbVertex
100
AcDb2dVertex
 10
0.6867961051465628
 20
-0.000326990089043
 30
0.0
  0
SEQEND
  5
2E5
330
2D4
100
AcDbEntity
  8
1
  6
Continuous
 62
     7
 48
2.0
370
     0
  0
POLYLINE
  5
2E6
330
1F
100
AcDbEntity
  8
1
  6
Continuous
 62
     7
 48
2.0
370
     0
100
AcDb2dPolyline
 66
     1
 10
0.0
 20
0.0
 30
0.0
 70
   128
  0
VERTEX
  5
2E7
330
2E6
100
AcDbEntity
  8
1
  6
Continuous
 62
     7
 48
2.0
100
AcDbVertex
100
AcDb2dVertex
 10
2.215617582845177
 20
0.000678180407796
 30
0.0
  0
VERTEX
  5
2E8
330
2E6
100
AcDbEntity
  8
1
  6
Continuous
 62
     7
 48
2.0
100
AcDbVertex
100
AcDb2dVertex
 10
2.211857740156489
 20
0.0996873668829679
 30
0.0
  0
VERTEX
  5
2E9
330
2E6
100
AcDbEntity
  8
1
  6
Continuous
 62
     7
 48
2.0
100
AcDbVertex
100
AcDb2dVertex
 10
2.195639537386313
 20
0.182129894028499
 30
0.0
  0
VERTEX
  5
2EA
330
2E6
100
AcDbEntity
  8
1
  6
Continuous
 62
     7
 48
2.0
100
AcDbVertex
100
AcDb2dVertex
 10
2.17266375012855
 20
0.2159178149897869
 30
0.0
  0
VERTEX
  5
2EB
330
2E6
100
AcDbEntity
  8
1
  6
Continuous
 62
     7
 48
2.0
100
AcDbVertex
100
AcDb2dVertex
 10
2.078057567302466
 20
0.2875482074277116
 30
0.0
  0
VERTEX
  5
2EC
330
2E6
100
AcDbEntity
  8
1
  6
Continuous
 62
     7
 48
2.0
100
AcDbVertex
100
AcDb2dVertex
 10
2.06183936453229
 20
0.2780875895585453
 30
0.0
  0
VERTEX
  5
2ED
330
2E6
100
AcDbEntity
  8
1
  6
Continuous
 62
     7
 48
2.0
100
AcDbVertex
100
AcDb2dVertex
 10
2.060487847634768
 20
0.251057252789515
 30
0.0
  0
VERTEX
  5
2EE
330
2E6
100
AcDbEntity
  8
1
  6
Continuous
 62
     7
 48
2.0
100
AcDbVertex
100
AcDb2dVertex
 10
2.080492079895613
 20
0.0010043604567826
 30
0.0
  0
SEQEND
  5
2EF
330
2E6
100
AcDbEntity
  8
1
  6
Continuous
 62
     7
 48
2.0
370
     0
  0
LINE
  5
2F0
330
1F
100
AcDbEntity
  8
1
  6
Continuous
 62
     7
 48
2.0
370
     0
100
AcDbLine
 10
2.080417467565773
 20
0.0009859392384968
 30
0.0
 11
2.080573120459967
 21
-0.0024384243927855
 31
0.0
  0
POLYLINE
  5
2F1
330
1F
100
AcDbEntity
  8
1
  6
Continuous
 62
     7
 48
2.0
370
     0
100
AcDb2dPolyline
 66
     1
 10
0.0
 20
0.0
 30
0.0
 70
   128
  0
VERTEX
  5
2F2
330
2F1
100
AcDbEntity
  8
1
  6
Continuous
 62
     7
 48
2.0
100
AcDbVertex
100
AcDb2dVertex
 10
2.264031468637597
 20
0.0007348219249081
 30
0.0
  0
VERTEX
  5
2F3
330
2F1
100
AcDbEntity
  8
1
  6
Continuous
 62
     7
 48
2.0
100
AcDbVertex
100
AcDb2dVertex
 10
2.244294145696863
 20
0.2888997242661588
 30
0.0
  0
VERTEX
  5
2F4
330
2F1
100
AcDbEntity
  8
1
  6
Continuous
 62
     7
 48
2.0
100
AcDbVertex
100
AcDb2dVertex
 10
2.213209257054011
 20
0.4213483744343947
 30
0.0
  0
VERTEX
  5
2F5
330
2F1
100
AcDbEntity
  8
1
  6
Continuous
 62
     7
 48
2.0
100
AcDbVertex
100
AcDb2dVertex
 10
2.168609199435998
 20
0.5200091036413497
 30
0.0
  0
VERTEX
  5
2F6
330
2F1
100
AcDbEntity
  8
1
  6
Continuous
 62
     7
 48
2.0
100
AcDbVertex
100
AcDb2dVertex
 10
2.10779093904781
 20
0.5956940465946232
 30
0.0
  0
VERTEX
  5
2F7
330
2F1
100
AcDbEntity
  8
1
  6
Continuous
 62
     7
 48
2.0
100
AcDbVertex
100
AcDb2dVertex
 10
2.028051442094402
 20
0.663269888517199
 30
0.0
  0
VERTEX
  5
2F8
330
2F1
100
AcDbEntity
  8
1
  6
Continuous
 62
     7
 48
2.0
100
AcDbVertex
100
AcDb2dVertex
 10
1.961827114116147
 20
0.7078699441860934
 30
0.0
  0
VERTEX
  5
2F9
330
2F1
100
AcDbEntity
  8
1
  6
Continuous
 62
     7
 48
2.0
100
AcDbVertex
100
AcDb2dVertex
 10
1.887493684752798
 20
0.7349002809551166
 30
0.0
  0
VERTEX
  5
2FA
330
2F1
100
AcDbEntity
  8
1
  6
Continuous
 62
     7
 48
2.0
100
AcDbVertex
100
AcDb2dVertex
 10
1.826675424364609
 20
0.7443608988242758
 30
0.0
  0
SEQEND
  5
2FB
330
2F1
100
AcDbEntity
  8
1
  6
Continuous
 62
     7
 48
2.0
370
     0
  0
POLYLINE
  5
2FC
330
1F
100
AcDbEntity
  8
1
  6
Continuous
 62
     7
 48
2.0
370
     0
100
AcDb2dPolyline
 66
     1
 10
0.0
 20
0.0
 30
0.0
 70
   128
  0
VERTEX
  5
2FD
330
2FC
100
AcDbEntity
  8
1
  6
Continuous
 62
     7
 48
2.0
100
AcDbVertex
100
AcDb2dVertex
 10
2.264114598879807
 20
-0.0017092027274472
 30
0.0
  0
VERTEX
  5
2FE
330
2FC
100
AcDbEntity
  8
1
  6
Continuous
 62
     7
 48
2.0
100
AcDbVertex
100
AcDb2dVertex
 10
2.244294145696863
 20
-0.2910878065519071
 30
0.0
  0
VERTEX
  5
2FF
330
2FC
100
AcDbEntity
  8
1
  6
Continuous
 62
     7
 48
2.0
100
AcDbVertex
100
AcDb2dVertex
 10
2.213209257054011
 20
-0.4235364567201465
 30
0.0
  0
VERTEX
  5
300
330
2FC
100
AcDbEntity
  8
1
  6
Continuous
 62
     7
 48
2.0
100
AcDbVertex
100
AcDb2dVertex
 10
2.168609199435998
 20
-0.522197185927098
 30
0.0
  0
VERTEX
  5
301
330
2FC
100
AcDbEntity
  8
1
  6
Continuous
 62
     7
 48
2.0
100
AcDbVertex
100
AcDb2dVertex
 10
2.10779093904781
 20
-0.5978821288803751
 30
0.0
  0
VERTEX
  5
302
330
2FC
100
AcDbEntity
  8
1
  6
Continuous
 62
     7
 48
2.0
100
AcDbVertex
100
AcDb2dVertex
 10
2.028051442094402
 20
-0.6654579708029438
 30
0.0
  0
VERTEX
  5
303
330
2FC
100
AcDbEntity
  8
1
  6
Continuous
 62
     7
 48
2.0
100
AcDbVertex
100
AcDb2dVertex
 10
1.961827114116147
 20
-0.7100580264718381
 30
0.0
  0
VERTEX
  5
304
330
2FC
100
AcDbEntity
  8
1
  6
Continuous
 62
     7
 48
2.0
100
AcDbVertex
100
AcDb2dVertex
 10
1.887493684752798
 20
-0.7370883632408649
 30
0.0
  0
VERTEX
  5
305
330
2FC
100
AcDbEntity
  8
1
  6
Continuous
 62
     7
 48
2.0
100
AcDbVertex
100
AcDb2dVertex
 10
1.826675424364609
 20
-0.7465489811100277
 30
0.0
  0
SEQEND
  5
306
330
2FC
100
AcDbEntity
  8
1
  6
Continuous
 62
     7
 48
2.0
370
     0
  0
POLYLINE
  5
307
330
1F
100
AcDbEntity
  8
1
  6
Continuous
 62
     7
 48
2.0
370
     0
100
AcDb2dPolyline
 66
     1
 10
0.0
 20
0.0
 30
0.0
 70
   128
  0
VERTEX
  5
308
330
307
100
AcDbEntity
  8
1
  6
Continuous
 62
     7
 48
2.0
100
AcDbVertex
100
AcDb2dVertex
 10
2.215712137314782
 20
-0.0003763284363529
 30
0.0
  0
VERTEX
  5
309
330
307
100
AcDbEntity
  8
1
  6
Continuous
 62
     7
 48
2.0
100
AcDbVertex
100
AcDb2dVertex
 10
2.211857740156489
 20
-0.1018754491687126
 30
0.0
  0
VERTEX
  5
30A
330
307
100
AcDbEntity
  8
1
  6
Continuous
 62
     7
 48
2.0
100
AcDbVertex
100
AcDb2dVertex
 10
2.195639537386313
 20
-0.1843179763142508
 30
0.0
  0
VERTEX
  5
30B
330
307
100
AcDbEntity
  8
1
  6
Continuous
 62
     7
 48
2.0
100
AcDbVertex
100
AcDb2dVertex
 10
2.17266375012855
 20
-0.2181058972755352
 30
0.0
  0
VERTEX
  5
30C
330
307
100
AcDbEntity
  8
1
  6
Continuous
 62
     7
 48
2.0
100
AcDbVertex
100
AcDb2dVertex
 10
2.078057567302466
 20
-0.2897362897134563
 30
0.0
  0
VERTEX
  5
30D
330
307
100
AcDbEntity
  8
1
  6
Continuous
 62
     7
 48
2.0
100
AcDbVertex
100
AcDb2dVertex
 10
2.06183936453229
 20
-0.2802756718443007
 30
0.0
  0
VERTEX
  5
30E
330
307
100
AcDbEntity
  8
1
  6
Continuous
 62
     7
 48
2.0
100
AcDbVertex
100
AcDb2dVertex
 10
2.060487847634768
 20
-0.2532453350752704
 30
0.0
  0
VERTEX
  5
30F
330
307
100
AcDbEntity
  8
1
  6
Continuous
 62
     7
 48
2.0
100
AcDbVertex
100
AcDb2dVertex
 10
2.080538180393567
 20
-0.0026161865433139
 30
0.0
  0
SEQEND
  5
310
330
307
100
AcDbEntity
  8
1
  6
Continuous
 62
     7
 48
2.0
370
     0
  0
POLYLINE
  5
311
330
1F
100
AcDbEntity
  8
1
  6
Continuous
 62
     7
 48
2.0
370
     0
100
AcDb2dPolyline
 66
     1
 10
0.0
 20
0.0
 30
0.0
 70
   128
  0
VERTEX
  5
312
330
311
100
AcDbEntity
  8
1
  6
Continuous
 62
     7
 48
2.0
100
AcDbVertex
100
AcDb2dVertex
 10
2.27898447209369
 20
0.002601365815373
 30
0.0
  0
VERTEX
  5
313
330
311
100
AcDbEntity
  8
1
  6
Continuous
 62
     7
 48
2.0
100
AcDbVertex
100
AcDb2dVertex
 10
2.269972966749656
 20
0.2240269160204917
 30
0.0
  0
VERTEX
  5
314
330
311
100
AcDbEntity
  8
1
  6
Continuous
 62
     7
 48
2.0
100
AcDbVertex
100
AcDb2dVertex
 10
2.249700213286928
 20
0.3875604534731067
 30
0.0
  0
VERTEX
  5
315
330
311
100
AcDbEntity
  8
1
  6
Continuous
 62
     7
 48
2.0
100
AcDbVertex
100
AcDb2dVertex
 10
2.219966841541584
 20
0.4808151153262585
 30
0.0
  0
VERTEX
  5
316
330
311
100
AcDbEntity
  8
1
  6
Continuous
 62
     7
 48
2.0
100
AcDbVertex
100
AcDb2dVertex
 10
2.171312233231028
 20
0.5686637098255929
 30
0.0
  0
VERTEX
  5
317
330
311
100
AcDbEntity
  8
1
  6
Continuous
 62
     7
 48
2.0
100
AcDbVertex
100
AcDb2dVertex
 10
2.101033354560229
 20
0.6470516864557752
 30
0.0
  0
VERTEX
  5
318
330
311
100
AcDbEntity
  8
1
  6
Continuous
 62
     7
 48
2.0
100
AcDbVertex
100
AcDb2dVertex
 10
2.030754475889438
 20
0.7092214610245406
 30
0.0
  0
VERTEX
  5
319
330
311
100
AcDbEntity
  8
1
  6
Continuous
 62
     7
 48
2.0
100
AcDbVertex
100
AcDb2dVertex
 10
1.952366495833537
 20
0.7592275840472453
 30
0.0
  0
VERTEX
  5
31A
330
311
100
AcDbEntity
  8
1
  6
Continuous
 62
     7
 48
2.0
100
AcDbVertex
100
AcDb2dVertex
 10
1.856408796109946
 20
0.7984215723623365
 30
0.0
  0
VERTEX
  5
31B
330
311
100
AcDbEntity
  8
1
  6
Continuous
 62
     7
 48
2.0
100
AcDbVertex
100
AcDb2dVertex
 10
1.728014690845988
 20
0.8335610101620645
 30
0.0
  0
VERTEX
  5
31C
330
311
100
AcDbEntity
  8
1
  6
Continuous
 62
     7
 48
2.0
100
AcDbVertex
100
AcDb2dVertex
 10
1.623947889737302
 20
0.848427695385034
 30
0.0
  0
SEQEND
  5
31D
330
311
100
AcDbEntity
  8
1
  6
Continuous
 62
     7
 48
2.0
370
     0
  0
POLYLINE
  5
31E
330
1F
100
AcDbEntity
  8
1
  6
Continuous
 62
     7
 48
2.0
370
     0
100
AcDb2dPolyline
 66
     1
 10
0.0
 20
0.0
 30
0.0
 70
   128
  0
VERTEX
  5
31F
330
31E
100
AcDbEntity
  8
1
  6
Continuous
 62
     7
 48
2.0
100
AcDbVertex
100
AcDb2dVertex
 10
2.279077104054586
 20
-0.0025133485899289
 30
0.0
  0
VERTEX
  5
320
330
31E
100
AcDbEntity
  8
1
  6
Continuous
 62
     7
 48
2.0
100
AcDbVertex
100
AcDb2dVertex
 10
2.269972966749656
 20
-0.22621499830624
 30
0.0
  0
VERTEX
  5
321
330
31E
100
AcDbEntity
  8
1
  6
Continuous
 62
     7
 48
2.0
100
AcDbVertex
100
AcDb2dVertex
 10
2.249700213286928
 20
-0.3897485357588621
 30
0.0
  0
VERTEX
  5
322
330
31E
100
AcDbEntity
  8
1
  6
Continuous
 62
     7
 48
2.0
100
AcDbVertex
100
AcDb2dVertex
 10
2.219966841541584
 20
-0.4830031976120068
 30
0.0
  0
VERTEX
  5
323
330
31E
100
AcDbEntity
  8
1
  6
Continuous
 62
     7
 48
2.0
100
AcDbVertex
100
AcDb2dVertex
 10
2.171312233231028
 20
-0.5708517921113483
 30
0.0
  0
VERTEX
  5
324
330
31E
100
AcDbEntity
  8
1
  6
Continuous
 62
     7
 48
2.0
100
AcDbVertex
100
AcDb2dVertex
 10
2.101033354560229
 20
-0.649239768741527
 30
0.0
  0
VERTEX
  5
325
330
31E
100
AcDbEntity
  8
1
  6
Continuous
 62
     7
 48
2.0
100
AcDbVertex
100
AcDb2dVertex
 10
2.030754475889438
 20
-0.7114095433102889
 30
0.0
  0
VERTEX
  5
326
330
31E
100
AcDbEntity
  8
1
  6
Continuous
 62
     7
 48
2.0
100
AcDbVertex
100
AcDb2dVertex
 10
1.952366495833537
 20
-0.7614156663329936
 30
0.0
  0
VERTEX
  5
327
330
31E
100
AcDbEntity
  8
1
  6
Continuous
 62
     7
 48
2.0
100
AcDbVertex
100
AcDb2dVertex
 10
1.856408796109946
 20
-0.8006096546480812
 30
0.0
  0
VERTEX
  5
328
330
31E
100
AcDbEntity
  8
1
  6
Continuous
 62
     7
 48
2.0
100
AcDbVertex
100
AcDb2dVertex
 10
1.728014690845988
 20
-0.8357490924478199
 30
0.0
  0
VERTEX
  5
329
330
31E
100
AcDbEntity
  8
1
  6
Continuous
 62
     7
 48
2.0
100
AcDbVertex
100
AcDb2dVertex
 10
1.623947889737302
 20
-0.8506157776707859
 30
0.0
  0
SEQEND
  5
32A
330
31E
100
AcDbEntity
  8
1
  6
Continuous
 62
     7
 48
2.0
370
     0
  0
POLYLINE
  5
32B
330
1F
100
AcDbEntity
  8
1
  6
Continuous
 62
     7
 48
2.0
370
     0
100
AcDb2dPolyline
 66
     1
 10
0.0
 20
0.0
 30
0.0
 70
   128
  0
VERTEX
  5
32C
330
32B
100
AcDbEntity
  8
1
  6
Continuous
 62
     7
 48
2.0
100
AcDbVertex
100
AcDb2dVertex
 10
2.28865723457065
 20
0.0036735319968031
 30
0.0
  0
VERTEX
  5
32D
330
32B
100
AcDbEntity
  8
1
  6
Continuous
 62
     7
 48
2.0
100
AcDbVertex
100
AcDb2dVertex
 10
2.286191169519839
 20
0.1578025909363774
 30
0.0
  0
VERTEX
  5
32E
330
32B
100
AcDbEntity
  8
1
  6
Continuous
 62
     7
 48
2.0
100
AcDbVertex
100
AcDb2dVertex
 10
2.279433585032258
 20
0.2659239380124845
 30
0.0
  0
VERTEX
  5
32F
330
32B
100
AcDbEntity
  8
1
  6
Continuous
 62
     7
 48
2.0
100
AcDbVertex
100
AcDb2dVertex
 10
2.26186386536456
 20
0.3902634871500155
 30
0.0
  0
VERTEX
  5
330
330
32B
100
AcDbEntity
  8
1
  6
Continuous
 62
     7
 48
2.0
100
AcDbVertex
100
AcDb2dVertex
 10
2.233482010516738
 20
0.4848696658416074
 30
0.0
  0
VERTEX
  5
331
330
32B
100
AcDbEntity
  8
1
  6
Continuous
 62
     7
 48
2.0
100
AcDbVertex
100
AcDb2dVertex
 10
2.192936503591277
 20
0.5592030919564408
 30
0.0
  0
VERTEX
  5
332
330
32B
100
AcDbEntity
  8
1
  6
Continuous
 62
     7
 48
2.0
100
AcDbVertex
100
AcDb2dVertex
 10
2.146984929075757
 20
0.6227243833636535
 30
0.0
  0
VERTEX
  5
333
330
32B
100
AcDbEntity
  8
1
  6
Continuous
 62
     7
 48
2.0
100
AcDbVertex
100
AcDb2dVertex
 10
2.065893915224834
 20
0.7024638768322902
 30
0.0
  0
VERTEX
  5
334
330
32B
100
AcDbEntity
  8
1
  6
Continuous
 62
     7
 48
2.0
100
AcDbVertex
100
AcDb2dVertex
 10
1.982099867578881
 20
0.757876067208791
 30
0.0
  0
VERTEX
  5
335
330
32B
100
AcDbEntity
  8
1
  6
Continuous
 62
     7
 48
2.0
100
AcDbVertex
100
AcDb2dVertex
 10
1.890196718547834
 20
0.801124606039231
 30
0.0
  0
VERTEX
  5
336
330
32B
100
AcDbEntity
  8
1
  6
Continuous
 62
     7
 48
2.0
100
AcDbVertex
100
AcDb2dVertex
 10
1.77802081605406
 20
0.8335610101620645
 30
0.0
  0
VERTEX
  5
337
330
32B
100
AcDbEntity
  8
1
  6
Continuous
 62
     7
 48
2.0
100
AcDbVertex
100
AcDb2dVertex
 10
1.634760024917426
 20
0.8551852795772916
 30
0.0
  0
VERTEX
  5
338
330
32B
100
AcDbEntity
  8
1
  6
Continuous
 62
     7
 48
2.0
100
AcDbVertex
100
AcDb2dVertex
 10
1.54691142657893
 20
0.8687004479618068
 30
0.0
  0
VERTEX
  5
339
330
32B
100
AcDbEntity
  8
1
  6
Continuous
 62
     7
 48
2.0
100
AcDbVertex
100
AcDb2dVertex
 10
1.365808162311865
 20
0.8754580321540644
 30
0.0
  0
VERTEX
  5
33A
330
32B
100
AcDbEntity
  8
1
  6
Continuous
 62
     7
 48
2.0
100
AcDbVertex
100
AcDb2dVertex
 10
1.148213941811889
 20
0.8754580321540644
 30
0.0
  0
VERTEX
  5
33B
330
32B
100
AcDbEntity
  8
1
  6
Continuous
 62
     7
 48
2.0
100
AcDbVertex
100
AcDb2dVertex
 10
0.9062924171566351
 20
0.8673489311233524
 30
0.0
  0
VERTEX
  5
33C
330
32B
100
AcDbEntity
  8
1
  6
Continuous
 62
     7
 48
2.0
100
AcDbVertex
100
AcDb2dVertex
 10
0.8792620792063275
 20
0.856536796415746
 30
0.0
  0
VERTEX
  5
33D
330
32B
100
AcDbEntity
  8
1
  6
Continuous
 62
     7
 48
2.0
100
AcDbVertex
100
AcDb2dVertex
 10
0.8130377512280731
 20
0.856536796415746
 30
0.0
  0
SEQEND
  5
33E
330
32B
100
AcDbEntity
  8
1
  6
Continuous
 62
     7
 48
2.0
370
     0
  0
POLYLINE
  5
33F
330
1F
100
AcDbEntity
  8
1
  6
Continuous
 62
     7
 48
2.0
370
     0
100
AcDb2dPolyline
 66
     1
 10
0.0
 20
0.0
 30
0.0
 70
   128
  0
VERTEX
  5
340
330
33F
100
AcDbEntity
  8
1
  6
Continuous
 62
     7
 48
2.0
100
AcDbVertex
100
AcDb2dVertex
 10
2.288766669373842
 20
0.0009780606180172
 30
0.0
  0
VERTEX
  5
341
330
33F
100
AcDbEntity
  8
1
  6
Continuous
 62
     7
 48
2.0
100
AcDbVertex
100
AcDb2dVertex
 10
2.286191169519839
 20
-0.1599906732221257
 30
0.0
  0
VERTEX
  5
342
330
33F
100
AcDbEntity
  8
1
  6
Continuous
 62
     7
 48
2.0
100
AcDbVertex
100
AcDb2dVertex
 10
2.279433585032258
 20
-0.2681120202982363
 30
0.0
  0
VERTEX
  5
343
330
33F
100
AcDbEntity
  8
1
  6
Continuous
 62
     7
 48
2.0
100
AcDbVertex
100
AcDb2dVertex
 10
2.26186386536456
 20
-0.3924515694357638
 30
0.0
  0
VERTEX
  5
344
330
33F
100
AcDbEntity
  8
1
  6
Continuous
 62
     7
 48
2.0
100
AcDbVertex
100
AcDb2dVertex
 10
2.233482010516738
 20
-0.4870577481273628
 30
0.0
  0
VERTEX
  5
345
330
33F
100
AcDbEntity
  8
1
  6
Continuous
 62
     7
 48
2.0
100
AcDbVertex
100
AcDb2dVertex
 10
2.192936503591277
 20
-0.5613911742421855
 30
0.0
  0
VERTEX
  5
346
330
33F
100
AcDbEntity
  8
1
  6
Continuous
 62
     7
 48
2.0
100
AcDbVertex
100
AcDb2dVertex
 10
2.146984929075757
 20
-0.6249124656494018
 30
0.0
  0
VERTEX
  5
347
330
33F
100
AcDbEntity
  8
1
  6
Continuous
 62
     7
 48
2.0
100
AcDbVertex
100
AcDb2dVertex
 10
2.065893915224834
 20
-0.7046519591180349
 30
0.0
  0
VERTEX
  5
348
330
33F
100
AcDbEntity
  8
1
  6
Continuous
 62
     7
 48
2.0
100
AcDbVertex
100
AcDb2dVertex
 10
1.982099867578881
 20
-0.7600641494945428
 30
0.0
  0
VERTEX
  5
349
330
33F
100
AcDbEntity
  8
1
  6
Continuous
 62
     7
 48
2.0
100
AcDbVertex
100
AcDb2dVertex
 10
1.890196718547834
 20
-0.8033126883249864
 30
0.0
  0
VERTEX
  5
34A
330
33F
100
AcDbEntity
  8
1
  6
Continuous
 62
     7
 48
2.0
100
AcDbVertex
100
AcDb2dVertex
 10
1.77802081605406
 20
-0.8357490924478199
 30
0.0
  0
VERTEX
  5
34B
330
33F
100
AcDbEntity
  8
1
  6
Continuous
 62
     7
 48
2.0
100
AcDbVertex
100
AcDb2dVertex
 10
1.634760024917426
 20
-0.8573733618630399
 30
0.0
  0
VERTEX
  5
34C
330
33F
100
AcDbEntity
  8
1
  6
Continuous
 62
     7
 48
2.0
100
AcDbVertex
100
AcDb2dVertex
 10
1.54691142657893
 20
-0.8708885302475551
 30
0.0
  0
VERTEX
  5
34D
330
33F
100
AcDbEntity
  8
1
  6
Continuous
 62
     7
 48
2.0
100
AcDbVertex
100
AcDb2dVertex
 10
1.365808162311865
 20
-0.8776461144398127
 30
0.0
  0
VERTEX
  5
34E
330
33F
100
AcDbEntity
  8
1
  6
Continuous
 62
     7
 48
2.0
100
AcDbVertex
100
AcDb2dVertex
 10
1.148213941811889
 20
-0.8776461144398127
 30
0.0
  0
VERTEX
  5
34F
330
33F
100
AcDbEntity
  8
1
  6
Continuous
 62
     7
 48
2.0
100
AcDbVertex
100
AcDb2dVertex
 10
0.9062924171566351
 20
-0.8695370134091043
 30
0.0
  0
VERTEX
  5
350
330
33F
100
AcDbEntity
  8
1
  6
Continuous
 62
     7
 48
2.0
100
AcDbVertex
100
AcDb2dVertex
 10
0.8792620792063275
 20
-0.8587248787014907
 30
0.0
  0
VERTEX
  5
351
330
33F
100
AcDbEntity
  8
1
  6
Continuous
 62
     7
 48
2.0
100
AcDbVertex
100
AcDb2dVertex
 10
0.8130377512280731
 20
-0.8587248787014907
 30
0.0
  0
SEQEND
  5
352
330
33F
100
AcDbEntity
  8
1
  6
Continuous
 62
     7
 48
2.0
370
     0
  0
LINE
  5
353
330
1F
100
AcDbEntity
  8
1
  6
Continuous
 62
     7
 48
2.0
370
     0
100
AcDbLine
 10
2.278935526498486
 20
0.0028739829168742
 30
0.0
 11
2.279041653474998
 21
-0.0027507466014356
 31
0.0
  0
LINE
  5
354
330
1F
100
AcDbEntity
  8
1
  6
Continuous
 62
     7
 48
2.0
370
     0
100
AcDbLine
 10
2.264077749786424
 20
0.001175951364182
 30
0.0
 11
2.264077749786424
 21
-0.0017956038530471
 31
0.0
  0
LINE
  5
355
330
1F
100
AcDbEntity
  8
1
  6
Continuous
 62
     7
 48
2.0
370
     0
100
AcDbLine
 10
2.288699208337846
 20
0.0044658874975383
 30
0.0
 11
2.28880533531435
 21
0.000645316503963
 31
0.0
  0
LINE
  5
356
330
1F
100
AcDbEntity
  8
1
  6
Continuous
 62
     7
 48
2.0
370
     0
100
AcDbLine
 10
2.215577721519196
 20
0.0008575704480478
 30
0.0
 11
2.215683848495715
 21
-0.0007343341326091
 31
0.0
  0
POLYLINE
  5
357
330
1F
100
AcDbEntity
  8
1
  6
Continuous
 62
     7
 48
2.0
370
     0
100
AcDb2dPolyline
 66
     1
 10
0.0
 20
0.0
 30
0.0
 70
   128
  0
VERTEX
  5
358
330
357
100
AcDbEntity
  8
1
  6
Continuous
 62
     7
 48
2.0
100
AcDbVertex
100
AcDb2dVertex
 10
0.2088249315272179
 20
-0.6703480349356639
 30
0.0
  0
VERTEX
  5
359
330
357
100
AcDbEntity
  8
1
  6
Continuous
 62
     7
 48
2.0
100
AcDbVertex
100
AcDb2dVertex
 10
-0.157126480692547
 20
-0.6561044180089155
 30
0.0
  0
VERTEX
  5
35A
330
357
100
AcDbEntity
  8
1
  6
Continuous
 62
     7
 48
2.0
100
AcDbVertex
100
AcDb2dVertex
 10
-0.8896989622851308
 20
-0.6522008348761759
 30
0.0
  0
VERTEX
  5
35B
330
357
100
AcDbEntity
  8
1
  6
Continuous
 62
     7
 48
2.0
100
AcDbVertex
100
AcDb2dVertex
 10
-1.174660549263422
 20
-0.6495984461210185
 30
0.0
  0
SEQEND
  5
35C
330
357
100
AcDbEntity
  8
1
  6
Continuous
 62
     7
 48
2.0
370
     0
  0
POLYLINE
  5
35D
330
1F
100
AcDbEntity
  8
1
  6
Continuous
 62
     7
 48
2.0
370
     0
100
AcDb2dPolyline
 66
     1
 10
0.0
 20
0.0
 30
0.0
 70
   128
  0
VERTEX
  5
35E
330
35D
100
AcDbEntity
  8
1
  6
Continuous
 62
     7
 48
2.0
100
AcDbVertex
100
AcDb2dVertex
 10
-1.178118016040621
 20
-0.7845750623067502
 30
0.0
  0
VERTEX
  5
35F
330
35D
100
AcDbEntity
  8
1
  6
Continuous
 62
     7
 48
2.0
100
AcDbVertex
100
AcDb2dVertex
 10
-0.3144678992788954
 20
-0.7860132805325222
 30
0.0
  0
VERTEX
  5
360
330
35D
100
AcDbEntity
  8
1
  6
Continuous
 62
     7
 48
2.0
100
AcDbVertex
100
AcDb2dVertex
 10
-0.2972092791271237
 20
-0.7831368440809783
 30
0.0
  0
VERTEX
  5
361
330
35D
100
AcDbEntity
  8
1
  6
Continuous
 62
     7
 48
2.0
100
AcDbVertex
100
AcDb2dVertex
 10
-0.2849844231862804
 20
-0.7766648620649974
 30
0.0
  0
VERTEX
  5
362
330
35D
100
AcDbEntity
  8
1
  6
Continuous
 62
     7
 48
2.0
100
AcDbVertex
100
AcDb2dVertex
 10
-0.2777933314563725
 20
-0.7673164435974726
 30
0.0
  0
SEQEND
  5
363
330
35D
100
AcDbEntity
  8
1
  6
Continuous
 62
     7
 48
2.0
370
     0
  0
POLYLINE
  5
364
330
1F
100
AcDbEntity
  8
1
  6
Continuous
 62
     7
 48
2.0
370
     0
100
AcDb2dPolyline
 66
     1
 10
0.0
 20
0.0
 30
0.0
 70
   128
  0
VERTEX
  5
365
330
364
100
AcDbEntity
  8
1
  6
Continuous
 62
     7
 48
2.0
100
AcDbVertex
100
AcDb2dVertex
 10
-0.2775971913755839
 20
-0.7673633144705576
 30
0.0
  0
VERTEX
  5
366
330
364
100
AcDbEntity
  8
1
  6
Continuous
 62
     7
 48
2.0
100
AcDbVertex
100
AcDb2dVertex
 10
-0.2794387600348287
 20
-0.7185617481327178
 30
0.0
  0
VERTEX
  5
367
330
364
100
AcDbEntity
  8
1
  6
Continuous
 62
     7
 48
2.0
100
AcDbVertex
100
AcDb2dVertex
 10
-0.2976554824900646
 20
-0.7016462212241876
 30
0.0
  0
VERTEX
  5
368
330
364
100
AcDbEntity
  8
1
  6
Continuous
 62
     7
 48
2.0
100
AcDbVertex
100
AcDb2dVertex
 10
-1.183768910491032
 20
-0.7068509987345024
 30
0.0
  0
SEQEND
  5
369
330
364
100
AcDbEntity
  8
1
  6
Continuous
 62
     7
 48
2.0
370
     0
  0
POLYLINE
  5
36A
330
1F
100
AcDbEntity
  8
1
  6
Continuous
 62
     7
 48
2.0
370
     0
100
AcDb2dPolyline
 66
     1
 10
0.0
 20
0.0
 30
0.0
 70
   128
  0
VERTEX
  5
36B
330
36A
100
AcDbEntity
  8
1
  6
Continuous
 62
     7
 48
2.0
100
AcDbVertex
100
AcDb2dVertex
 10
-1.87102622013775
 20
-0.6560727232812624
 30
0.0
  0
VERTEX
  5
36C
330
36A
100
AcDbEntity
  8
1
  6
Continuous
 62
     7
 48
2.0
100
AcDbVertex
100
AcDb2dVertex
 10
-2.00385270085517
 20
-0.6615220146308367
 30
0.0
  0
VERTEX
  5
36D
330
36A
100
AcDbEntity
  8
1
  6
Continuous
 62
     7
 48
2.0
100
AcDbVertex
100
AcDb2dVertex
 10
-2.015432445327974
 20
-0.6662901445617138
 30
0.0
  0
VERTEX
  5
36E
330
36A
100
AcDbEntity
  8
1
  6
Continuous
 62
     7
 48
2.0
100
AcDbVertex
100
AcDb2dVertex
 10
-2.091722526560545
 20
-0.7745948101344844
 30
0.0
  0
SEQEND
  5
36F
330
36A
100
AcDbEntity
  8
1
  6
Continuous
 62
     7
 48
2.0
370
     0
  0
POLYLINE
  5
370
330
1F
100
AcDbEntity
  8
1
  6
Continuous
 62
     7
 48
2.0
370
     0
100
AcDb2dPolyline
 66
     1
 10
0.0
 20
0.0
 30
0.0
 70
   128
  0
VERTEX
  5
371
330
370
100
AcDbEntity
  8
1
  6
Continuous
 62
     7
 48
2.0
100
AcDbVertex
100
AcDb2dVertex
 10
0.1969496109124478
 20
-0.6938967227768913
 30
0.0
  0
VERTEX
  5
372
330
370
100
AcDbEntity
  8
1
  6
Continuous
 62
     7
 48
2.0
100
AcDbVertex
100
AcDb2dVertex
 10
-0.1493193139260214
 20
-0.6886342774483936
 30
0.0
  0
VERTEX
  5
373
330
370
100
AcDbEntity
  8
1
  6
Continuous
 62
     7
 48
2.0
100
AcDbVertex
100
AcDb2dVertex
 10
-0.8506631284524886
 20
-0.6821283055605001
 30
0.0
  0
VERTEX
  5
374
330
370
100
AcDbEntity
  8
1
  6
Continuous
 62
     7
 48
2.0
100
AcDbVertex
100
AcDb2dVertex
 10
-1.124218700583761
 20
-0.6852726222797472
 30
0.0
  0
SEQEND
  5
375
330
370
100
AcDbEntity
  8
1
  6
Continuous
 62
     7
 48
2.0
370
     0
  0
POLYLINE
  5
376
330
1F
100
AcDbEntity
  8
1
  6
Continuous
 62
     7
 48
2.0
370
     0
100
AcDb2dPolyline
 66
     1
 10
0.0
 20
0.0
 30
0.0
 70
   128
  0
VERTEX
  5
377
330
376
100
AcDbEntity
  8
1
  6
Continuous
 62
     7
 48
2.0
100
AcDbVertex
100
AcDb2dVertex
 10
-1.15015675166697
 20
-0.6968245385402767
 30
0.0
  0
VERTEX
  5
378
330
376
100
AcDbEntity
  8
1
  6
Continuous
 62
     7
 48
2.0
100
AcDbVertex
100
AcDb2dVertex
 10
-1.161648604652534
 20
-0.7784166895013627
 30
0.0
  0
VERTEX
  5
379
330
376
100
AcDbEntity
  8
1
  6
Continuous
 62
     7
 48
2.0
100
AcDbVertex
100
AcDb2dVertex
 10
-1.168154576957974
 20
-0.8564883521561129
 30
0.0
  0
SEQEND
  5
37A
330
376
100
AcDbEntity
  8
1
  6
Continuous
 62
     7
 48
2.0
370
     0
  0
POLYLINE
  5
37B
330
1F
100
AcDbEntity
  8
1
  6
Continuous
 62
     7
 48
2.0
370
     0
100
AcDb2dPolyline
 66
     1
 10
0.0
 20
0.0
 30
0.0
 70
   128
  0
VERTEX
  5
37C
330
37B
100
AcDbEntity
  8
1
  6
Continuous
 62
     7
 48
2.0
100
AcDbVertex
100
AcDb2dVertex
 10
-1.26083251042553
 20
-0.7077422697849087
 30
0.0
  0
VERTEX
  5
37D
330
37B
100
AcDbEntity
  8
1
  6
Continuous
 62
     7
 48
2.0
100
AcDbVertex
100
AcDb2dVertex
 10
-1.944811296180148
 20
-0.7170323050240874
 30
0.0
  0
VERTEX
  5
37E
330
37B
100
AcDbEntity
  8
1
  6
Continuous
 62
     7
 48
2.0
100
AcDbVertex
100
AcDb2dVertex
 10
-1.954544883848804
 20
-0.7235213640270395
 30
0.0
  0
VERTEX
  5
37F
330
37B
100
AcDbEntity
  8
1
  6
Continuous
 62
     7
 48
2.0
100
AcDbVertex
100
AcDb2dVertex
 10
-1.971416435807818
 20
-0.7741360242500868
 30
0.0
  0
VERTEX
  5
380
330
37B
100
AcDbEntity
  8
1
  6
Continuous
 62
     7
 48
2.0
100
AcDbVertex
100
AcDb2dVertex
 10
-1.95908722476085
 20
-0.7786783655521567
 30
0.0
  0
SEQEND
  5
381
330
37B
100
AcDbEntity
  8
1
  6
Continuous
 62
     7
 48
2.0
370
     0
  0
POLYLINE
  5
382
330
1F
100
AcDbEntity
  8
1
  6
Continuous
 62
     7
 48
2.0
370
     0
100
AcDb2dPolyline
 66
     1
 10
0.0
 20
0.0
 30
0.0
 70
   128
  0
VERTEX
  5
383
330
382
100
AcDbEntity
  8
1
  6
Continuous
 62
     7
 48
2.0
100
AcDbVertex
100
AcDb2dVertex
 10
-0.1831503699143084
 20
-0.8551871577785342
 30
0.0
  0
VERTEX
  5
384
330
382
100
AcDbEntity
  8
1
  6
Continuous
 62
     7
 48
2.0
100
AcDbVertex
100
AcDb2dVertex
 10
-0.8649762675244546
 20
-0.8460787971354797
 30
0.0
  0
VERTEX
  5
385
330
382
100
AcDbEntity
  8
1
  6
Continuous
 62
     7
 48
2.0
100
AcDbVertex
100
AcDb2dVertex
 10
-1.082275742526164
 20
-0.8551871577785377
 30
0.0
  0
VERTEX
  5
386
330
382
100
AcDbEntity
  8
1
  6
Continuous
 62
     7
 48
2.0
100
AcDbVertex
100
AcDb2dVertex
 10
-1.176152524504488
 20
-0.8615057869292464
 30
0.0
  0
SEQEND
  5
387
330
382
100
AcDbEntity
  8
1
  6
Continuous
 62
     7
 48
2.0
370
     0
  0
POLYLINE
  5
388
330
1F
100
AcDbEntity
  8
1
  6
Continuous
 62
     7
 48
2.0
370
     0
100
AcDb2dPolyline
 66
     1
 10
0.0
 20
0.0
 30
0.0
 70
   128
  0
VERTEX
  5
389
330
388
100
AcDbEntity
  8
1
  6
Continuous
 62
     7
 48
2.0
100
AcDbVertex
100
AcDb2dVertex
 10
-1.265210937680308
 20
-0.8645763336495129
 30
0.0
  0
VERTEX
  5
38A
330
388
100
AcDbEntity
  8
1
  6
Continuous
 62
     7
 48
2.0
100
AcDbVertex
100
AcDb2dVertex
 10
-1.591584824552932
 20
-0.8645763336495129
 30
0.0
  0
VERTEX
  5
38B
330
388
100
AcDbEntity
  8
1
  6
Continuous
 62
     7
 48
2.0
100
AcDbVertex
100
AcDb2dVertex
 10
-1.748389530131888
 20
-0.8586814194647658
 30
0.0
  0
VERTEX
  5
38C
330
388
100
AcDbEntity
  8
1
  6
Continuous
 62
     7
 48
2.0
100
AcDbVertex
100
AcDb2dVertex
 10
-1.827381374295733
 20
-0.8504285396061171
 30
0.0
  0
VERTEX
  5
38D
330
388
100
AcDbEntity
  8
1
  6
Continuous
 62
     7
 48
2.0
100
AcDbVertex
100
AcDb2dVertex
 10
-1.909910166705707
 20
-0.84453362542137
 30
0.0
  0
VERTEX
  5
38E
330
388
100
AcDbEntity
  8
1
  6
Continuous
 62
     7
 48
2.0
100
AcDbVertex
100
AcDb2dVertex
 10
-2.06671487228467
 20
-0.8339227798888231
 30
0.0
  0
VERTEX
  5
38F
330
388
100
AcDbEntity
  8
1
  6
Continuous
 62
     7
 48
2.0
100
AcDbVertex
100
AcDb2dVertex
 10
-2.122127061474224
 20
-0.8256699000301744
 30
0.0
  0
VERTEX
  5
390
330
388
100
AcDbEntity
  8
1
  6
Continuous
 62
     7
 48
2.0
100
AcDbVertex
100
AcDb2dVertex
 10
-2.164570440427926
 20
-0.79855329478033
 30
0.0
  0
VERTEX
  5
391
330
388
100
AcDbEntity
  8
1
  6
Continuous
 62
     7
 48
2.0
100
AcDbVertex
100
AcDb2dVertex
 10
-2.189329078150926
 20
-0.7643627925087877
 30
0.0
  0
VERTEX
  5
392
330
388
100
AcDbEntity
  8
1
  6
Continuous
 62
     7
 48
2.0
100
AcDbVertex
100
AcDb2dVertex
 10
-2.212908733125204
 20
-0.7113085648460462
 30
0.0
  0
VERTEX
  5
393
330
388
100
AcDbEntity
  8
1
  6
Continuous
 62
     7
 48
2.0
100
AcDbVertex
100
AcDb2dVertex
 10
-2.237667370848197
 20
-0.5993051953358197
 30
0.0
  0
VERTEX
  5
394
330
388
100
AcDbEntity
  8
1
  6
Continuous
 62
     7
 48
2.0
100
AcDbVertex
100
AcDb2dVertex
 10
-2.255352112078906
 20
-0.3611506622719673
 30
0.0
  0
VERTEX
  5
395
330
388
100
AcDbEntity
  8
1
  6
Continuous
 62
     7
 48
2.0
100
AcDbVertex
100
AcDb2dVertex
 10
-2.263604991319909
 20
-0.1489337516210156
 30
0.0
  0
VERTEX
  5
396
330
388
100
AcDbEntity
  8
1
  6
Continuous
 62
     7
 48
2.0
100
AcDbVertex
100
AcDb2dVertex
 10
-2.265962956817333
 20
0.0043340171824511
 30
0.0
  0
SEQEND
  5
397
330
388
100
AcDbEntity
  8
1
  6
Continuous
 62
     7
 48
2.0
370
     0
  0
LINE
  5
398
330
1F
100
AcDbEntity
  8
1
  6
Continuous
 62
     7
 48
2.0
370
     0
100
AcDbLine
 10
-1.170569154321591
 20
-0.6492337224607247
 30
0.0
 11
-1.170832250554547
 21
-0.6492356499057976
 31
0.0
  0
POLYLINE
  5
399
330
1F
100
AcDbEntity
  8
1
  6
Continuous
 62
     7
 48
2.0
370
     0
100
AcDb2dPolyline
 66
     1
 10
0.0
 20
0.0
 30
0.0
 70
   128
  0
VERTEX
  5
39A
330
399
100
AcDbEntity
  8
1
  6
Continuous
 62
     7
 48
2.0
100
AcDbVertex
100
AcDb2dVertex
 10
-1.19378895027689
 20
-0.649403830868728
 30
0.0
  0
VERTEX
  5
39B
330
399
100
AcDbEntity
  8
1
  6
Continuous
 62
     7
 48
2.0
100
AcDbVertex
100
AcDb2dVertex
 10
-1.814293735119428
 20
-0.6539496538085245
 30
0.0
  0
VERTEX
  5
39C
330
399
100
AcDbEntity
  8
1
  6
Continuous
 62
     7
 48
2.0
100
AcDbVertex
100
AcDb2dVertex
 10
-1.862395646664055
 20
-0.6555267657804791
 30
0.0
  0
SEQEND
  5
39D
330
399
100
AcDbEntity
  8
1
  6
Continuous
 62
     7
 48
2.0
370
     0
  0
LINE
  5
39E
330
1F
100
AcDbEntity
  8
1
  6
Continuous
 62
     7
 48
2.0
370
     0
100
AcDbLine
 10
-1.173754257143607
 20
-0.6497304432148638
 30
0.0
 11
-1.19488767336324
 21
-0.6493660739239182
 31
0.0
  0
POLYLINE
  5
39F
330
1F
100
AcDbEntity
  8
1
  6
Continuous
 62
     7
 48
2.0
370
     0
100
AcDb2dPolyline
 66
     1
 10
0.0
 20
0.0
 30
0.0
 70
   128
  0
VERTEX
  5
3A0
330
39F
100
AcDbEntity
  8
1
  6
Continuous
 62
     7
 48
2.0
100
AcDbVertex
100
AcDb2dVertex
 10
-1.124564409046179
 20
-0.6854386337274931
 30
0.0
  0
VERTEX
  5
3A1
330
39F
100
AcDbEntity
  8
1
  6
Continuous
 62
     7
 48
2.0
100
AcDbVertex
100
AcDb2dVertex
 10
-1.1362242248915
 20
-0.6858030030184388
 30
0.0
  0
VERTEX
  5
3A2
330
39F
100
AcDbEntity
  8
1
  6
Continuous
 62
     7
 48
2.0
100
AcDbVertex
100
AcDb2dVertex
 10
-1.143147240549652
 20
-0.6883535880550546
 30
0.0
  0
VERTEX
  5
3A3
330
39F
100
AcDbEntity
  8
1
  6
Continuous
 62
     7
 48
2.0
100
AcDbVertex
100
AcDb2dVertex
 10
-1.148248409981974
 20
-0.6916329116735582
 30
0.0
  0
VERTEX
  5
3A4
330
39F
100
AcDbEntity
  8
1
  6
Continuous
 62
     7
 48
2.0
100
AcDbVertex
100
AcDb2dVertex
 10
-1.150070256207812
 20
-0.6963697124558479
 30
0.0
  0
SEQEND
  5
3A5
330
39F
100
AcDbEntity
  8
1
  6
Continuous
 62
     7
 48
2.0
370
     0
  0
LINE
  5
3A6
330
1F
100
AcDbEntity
  8
1
  6
Continuous
 62
     7
 48
2.0
370
     0
100
AcDbLine
 10
-1.26266035296414
 20
-0.7076651604751483
 30
0.0
 11
-1.18249911902759
 21
-0.706936421893257
 31
0.0
  0
LINE
  5
3A7
330
1F
100
AcDbEntity
  8
1
  6
Continuous
 62
     7
 48
2.0
370
     0
100
AcDbLine
 10
-1.174847364879106
 20
-0.7845470808645807
 30
0.0
 11
-1.234239551841178
 21
-0.7849114501555263
 31
0.0
  0
LINE
  5
3A8
330
1F
100
AcDbEntity
  8
1
  6
Continuous
 62
     7
 48
2.0
370
     0
100
AcDbLine
 10
-1.176304841859768
 20
-0.8614290012540131
 30
0.0
 11
-1.267032783906131
 21
-0.8647083248725203
 31
0.0
  0
LINE
  5
3A9
330
1F
100
AcDbEntity
  8
1
  6
Continuous
 62
     7
 48
2.0
370
     0
100
AcDbLine
 10
-1.168288718466108
 20
-0.8559634618898357
 30
0.0
 11
-1.168288718466108
 21
-0.8603358933811798
 31
0.0
  0
LINE
  5
3AA
330
1F
100
AcDbEntity
  8
1
  6
Continuous
 62
     7
 48
2.0
370
     0
100
AcDbLine
 10
-1.871717550568839
 20
-0.6558607595588946
 30
0.0
 11
-1.861242818801337
 21
-0.6558607595588946
 31
0.0
  0
LINE
  5
3AB
330
1F
100
AcDbEntity
  8
1
  6
Continuous
 62
     7
 48
2.0
370
     0
100
AcDbLine
 10
-2.018363795313938
 20
-0.6294245323463272
 30
0.0
 11
-2.014373421307269
 21
-0.6324173127854849
 31
0.0
  0
POLYLINE
  5
3AC
330
1F
100
AcDbEntity
  8
1
  6
Continuous
 62
     7
 48
2.0
370
     0
100
AcDb2dPolyline
 66
     1
 10
0.0
 20
0.0
 30
0.0
 70
   128
  0
VERTEX
  5
3AD
330
3AC
100
AcDbEntity
  8
1
  6
Continuous
 62
     7
 48
2.0
100
AcDbVertex
100
AcDb2dVertex
 10
-2.158026885547358
 20
-0.7231983194399696
 30
0.0
  0
VERTEX
  5
3AE
330
3AC
100
AcDbEntity
  8
1
  6
Continuous
 62
     7
 48
2.0
100
AcDbVertex
100
AcDb2dVertex
 10
-2.139571405766514
 20
-0.7097308074637567
 30
0.0
  0
VERTEX
  5
3AF
330
3AC
100
AcDbEntity
  8
1
  6
Continuous
 62
     7
 48
2.0
100
AcDbVertex
100
AcDb2dVertex
 10
-2.134583438258179
 20
-0.7172127585616508
 30
0.0
  0
SEQEND
  5
3B0
330
3AC
100
AcDbEntity
  8
1
  6
Continuous
 62
     7
 48
2.0
370
     0
  0
POLYLINE
  5
3B1
330
1F
100
AcDbEntity
  8
1
  6
Continuous
 62
     7
 48
2.0
370
     0
100
AcDb2dPolyline
 66
     1
 10
0.0
 20
0.0
 30
0.0
 70
   128
  0
VERTEX
  5
3B2
330
3B1
100
AcDbEntity
  8
1
  6
Continuous
 62
     7
 48
2.0
100
AcDbVertex
100
AcDb2dVertex
 10
-2.153537714789859
 20
-0.727687490098706
 30
0.0
  0
VERTEX
  5
3B3
330
3B1
100
AcDbEntity
  8
1
  6
Continuous
 62
     7
 48
2.0
100
AcDbVertex
100
AcDb2dVertex
 10
-2.138573812264848
 20
-0.7551213107909973
 30
0.0
  0
VERTEX
  5
3B4
330
3B1
100
AcDbEntity
  8
1
  6
Continuous
 62
     7
 48
2.0
100
AcDbVertex
100
AcDb2dVertex
 10
-2.116626755228168
 20
-0.787543098881887
 30
0.0
  0
SEQEND
  5
3B5
330
3B1
100
AcDbEntity
  8
1
  6
Continuous
 62
     7
 48
2.0
370
     0
  0
POLYLINE
  5
3B6
330
1F
100
AcDbEntity
  8
1
  6
Continuous
 62
     7
 48
2.0
370
     0
100
AcDb2dPolyline
 66
     1
 10
0.0
 20
0.0
 30
0.0
 70
   128
  0
VERTEX
  5
3B7
330
3B6
100
AcDbEntity
  8
1
  6
Continuous
 62
     7
 48
2.0
100
AcDbVertex
100
AcDb2dVertex
 10
-2.109144803965663
 20
-0.7745743836455325
 30
0.0
  0
VERTEX
  5
3B8
330
3B6
100
AcDbEntity
  8
1
  6
Continuous
 62
     7
 48
2.0
100
AcDbVertex
100
AcDb2dVertex
 10
-2.117125551979001
 20
-0.7645984488483357
 30
0.0
  0
VERTEX
  5
3B9
330
3B6
100
AcDbEntity
  8
1
  6
Continuous
 62
     7
 48
2.0
100
AcDbVertex
100
AcDb2dVertex
 10
-2.126103893494005
 20
-0.7576152944902965
 30
0.0
  0
VERTEX
  5
3BA
330
3B6
100
AcDbEntity
  8
1
  6
Continuous
 62
     7
 48
2.0
100
AcDbVertex
100
AcDb2dVertex
 10
-2.136079828510677
 20
-0.7571164977504345
 30
0.0
  0
SEQEND
  5
3BB
330
3B6
100
AcDbEntity
  8
1
  6
Continuous
 62
     7
 48
2.0
370
     0
  0
LINE
  5
3BC
330
1F
100
AcDbEntity
  8
1
  6
Continuous
 62
     7
 48
2.0
370
     0
100
AcDbLine
 10
-1.230702211340834
 20
-0.7847477203781317
 30
0.0
 11
-1.931577666796564
 21
-0.7802672381518256
 31
0.0
  0
LINE
  5
3BD
330
1F
100
AcDbEntity
  8
1
  6
Continuous
 62
     7
 48
2.0
370
     0
100
AcDbLine
 10
-2.159712012921673
 20
-0.7276935873394521
 30
0.0
 11
-2.161813326949719
 21
-0.7287442443626873
 31
0.0
  0
LINE
  5
3BE
330
1F
100
AcDbEntity
  8
1
  6
Continuous
 62
     7
 48
2.0
370
     0
100
AcDbLine
 10
-1.959036523243618
 20
-0.7784753434623681
 30
0.0
 11
-1.931369221874398
 21
-0.7802264385010922
 31
0.0
  0
LINE
  5
3BF
330
1F
100
AcDbEntity
  8
1
  6
Continuous
 62
     7
 48
2.0
370
     0
100
AcDbLine
 10
-1.860975201934977
 20
-0.8352108227169346
 30
0.0
 11
-1.895646883397674
 21
-0.8446667359260296
 31
0.0
  0
POLYLINE
  5
3C0
330
1F
100
AcDbEntity
  8
1
  6
Continuous
 62
     7
 48
2.0
370
     0
100
AcDb2dPolyline
 66
     1
 10
0.0
 20
0.0
 30
0.0
 70
   128
  0
VERTEX
  5
3C1
330
3C0
100
AcDbEntity
  8
1
  6
Continuous
 62
     7
 48
2.0
100
AcDbVertex
100
AcDb2dVertex
 10
0.196842663418316
 20
-0.6939063751862626
 30
0.0
  0
VERTEX
  5
3C2
330
3C0
100
AcDbEntity
  8
1
  6
Continuous
 62
     7
 48
2.0
100
AcDbVertex
100
AcDb2dVertex
 10
0.2364633998233998
 20
-0.6945006862152852
 30
0.0
  0
VERTEX
  5
3C3
330
3C0
100
AcDbEntity
  8
1
  6
Continuous
 62
     7
 48
2.0
100
AcDbVertex
100
AcDb2dVertex
 10
0.277668965684704
 20
-0.6964817229786995
 30
0.0
  0
SEQEND
  5
3C4
330
3C0
100
AcDbEntity
  8
1
  6
Continuous
 62
     7
 48
2.0
370
     0
  0
POLYLINE
  5
3C5
330
1F
100
AcDbEntity
  8
1
  6
Continuous
 62
     7
 48
2.0
370
     0
100
AcDb2dPolyline
 66
     1
 10
0.0
 20
0.0
 30
0.0
 70
   128
  0
VERTEX
  5
3C6
330
3C5
100
AcDbEntity
  8
1
  6
Continuous
 62
     7
 48
2.0
100
AcDbVertex
100
AcDb2dVertex
 10
0.2818291430072293
 20
-0.6735016965231182
 30
0.0
  0
VERTEX
  5
3C7
330
3C5
100
AcDbEntity
  8
1
  6
Continuous
 62
     7
 48
2.0
100
AcDbVertex
100
AcDb2dVertex
 10
0.2469628949707499
 20
-0.6717187634360471
 30
0.0
  0
VERTEX
  5
3C8
330
3C5
100
AcDbEntity
  8
1
  6
Continuous
 62
     7
 48
2.0
100
AcDbVertex
100
AcDb2dVertex
 10
0.2083326769757932
 20
-0.6703320377016588
 30
0.0
  0
SEQEND
  5
3C9
330
3C5
100
AcDbEntity
  8
1
  6
Continuous
 62
     7
 48
2.0
370
     0
  0
LINE
  5
3CA
330
1F
100
AcDbEntity
  8
1
  6
Continuous
 62
     7
 48
2.0
370
     0
100
AcDbLine
 10
0.2879703571500229
 20
-0.6378430347816959
 30
0.0
 11
0.2899513939702771
 21
-0.638437345810722
 31
0.0
  0
POLYLINE
  5
3CB
330
1F
100
AcDbEntity
  8
1
  6
Continuous
 62
     7
 48
2.0
370
     0
100
AcDb2dPolyline
 66
     1
 10
0.0
 20
0.0
 30
0.0
 70
   128
  0
VERTEX
  5
3CC
330
3CB
100
AcDbEntity
  8
1
  6
Continuous
 62
     7
 48
2.0
100
AcDbVertex
100
AcDb2dVertex
 10
-1.171332965048755
 20
0.7807917346045627
 30
0.0
  0
VERTEX
  5
3CD
330
3CB
100
AcDbEntity
  8
1
  6
Continuous
 62
     7
 48
2.0
100
AcDbVertex
100
AcDb2dVertex
 10
-0.3076828482870297
 20
0.7822299528303347
 30
0.0
  0
VERTEX
  5
3CE
330
3CB
100
AcDbEntity
  8
1
  6
Continuous
 62
     7
 48
2.0
100
AcDbVertex
100
AcDb2dVertex
 10
-0.290424228135258
 20
0.7793535163787837
 30
0.0
  0
VERTEX
  5
3CF
330
3CB
100
AcDbEntity
  8
1
  6
Continuous
 62
     7
 48
2.0
100
AcDbVertex
100
AcDb2dVertex
 10
-0.2781993721944218
 20
0.7728815343628099
 30
0.0
  0
VERTEX
  5
3D0
330
3CB
100
AcDbEntity
  8
1
  6
Continuous
 62
     7
 48
2.0
100
AcDbVertex
100
AcDb2dVertex
 10
-0.271008280464514
 20
0.7635331158952852
 30
0.0
  0
SEQEND
  5
3D1
330
3CB
100
AcDbEntity
  8
1
  6
Continuous
 62
     7
 48
2.0
370
     0
  0
POLYLINE
  5
3D2
330
1F
100
AcDbEntity
  8
1
  6
Continuous
 62
     7
 48
2.0
370
     0
100
AcDb2dPolyline
 66
     1
 10
0.0
 20
0.0
 30
0.0
 70
   128
  0
VERTEX
  5
3D3
330
3D2
100
AcDbEntity
  8
1
  6
Continuous
 62
     7
 48
2.0
100
AcDbVertex
100
AcDb2dVertex
 10
-1.254047459433664
 20
0.7039589420827213
 30
0.0
  0
VERTEX
  5
3D4
330
3D2
100
AcDbEntity
  8
1
  6
Continuous
 62
     7
 48
2.0
100
AcDbVertex
100
AcDb2dVertex
 10
-1.938026245188283
 20
0.7132489773219035
 30
0.0
  0
VERTEX
  5
3D5
330
3D2
100
AcDbEntity
  8
1
  6
Continuous
 62
     7
 48
2.0
100
AcDbVertex
100
AcDb2dVertex
 10
-1.947759832856946
 20
0.7197380363248556
 30
0.0
  0
VERTEX
  5
3D6
330
3D2
100
AcDbEntity
  8
1
  6
Continuous
 62
     7
 48
2.0
100
AcDbVertex
100
AcDb2dVertex
 10
-1.964631384815952
 20
0.7703526965479028
 30
0.0
  0
VERTEX
  5
3D7
330
3D2
100
AcDbEntity
  8
1
  6
Continuous
 62
     7
 48
2.0
100
AcDbVertex
100
AcDb2dVertex
 10
-1.952302173768985
 20
0.7748950378499657
 30
0.0
  0
SEQEND
  5
3D8
330
3D2
100
AcDbEntity
  8
1
  6
Continuous
 62
     7
 48
2.0
370
     0
  0
LINE
  5
3D9
330
1F
100
AcDbEntity
  8
1
  6
Continuous
 62
     7
 48
2.0
370
     0
100
AcDbLine
 10
-1.223917160348975
 20
0.7809643926759477
 30
0.0
 11
-1.924792615804705
 21
0.7764839104496346
 31
0.0
  0
POLYLINE
  5
3DA
330
1F
100
AcDbEntity
  8
1
  6
Continuous
 62
     7
 48
2.0
370
     0
100
AcDb2dPolyline
 66
     1
 10
0.0
 20
0.0
 30
0.0
 70
   128
  0
VERTEX
  5
3DB
330
3DA
100
AcDbEntity
  8
1
  6
Continuous
 62
     7
 48
2.0
100
AcDbVertex
100
AcDb2dVertex
 10
-0.2708121403837254
 20
0.766972512359267
 30
0.0
  0
VERTEX
  5
3DC
330
3DA
100
AcDbEntity
  8
1
  6
Continuous
 62
     7
 48
2.0
100
AcDbVertex
100
AcDb2dVertex
 10
-0.2726537090429701
 20
0.7181709460214307
 30
0.0
  0
VERTEX
  5
3DD
330
3DA
100
AcDbEntity
  8
1
  6
Continuous
 62
     7
 48
2.0
100
AcDbVertex
100
AcDb2dVertex
 10
-0.2908704314981989
 20
0.7012554191129041
 30
0.0
  0
VERTEX
  5
3DE
330
3DA
100
AcDbEntity
  8
1
  6
Continuous
 62
     7
 48
2.0
100
AcDbVertex
100
AcDb2dVertex
 10
-1.176983859499167
 20
0.7064601966232189
 30
0.0
  0
SEQEND
  5
3DF
330
3DA
100
AcDbEntity
  8
1
  6
Continuous
 62
     7
 48
2.0
370
     0
  0
LINE
  5
3E0
330
1F
100
AcDbEntity
  8
1
  6
Continuous
 62
     7
 48
2.0
370
     0
100
AcDbLine
 10
-1.174226033776094
 20
0.7065069905914569
 30
0.0
 11
-1.254288218746503
 21
0.7038962670356312
 31
0.0
  0
LINE
  5
3E1
330
1F
100
AcDbEntity
  8
1
  6
Continuous
 62
     7
 48
2.0
370
     0
100
AcDbLine
 10
-1.22557026109407
 20
0.780912611932564
 30
0.0
 11
-1.16987482807118
 21
0.780912611932564
 31
0.0
  0
POLYLINE
  5
3E2
330
1F
100
AcDbEntity
  8
1
  6
Continuous
 62
     7
 48
2.0
370
     0
100
AcDb2dPolyline
 66
     1
 10
0.0
 20
0.0
 30
0.0
 70
   128
  0
VERTEX
  5
3E3
330
3E2
100
AcDbEntity
  8
1
  6
Continuous
 62
     7
 48
2.0
100
AcDbVertex
100
AcDb2dVertex
 10
-1.148553920117109
 20
0.6869265639227464
 30
0.0
  0
VERTEX
  5
3E4
330
3E2
100
AcDbEntity
  8
1
  6
Continuous
 62
     7
 48
2.0
100
AcDbVertex
100
AcDb2dVertex
 10
-1.141591990989248
 20
0.6834455991816455
 30
0.0
  0
VERTEX
  5
3E5
330
3E2
100
AcDbEntity
  8
1
  6
Continuous
 62
     7
 48
2.0
100
AcDbVertex
100
AcDb2dVertex
 10
-1.119400841894191
 20
0.6825753579963632
 30
0.0
  0
SEQEND
  5
3E6
330
3E2
100
AcDbEntity
  8
1
  6
Continuous
 62
     7
 48
2.0
370
     0
  0
LINE
  5
3E7
330
1F
100
AcDbEntity
  8
1
  6
Continuous
 62
     7
 48
2.0
370
     0
100
AcDbLine
 10
-1.094598969376179
 20
0.6482008311779666
 30
0.0
 11
-1.17205043092364
 21
0.6490710723632347
 31
0.0
  0
LINE
  5
3E8
330
1F
100
AcDbEntity
  8
1
  6
Continuous
 62
     7
 48
2.0
370
     0
100
AcDbLine
 10
-1.222959537671123
 20
0.8622801627558729
 30
0.0
 11
-1.216432729113755
 21
0.8622801627558729
 31
0.0
  0
LINE
  5
3E9
330
1F
100
AcDbEntity
  8
1
  6
Continuous
 62
     7
 48
2.0
370
     0
100
AcDbLine
 10
-1.924031185818819
 20
0.776328383490906
 30
0.0
 11
-1.952367086144598
 21
0.7750548598263762
 31
0.0
  0
LINE
  5
3EA
330
1F
100
AcDbEntity
  8
1
  6
Continuous
 62
     7
 48
2.0
370
     0
100
AcDbLine
 10
-2.154141583606002
 20
0.7282386984422757
 30
0.0
 11
-2.153186440898388
 21
0.7260100320293574
 31
0.0
  0
POLYLINE
  5
3EB
330
1F
100
AcDbEntity
  8
1
  6
Continuous
 62
     7
 48
2.0
370
     0
100
AcDb2dPolyline
 66
     1
 10
0.0
 20
0.0
 30
0.0
 70
   128
  0
VERTEX
  5
3EC
330
3EB
100
AcDbEntity
  8
1
  6
Continuous
 62
     7
 48
2.0
100
AcDbVertex
100
AcDb2dVertex
 10
-2.158518720480924
 20
0.7208770405779461
 30
0.0
  0
VERTEX
  5
3ED
330
3EB
100
AcDbEntity
  8
1
  6
Continuous
 62
     7
 48
2.0
100
AcDbVertex
100
AcDb2dVertex
 10
-2.139734247231249
 20
0.7071866611843092
 30
0.0
  0
VERTEX
  5
3EE
330
3EB
100
AcDbEntity
  8
1
  6
Continuous
 62
     7
 48
2.0
100
AcDbVertex
100
AcDb2dVertex
 10
-2.134003390985587
 20
0.715464565003721
 30
0.0
  0
SEQEND
  5
3EF
330
3EB
100
AcDbEntity
  8
1
  6
Continuous
 62
     7
 48
2.0
370
     0
  0
LINE
  5
3F0
330
1F
100
AcDbEntity
  8
1
  6
Continuous
 62
     7
 48
2.0
370
     0
100
AcDbLine
 10
-2.161622333745701
 20
0.7275241430233876
 30
0.0
 11
-2.159393667427938
 21
0.7252954766104693
 31
0.0
  0
POLYLINE
  5
3F1
330
1F
100
AcDbEntity
  8
1
  6
Continuous
 62
     7
 48
2.0
370
     0
100
AcDb2dPolyline
 66
     1
 10
0.0
 20
0.0
 30
0.0
 70
   128
  0
VERTEX
  5
3F2
330
3F1
100
AcDbEntity
  8
1
  6
Continuous
 62
     7
 48
2.0
100
AcDbVertex
100
AcDb2dVertex
 10
-2.128909296544997
 20
0.768952558913746
 30
0.0
  0
VERTEX
  5
3F3
330
3F1
100
AcDbEntity
  8
1
  6
Continuous
 62
     7
 48
2.0
100
AcDbVertex
100
AcDb2dVertex
 10
-2.125725487519631
 20
0.7625849405911254
 30
0.0
  0
VERTEX
  5
3F4
330
3F1
100
AcDbEntity
  8
1
  6
Continuous
 62
     7
 48
2.0
100
AcDbVertex
100
AcDb2dVertex
 10
-2.125407106617089
 20
0.7539886558555864
 30
0.0
  0
VERTEX
  5
3F5
330
3F1
100
AcDbEntity
  8
1
  6
Continuous
 62
     7
 48
2.0
100
AcDbVertex
100
AcDb2dVertex
 10
-2.129546058350073
 20
0.7425269428748607
 30
0.0
  0
VERTEX
  5
3F6
330
3F1
100
AcDbEntity
  8
1
  6
Continuous
 62
     7
 48
2.0
100
AcDbVertex
100
AcDb2dVertex
 10
-2.142599675354084
 20
0.7211954214940803
 30
0.0
  0
SEQEND
  5
3F7
330
3F1
100
AcDbEntity
  8
1
  6
Continuous
 62
     7
 48
2.0
370
     0
  0
LINE
  5
3F8
330
1F
100
AcDbEntity
  8
1
  6
Continuous
 62
     7
 48
2.0
370
     0
100
AcDbLine
 10
-2.10439396704966
 20
0.8055663642688273
 30
0.0
 11
-2.10439396704966
 21
0.8027009360236477
 31
0.0
  0
POLYLINE
  5
3F9
330
1F
100
AcDbEntity
  8
1
  6
Continuous
 62
     7
 48
2.0
370
     0
100
AcDb2dPolyline
 66
     1
 10
0.0
 20
0.0
 30
0.0
 70
   128
  0
VERTEX
  5
3FA
330
3F9
100
AcDbEntity
  8
1
  6
Continuous
 62
     7
 48
2.0
100
AcDbVertex
100
AcDb2dVertex
 10
-1.868620675149543
 20
0.6556819211699789
 30
0.0
  0
VERTEX
  5
3FB
330
3F9
100
AcDbEntity
  8
1
  6
Continuous
 62
     7
 48
2.0
100
AcDbVertex
100
AcDb2dVertex
 10
-2.001447155866963
 20
0.6611312125195496
 30
0.0
  0
VERTEX
  5
3FC
330
3F9
100
AcDbEntity
  8
1
  6
Continuous
 62
     7
 48
2.0
100
AcDbVertex
100
AcDb2dVertex
 10
-2.01302690033976
 20
0.6658993424504303
 30
0.0
  0
VERTEX
  5
3FD
330
3F9
100
AcDbEntity
  8
1
  6
Continuous
 62
     7
 48
2.0
100
AcDbVertex
100
AcDb2dVertex
 10
-2.089316981572331
 20
0.7742040080231973
 30
0.0
  0
SEQEND
  5
3FE
330
3F9
100
AcDbEntity
  8
1
  6
Continuous
 62
     7
 48
2.0
370
     0
  0
POLYLINE
  5
3FF
330
1F
100
AcDbEntity
  8
1
  6
Continuous
 62
     7
 48
2.0
370
     0
100
AcDb2dPolyline
 66
     1
 10
0.0
 20
0.0
 30
0.0
 70
   128
  0
VERTEX
  5
400
330
3FF
100
AcDbEntity
  8
1
  6
Continuous
 62
     7
 48
2.0
100
AcDbVertex
100
AcDb2dVertex
 10
-1.171866966010747
 20
0.6489923578758621
 30
0.0
  0
VERTEX
  5
401
330
3FF
100
AcDbEntity
  8
1
  6
Continuous
 62
     7
 48
2.0
100
AcDbVertex
100
AcDb2dVertex
 10
-1.815591546808584
 20
0.6537082892236654
 30
0.0
  0
VERTEX
  5
402
330
3FF
100
AcDbEntity
  8
1
  6
Continuous
 62
     7
 48
2.0
100
AcDbVertex
100
AcDb2dVertex
 10
-1.846793952274233
 20
0.654731318987622
 30
0.0
  0
SEQEND
  5
403
330
3FF
100
AcDbEntity
  8
1
  6
Continuous
 62
     7
 48
2.0
370
     0
  0
LINE
  5
404
330
1F
100
AcDbEntity
  8
1
  6
Continuous
 62
     7
 48
2.0
370
     0
100
AcDbLine
 10
-2.091397831522869
 20
0.7781036642776442
 30
0.0
 11
-2.104442320243514
 21
0.8022601266793288
 31
0.0
  0
LINE
  5
405
330
1F
100
AcDbEntity
  8
1
  6
Continuous
 62
     7
 48
2.0
370
     0
100
AcDbLine
 10
-1.868739525184708
 20
0.6556705665992197
 30
0.0
 11
-1.845922225556627
 21
0.6546092969592578
 31
0.0
  0
LINE
  5
406
330
1F
100
AcDbEntity
  8
1
  6
Continuous
 62
     7
 48
2.0
370
     0
100
AcDbLine
 10
-2.018113242517352
 20
0.6270162863202344
 30
0.0
 11
-2.015460068141991
 21
0.6299347778301367
 31
0.0
  0
LINE
  5
407
330
1F
100
AcDbEntity
  8
1
  6
Continuous
 62
     7
 48
2.0
370
     0
100
AcDbLine
 10
-2.091272834222352
 20
0.7777927024295082
 30
0.0
 11
-2.089574802662135
 21
0.7743966391867687
 31
0.0
  0
POLYLINE
  5
408
330
1F
100
AcDbEntity
  8
1
  6
Continuous
 62
     7
 48
2.0
370
     0
100
AcDb2dPolyline
 66
     1
 10
0.0
 20
0.0
 30
0.0
 70
   128
  0
VERTEX
  5
409
330
408
100
AcDbEntity
  8
1
  6
Continuous
 62
     7
 48
2.0
100
AcDbVertex
100
AcDb2dVertex
 10
0.210820774002876
 20
0.6919194484273206
 30
0.0
  0
VERTEX
  5
40A
330
408
100
AcDbEntity
  8
1
  6
Continuous
 62
     7
 48
2.0
100
AcDbVertex
100
AcDb2dVertex
 10
-0.1493193139260214
 20
0.6864461951626453
 30
0.0
  0
VERTEX
  5
40B
330
408
100
AcDbEntity
  8
1
  6
Continuous
 62
     7
 48
2.0
100
AcDbVertex
100
AcDb2dVertex
 10
-0.8506631284524886
 20
0.6799402232747482
 30
0.0
  0
VERTEX
  5
40C
330
408
100
AcDbEntity
  8
1
  6
Continuous
 62
     7
 48
2.0
100
AcDbVertex
100
AcDb2dVertex
 10
-1.11940062716716
 20
0.6830291598433362
 30
0.0
  0
SEQEND
  5
40D
330
408
100
AcDbEntity
  8
1
  6
Continuous
 62
     7
 48
2.0
370
     0
  0
POLYLINE
  5
40E
330
1F
100
AcDbEntity
  8
1
  6
Continuous
 62
     7
 48
2.0
370
     0
100
AcDb2dPolyline
 66
     1
 10
0.0
 20
0.0
 30
0.0
 70
   128
  0
VERTEX
  5
40F
330
40E
100
AcDbEntity
  8
1
  6
Continuous
 62
     7
 48
2.0
100
AcDbVertex
100
AcDb2dVertex
 10
0.2362976298883979
 20
0.6692292492240952
 30
0.0
  0
VERTEX
  5
410
330
40E
100
AcDbEntity
  8
1
  6
Continuous
 62
     7
 48
2.0
100
AcDbVertex
100
AcDb2dVertex
 10
-0.157126480692547
 20
0.6539163357231601
 30
0.0
  0
VERTEX
  5
411
330
40E
100
AcDbEntity
  8
1
  6
Continuous
 62
     7
 48
2.0
100
AcDbVertex
100
AcDb2dVertex
 10
-0.8896989622851308
 20
0.6500127525904276
 30
0.0
  0
VERTEX
  5
412
330
40E
100
AcDbEntity
  8
1
  6
Continuous
 62
     7
 48
2.0
100
AcDbVertex
100
AcDb2dVertex
 10
-1.095017618560725
 20
0.6481376964890657
 30
0.0
  0
SEQEND
  5
413
330
40E
100
AcDbEntity
  8
1
  6
Continuous
 62
     7
 48
2.0
370
     0
  0
POLYLINE
  5
414
330
1F
100
AcDbEntity
  8
1
  6
Continuous
 62
     7
 48
2.0
370
     0
100
AcDb2dPolyline
 66
     1
 10
0.0
 20
0.0
 30
0.0
 70
   128
  0
VERTEX
  5
415
330
414
100
AcDbEntity
  8
1
  6
Continuous
 62
     7
 48
2.0
100
AcDbVertex
100
AcDb2dVertex
 10
0.277926739489601
 20
0.694443077439054
 30
0.0
  0
VERTEX
  5
416
330
414
100
AcDbEntity
  8
1
  6
Continuous
 62
     7
 48
2.0
100
AcDbVertex
100
AcDb2dVertex
 10
0.2485789276229511
 20
0.6931670855885912
 30
0.0
  0
VERTEX
  5
417
330
414
100
AcDbEntity
  8
1
  6
Continuous
 62
     7
 48
2.0
100
AcDbVertex
100
AcDb2dVertex
 10
0.2100439746502261
 20
0.6918910937381142
 30
0.0
  0
SEQEND
  5
418
330
414
100
AcDbEntity
  8
1
  6
Continuous
 62
     7
 48
2.0
370
     0
  0
POLYLINE
  5
419
330
1F
100
AcDbEntity
  8
1
  6
Continuous
 62
     7
 48
2.0
370
     0
100
AcDb2dPolyline
 66
     1
 10
0.0
 20
0.0
 30
0.0
 70
   128
  0
VERTEX
  5
41A
330
419
100
AcDbEntity
  8
1
  6
Continuous
 62
     7
 48
2.0
100
AcDbVertex
100
AcDb2dVertex
 10
0.2817547149504733
 20
0.6714752241305959
 30
0.0
  0
VERTEX
  5
41B
330
419
100
AcDbEntity
  8
1
  6
Continuous
 62
     7
 48
2.0
100
AcDbVertex
100
AcDb2dVertex
 10
0.258021267093099
 20
0.670199232280126
 30
0.0
  0
VERTEX
  5
41C
330
419
100
AcDbEntity
  8
1
  6
Continuous
 62
     7
 48
2.0
100
AcDbVertex
100
AcDb2dVertex
 10
0.2353086126919521
 20
0.6691784387997473
 30
0.0
  0
SEQEND
  5
41D
330
419
100
AcDbEntity
  8
1
  6
Continuous
 62
     7
 48
2.0
370
     0
  0
ENDSEC
  0
SECTION
  2
OBJECTS
  0
DICTIONARY
  5
C
330
0
100
AcDbDictionary
281
     1
  3
ACAD_DETAILVIEWSTYLE
350
45A
  3
ACAD_GROUP
350
D
  3
ACAD_IMAGE_VARS
350
95
  3
ACAD_LAYOUT
350
1A
  3
ACAD_MATERIAL
350
91
  3
ACAD_MLEADERSTYLE
350
458
  3
ACAD_MLINESTYLE
350
17
  3
ACAD_PLOTSETTINGS
350
19
  3
ACAD_PLOTSTYLENAME
350
E
  3
ACAD_SCALELIST
350
6F
  3
ACAD_SECTIONVIEWSTYLE
350
45B
  3
ACAD_TABLESTYLE
350
457
  3
ACAD_VISUALSTYLE
350
56
  3
AcDbVariableDictionary
350
4E
  0
DICTIONARY
  5
41E
330
8
100
AcDbDictionary
280
     1
281
     1
  3
ACAD_XREC_ROUNDTRIP
360
41F
  0
DICTIONARY
  5
45A
102
{ACAD_REACTORS
330
C
102
}
330
C
100
AcDbDictionary
281
     1
  0
DICTIONARY
  5
D
102
{ACAD_REACTORS
330
C
102
}
330
C
100
AcDbDictionary
281
     1
  0
RASTERVARIABLES
  5
95
102
{ACAD_REACTORS
330
C
102
}
330
C
100
AcDbRasterVariables
 90
        0
 70
     0
 71
     1
 72
     5
  0
DICTIONARY
  5
1A
102
{ACAD_REACTORS
330
C
102
}
330
C
100
AcDbDictionary
281
     1
  3
Layout1
350
1E
  3
Model
350
22
  0
DICTIONARY
  5
91
102
{ACAD_REACTORS
330
C
102
}
330
C
100
AcDbDictionary
281
     1
  3
ByBlock
350
93
  3
ByLayer
350
92
  3
Global
350
94
  0
DICTIONARY
  5
458
102
{ACAD_REACTORS
330
C
102
}
330
C
100
AcDbDictionary
281
     1
  0
DICTIONARY
  5
17
102
{ACAD_REACTORS
330
C
102
}
330
C
100
AcDbDictionary
281
     1
  3
Standard
350
18
  0
DICTIONARY
  5
19
102
{ACAD_REACTORS
330
C
102
}
330
C
100
AcDbDictionary
281
     1
  0
ACDBDICTIONARYWDFLT
  5
E
102
{ACAD_REACTORS
330
C
102
}
330
C
100
AcDbDictionary
281
     1
  3
Normal
350
F
100
AcDbDictionaryWithDefault
340
F
  0
DICTIONARY
  5
6F
102
{ACAD_REACTORS
330
C
102
}
330
C
100
AcDbDictionary
281
     1
  3
A0
350
70
  3
A1
350
71
  3
A2
350
72
  3
A3
350
73
  3
A4
350
74
  3
A5
350
75
  3
A6
350
76
  3
A7
350
77
  3
A8
350
78
  3
A9
350
79
  3
B0
350
7A
  3
B1
350
7B
  3
B2
350
7C
  3
B3
350
7D
  3
B4
350
7E
  3
B5
350
7F
  3
B6
350
80
  3
B7
350
81
  3
B8
350
82
  3
B9
350
83
  3
C0
350
84
  3
C1
350
85
  3
C2
350
86
  3
C3
350
87
  3
C4
350
88
  3
C5
350
89
  3
C6
350
8A
  3
C7
350
8B
  3
C8
350
8C
  3
C9
350
8D
  3
D0
350
8E
  3
D1
350
8F
  3
D2
350
90
  0
DICTIONARY
  5
45B
102
{ACAD_REACTORS
330
C
102
}
330
C
100
AcDbDictionary
281
     1
  0
DICTIONARY
  5
457
102
{ACAD_REACTORS
330
C
102
}
330
C
100
AcDbDictionary
281
     1
  0
DICTIONARY
  5
56
102
{ACAD_REACTORS
330
C
102
}
330
C
100
AcDbDictionary
281
     1
  3
2dWireframe
350
5B
  3
Basic
350
5E
  3
Brighten
350
62
  3
ColorChange
350
66
  3
Conceptual
350
60
  3
Dim
350
61
  3
EdgeColorOff
350
69
  3
Facepattern
350
65
  3
Flat
350
57
  3
FlatWithEdges
350
58
  3
Gouraud
350
59
  3
GouraudWithEdges
350
5A
  3
Hidden
350
5D
  3
JitterOff
350
67
  3
Linepattern
350
64
  3
OverhangOff
350
68
  3
Realistic
350
5F
  3
Shaded
350
6E
  3
Shaded with edges
350
6D
  3
Shades of Gray
350
6A
  3
Sketchy
350
6B
  3
Thicken
350
63
  3
Wireframe
350
5C
  3
X-Ray
350
6C
  0
DICTIONARY
  5
4E
102
{ACAD_REACTORS
330
C
102
}
330
C
100
AcDbDictionary
281
     1
  3
CANNOSCALE
350
420
  3
DIMASSOC
350
4F
  3
MSLTSCALE
350
459
  0
XRECORD
  5
41F
102
{ACAD_REACTORS
330
41E
102
}
330
41E
100
AcDbXrecord
280
     1
102
VTR_0.000_0.000_1.000_1.000_VISUALSTYLE
340
5B
102
VTR_0.000_0.000_1.000_1.000_GRIDDISPLAY
 70
     3
102
VTR_0.000_0.000_1.000_1.000_GRIDMAJOR
 70
     5
102
VTR_0.000_0.000_1.000_1.000_DEFAULTLIGHTING
280
     1
102
VTR_0.000_0.000_1.000_1.000_DEFAULTLIGHTINGTYPE
 70
     1
102
VTR_0.000_0.000_1.000_1.000_BRIGHTNESS
141
0.0
102
VTR_0.000_0.000_1.000_1.000_CONTRAST
142
0.0
  0
LAYOUT
  5
1E
102
{ACAD_REACTORS
330
1A
102
}
330
1A
100
AcDbPlotSettings
  1

  2
HP DeskJet 720C v10.3
  4

  6

 40
0.0
 41
0.0
 42
0.0
 43
0.0
 44
0.0
 45
0.0
 46
0.0
 47
0.0
 48
0.0
 49
0.0
140
0.0
141
0.0
142
1.0
143
1.0
 70
   688
 72
     0
 73
     0
 74
     5
  7

 75
    16
 76
     0
 77
     2
 78
   300
147
1.0
148
0.0
149
0.0
100
AcDbLayout
  1
Layout1
 70
     1
 71
     1
 10
0.0
 20
0.0
 11
12.0
 21
9.0
 12
0.0
 22
0.0
 32
0.0
 14
1.000000000000000E+20
 24
1.000000000000000E+20
 34
1.000000000000000E+20
 15
-1.000000000000000E+20
 25
-1.000000000000000E+20
 35
-1.000000000000000E+20
146
0.0
 13
0.0
 23
0.0
 33
0.0
 16
1.0
 26
0.0
 36
0.0
 17
0.0
 27
1.0
 37
0.0
 76
     0
330
1B
  0
LAYOUT
  5
22
102
{ACAD_REACTORS
330
1A
102
}
330
1A
100
AcDbPlotSettings
  1

  2
None
  4
Custom Paper
  6

 40
0.5
 41
0.5
 42
0.5
 43
0.5
 44
296.926
 45
209.9733333333333
 46
0.0
 47
40.24020024316656
 48
0.0
 49
0.0
140
0.0
141
0.0
142
1.0
143
0.0173913710842545
 70
  5796
 72
     1
 73
     0
 74
     0
  7

 75
     0
 76
     0
 77
     2
 78
   300
147
57.49977935353017
148
2.573279439739552
149
1.117334138423189
100
AcDbLayout
  1
Model
 70
     1
 71
     0
 10
0.0
 20
0.0
 11
12.0
 21
9.0
 12
0.0
 22
0.0
 32
0.0
 14
-2.349250180195206
 24
-1.016852348800306
 34
0.0000000000125
 15
2.329439710240337
 25
1.014664266514551
 35
-0.0000000000125
146
0.0
 13
0.0
 23
0.0
 33
0.0
 16
1.0
 26
0.0
 36
0.0
 17
0.0
 27
1.0
 37
0.0
 76
     0
330
1F
331
55
  0
MATERIAL
  5
93
102
{ACAD_REACTORS
330
91
102
}
102
{ACAD_XDICTIONARY
360
453
102
}
330
91
100
AcDbMaterial
  1
ByBlock
  0
MATERIAL
  5
92
102
{ACAD_REACTORS
330
91
102
}
102
{ACAD_XDICTIONARY
360
451
102
}
330
91
100
AcDbMaterial
  1
ByLayer
  0
MATERIAL
  5
94
102
{ACAD_REACTORS
330
91
102
}
102
{ACAD_XDICTIONARY
360
455
102
}
330
91
100
AcDbMaterial
  1
Global
  0
MLINESTYLE
  5
18
102
{ACAD_REACTORS
330
17
102
}
330
17
100
AcDbMlineStyle
  2
STANDARD
 70
     0
  3

 62
   256
 51
90.0
 52
90.0
 71
     2
 49
0.5
 62
   256
  6
BYLAYER
 49
-0.5
 62
   256
  6
BYLAYER
  0
ACDBPLACEHOLDER
  5
F
102
{ACAD_REACTORS
330
E
102
}
330
E
  0
SCALE
  5
70
102
{ACAD_REACTORS
330
6F
102
}
330
6F
100
AcDbScale
 70
     0
300
1:1
140
1.0
141
1.0
290
     1
  0
SCALE
  5
71
102
{ACAD_REACTORS
330
6F
102
}
330
6F
100
AcDbScale
 70
     0
300
1:2
140
1.0
141
2.0
290
     0
  0
SCALE
  5
72
102
{ACAD_REACTORS
330
6F
102
}
330
6F
100
AcDbScale
 70
     0
300
1:4
140
1.0
141
4.0
290
     0
  0
SCALE
  5
73
102
{ACAD_REACTORS
330
6F
102
}
330
6F
100
AcDbScale
 70
     0
300
1:5
140
1.0
141
5.0
290
     0
  0
SCALE
  5
74
102
{ACAD_REACTORS
330
6F
102
}
330
6F
100
AcDbScale
 70
     0
300
1:8
140
1.0
141
8.0
290
     0
  0
SCALE
  5
75
102
{ACAD_REACTORS
330
6F
102
}
330
6F
100
AcDbScale
 70
     0
300
1:10
140
1.0
141
10.0
290
     0
  0
SCALE
  5
76
102
{ACAD_REACTORS
330
6F
102
}
330
6F
100
AcDbScale
 70
     0
300
1:16
140
1.0
141
16.0
290
     0
  0
SCALE
  5
77
102
{ACAD_REACTORS
330
6F
102
}
330
6F
100
AcDbScale
 70
     0
300
1:20
140
1.0
141
20.0
290
     0
  0
SCALE
  5
78
102
{ACAD_REACTORS
330
6F
102
}
330
6F
100
AcDbScale
 70
     0
300
1:30
140
1.0
141
30.0
290
     0
  0
SCALE
  5
79
102
{ACAD_REACTORS
330
6F
102
}
330
6F
100
AcDbScale
 70
     0
300
1:40
140
1.0
141
40.0
290
     0
  0
SCALE
  5
7A
102
{ACAD_REACTORS
330
6F
102
}
330
6F
100
AcDbScale
 70
     0
300
1:50
140
1.0
141
50.0
290
     0
  0
SCALE
  5
7B
102
{ACAD_REACTORS
330
6F
102
}
330
6F
100
AcDbScale
 70
     0
300
1:100
140
1.0
141
100.0
290
     0
  0
SCALE
  5
7C
102
{ACAD_REACTORS
330
6F
102
}
330
6F
100
AcDbScale
 70
     0
300
2:1
140
2.0
141
1.0
290
     0
  0
SCALE
  5
7D
102
{ACAD_REACTORS
330
6F
102
}
330
6F
100
AcDbScale
 70
     0
300
4:1
140
4.0
141
1.0
290
     0
  0
SCALE
  5
7E
102
{ACAD_REACTORS
330
6F
102
}
330
6F
100
AcDbScale
 70
     0
300
8:1
140
8.0
141
1.0
290
     0
  0
SCALE
  5
7F
102
{ACAD_REACTORS
330
6F
102
}
330
6F
100
AcDbScale
 70
     0
300
10:1
140
10.0
141
1.0
290
     0
  0
SCALE
  5
80
102
{ACAD_REACTORS
330
6F
102
}
330
6F
100
AcDbScale
 70
     0
300
100:1
140
100.0
141
1.0
290
     0
  0
SCALE
  5
81
102
{ACAD_REACTORS
330
6F
102
}
330
6F
100
AcDbScale
 70
     0
300
1/128" = 1'-0"
140
0.0078125
141
12.0
290
     0
  0
SCALE
  5
82
102
{ACAD_REACTORS
330
6F
102
}
330
6F
100
AcDbScale
 70
     0
300
1/64" = 1'-0"
140
0.015625
141
12.0
290
     0
  0
SCALE
  5
83
102
{ACAD_REACTORS
330
6F
102
}
330
6F
100
AcDbScale
 70
     0
300
1/32" = 1'-0"
140
0.03125
141
12.0
290
     0
  0
SCALE
  5
84
102
{ACAD_REACTORS
330
6F
102
}
330
6F
100
AcDbScale
 70
     0
300
1/16" = 1'-0"
140
0.0625
141
12.0
290
     0
  0
SCALE
  5
85
102
{ACAD_REACTORS
330
6F
102
}
330
6F
100
AcDbScale
 70
     0
300
3/32" = 1'-0"
140
0.09375
141
12.0
290
     0
  0
SCALE
  5
86
102
{ACAD_REACTORS
330
6F
102
}
330
6F
100
AcDbScale
 70
     0
300
1/8" = 1'-0"
140
0.125
141
12.0
290
     0
  0
SCALE
  5
87
102
{ACAD_REACTORS
330
6F
102
}
330
6F
100
AcDbScale
 70
     0
300
3/16" = 1'-0"
140
0.1875
141
12.0
290
     0
  0
SCALE
  5
88
102
{ACAD_REACTORS
330
6F
102
}
330
6F
100
AcDbScale
 70
     0
300
1/4" = 1'-0"
140
0.25
141
12.0
290
     0
  0
SCALE
  5
89
102
{ACAD_REACTORS
330
6F
102
}
330
6F
100
AcDbScale
 70
     0
300
3/8" = 1'-0"
140
0.375
141
12.0
290
     0
  0
SCALE
  5
8A
102
{ACAD_REACTORS
330
6F
102
}
330
6F
100
AcDbScale
 70
     0
300
1/2" = 1'-0"
140
0.5
141
12.0
290
     0
  0
SCALE
  5
8B
102
{ACAD_REACTORS
330
6F
102
}
330
6F
100
AcDbScale
 70
     0
300
3/4" = 1'-0"
140
0.75
141
12.0
290
     0
  0
SCALE
  5
8C
102
{ACAD_REACTORS
330
6F
102
}
330
6F
100
AcDbScale
 70
     0
300
1" = 1'-0"
140
1.0
141
12.0
290
     0
  0
SCALE
  5
8D
102
{ACAD_REACTORS
330
6F
102
}
330
6F
100
AcDbScale
 70
     0
300
1-1/2" = 1'-0"
140
1.5
141
12.0
290
     0
  0
SCALE
  5
8E
102
{ACAD_REACTORS
330
6F
102
}
330
6F
100
AcDbScale
 70
     0
300
3" = 1'-0"
140
3.0
141
12.0
290
     0
  0
SCALE
  5
8F
102
{ACAD_REACTORS
330
6F
102
}
330
6F
100
AcDbScale
 70
     0
300
6" = 1'-0"
140
6.0
141
12.0
290
     0
  0
SCALE
  5
90
102
{ACAD_REACTORS
330
6F
102
}
330
6F
100
AcDbScale
 70
     0
300
1'-0" = 1'-0"
140
12.0
141
12.0
290
     0
  0
VISUALSTYLE
  5
5B
102
{ACAD_REACTORS
330
56
102
}
102
{ACAD_XDICTIONARY
360
429
102
}
330
56
100
AcDbVisualStyle
  2
2dWireframe
 70
     4
 71
     0
 72
     2
 73
     0
 90
        0
 40
0.6
 41
30.0
 62
     5
 63
     7
421
 16777215
 74
     1
 91
        4
 64
     7
 65
   257
 75
     1
175
     1
 42
1.0
 92
        0
 66
   257
 43
1.0
 76
     1
 77
     6
 78
     2
 67
     7
 79
     5
170
     0
171
     0
290
     0
174
     0
 93
        1
 44
0.0
173
     0
291
     0
 45
0.0
1001
ACAD
1000
AcDbSavedByObjectVersion
1070
     0
  0
VISUALSTYLE
  5
5E
102
{ACAD_REACTORS
330
56
102
}
102
{ACAD_XDICTIONARY
360
42F
102
}
330
56
100
AcDbVisualStyle
  2
Basic
 70
     7
 71
     1
 72
     0
 73
     1
 90
        0
 40
0.6
 41
30.0
 62
     5
 63
     7
421
 16777215
 74
     0
 91
        4
 64
     7
 65
   257
 75
     1
175
     1
 42
1.0
 92
        8
 66
     7
 43
1.0
 76
     1
 77
     6
 78
     2
 67
     7
 79
     5
170
     0
171
     0
290
     0
174
     0
 93
        1
 44
0.0
173
     0
291
     1
 45
0.0
1001
ACAD
1000
AcDbSavedByObjectVersion
1070
     0
  0
VISUALSTYLE
  5
62
102
{ACAD_REACTORS
330
56
102
}
102
{ACAD_XDICTIONARY
360
437
102
}
330
56
100
AcDbVisualStyle
  2
Brighten
 70
    12
 71
     2
 72
     2
 73
     0
 90
        0
 40
0.6
 41
30.0
 62
     5
 63
     7
421
 16777215
 74
     1
 91
        4
 64
     7
 65
   257
 75
     1
175
     1
 42
1.0
 92
        8
 66
     7
 43
1.0
 76
     1
 77
     6
 78
     2
 67
     7
 79
     5
170
     0
171
     0
290
     0
174
     0
 93
        1
 44
50.0
173
     0
291
     1
 45
0.0
1001
ACAD
1000
AcDbSavedByObjectVersion
1070
     0
  0
VISUALSTYLE
  5
66
102
{ACAD_REACTORS
330
56
102
}
102
{ACAD_XDICTIONARY
360
43F
102
}
330
56
100
AcDbVisualStyle
  2
ColorChange
 70
    16
 71
     2
 72
     2
 73
     3
 90
        0
 40
0.6
 41
30.0
 62
     5
 63
     8
421
  8421504
 74
     1
 91
        4
 64
     7
 65
   257
 75
     1
175
     1
 42
1.0
 92
        8
 66
     8
424
  8421504
 43
1.0
 76
     1
 77
     6
 78
     2
 67
     7
 79
     5
170
     0
171
     0
290
     0
174
     0
 93
        1
 44
0.0
173
     0
291
     1
 45
0.0
1001
ACAD
1000
AcDbSavedByObjectVersion
1070
     0
  0
VISUALSTYLE
  5
60
102
{ACAD_REACTORS
330
56
102
}
102
{ACAD_XDICTIONARY
360
433
102
}
330
56
100
AcDbVisualStyle
  2
Conceptual
 70
     9
 71
     3
 72
     2
 73
     0
 90
        0
 40
0.6
 41
30.0
 62
     5
 63
     7
421
 16777215
 74
     2
 91
        2
 64
     7
 65
   257
 75
     1
175
     1
 42
179.0
 92
        8
 66
     7
 43
1.0
 76
     1
 77
     6
 78
     2
 67
     7
 79
     3
170
     0
171
     0
290
     0
174
     0
 93
        1
 44
0.0
173
     0
291
     0
 45
0.0
1001
ACAD
1000
AcDbSavedByObjectVersion
1070
     0
  0
VISUALSTYLE
  5
61
102
{ACAD_REACTORS
330
56
102
}
102
{ACAD_XDICTIONARY
360
435
102
}
330
56
100
AcDbVisualStyle
  2
Dim
 70
    11
 71
     2
 72
     2
 73
     0
 90
        0
 40
0.6
 41
30.0
 62
     5
 63
     7
421
 16777215
 74
     1
 91
        4
 64
     7
 65
   257
 75
     1
175
     1
 42
1.0
 92
        8
 66
     7
 43
1.0
 76
     1
 77
     6
 78
     2
 67
     7
 79
     5
170
     0
171
     0
290
     0
174
     0
 93
        1
 44
-50.0
173
     0
291
     1
 45
0.0
1001
ACAD
1000
AcDbSavedByObjectVersion
1070
     0
  0
VISUALSTYLE
  5
69
102
{ACAD_REACTORS
330
56
102
}
102
{ACAD_XDICTIONARY
360
445
102
}
330
56
100
AcDbVisualStyle
  2
EdgeColorOff
 70
    22
 71
     2
 72
     2
 73
     0
 90
        0
 40
0.6
 41
30.0
 62
     5
 63
     7
421
 16777215
 74
     1
 91
        4
 64
     7
 65
   257
 75
     1
175
     1
 42
1.0
 92
        8
 66
     7
 43
1.0
 76
     1
 77
     6
 78
     2
 67
     7
 79
     5
170
     0
171
     0
290
     0
174
     0
 93
        1
 44
0.0
173
     0
291
     1
 45
0.0
1001
ACAD
1000
AcDbSavedByObjectVersion
1070
     0
  0
VISUALSTYLE
  5
65
102
{ACAD_REACTORS
330
56
102
}
102
{ACAD_XDICTIONARY
360
43D
102
}
330
56
100
AcDbVisualStyle
  2
Facepattern
 70
    15
 71
     2
 72
     2
 73
     0
 90
        0
 40
0.6
 41
30.0
 62
     5
 63
     7
421
 16777215
 74
     1
 91
        4
 64
     7
 65
   257
 75
     1
175
     1
 42
1.0
 92
        8
 66
     7
 43
1.0
 76
     1
 77
     6
 78
     2
 67
     7
 79
     5
170
     0
171
     0
290
     0
174
     0
 93
        1
 44
0.0
173
     0
291
     1
 45
0.0
1001
ACAD
1000
AcDbSavedByObjectVersion
1070
     0
  0
VISUALSTYLE
  5
57
102
{ACAD_REACTORS
330
56
102
}
102
{ACAD_XDICTIONARY
360
421
102
}
330
56
100
AcDbVisualStyle
  2
Flat
 70
     0
 71
     2
 72
     1
 73
     1
 90
        2
 40
0.6
 41
30.0
 62
     5
 63
     7
421
 16777215
 74
     0
 91
        0
 64
     7
 65
   257
 75
     1
175
     1
 42
1.0
 92
        8
 66
     7
 43
1.0
 76
     1
 77
     6
 78
     2
 67
     7
 79
     5
170
     0
171
     0
290
     0
174
     0
 93
       13
 44
0.0
173
     0
291
     1
 45
0.0
1001
ACAD
1000
AcDbSavedByObjectVersion
1070
     0
  0
VISUALSTYLE
  5
58
102
{ACAD_REACTORS
330
56
102
}
102
{ACAD_XDICTIONARY
360
423
102
}
330
56
100
AcDbVisualStyle
  2
FlatWithEdges
 70
     1
 71
     2
 72
     1
 73
     1
 90
        2
 40
0.6
 41
30.0
 62
     5
 63
     7
421
 16777215
 74
     1
 91
        0
 64
     7
 65
   257
 75
     1
175
     1
 42
1.0
 92
        0
 66
   257
 43
1.0
 76
     1
 77
     6
 78
     2
 67
     7
 79
     5
170
     0
171
     0
290
     0
174
     0
 93
       13
 44
0.0
173
     0
291
     1
 45
0.0
1001
ACAD
1000
AcDbSavedByObjectVersion
1070
     0
  0
VISUALSTYLE
  5
59
102
{ACAD_REACTORS
330
56
102
}
102
{ACAD_XDICTIONARY
360
425
102
}
330
56
100
AcDbVisualStyle
  2
Gouraud
 70
     2
 71
     2
 72
     2
 73
     1
 90
        2
 40
0.6
 41
30.0
 62
     5
 63
     7
421
 16777215
 74
     0
 91
        0
 64
     7
 65
   257
 75
     1
175
     1
 42
1.0
 92
        0
 66
     7
 43
1.0
 76
     1
 77
     6
 78
     2
 67
     7
 79
     5
170
     0
171
     0
290
     0
174
     0
 93
       13
 44
0.0
173
     0
291
     1
 45
0.0
1001
ACAD
1000
AcDbSavedByObjectVersion
1070
     0
  0
VISUALSTYLE
  5
5A
102
{ACAD_REACTORS
330
56
102
}
102
{ACAD_XDICTIONARY
360
427
102
}
330
56
100
AcDbVisualStyle
  2
GouraudWithEdges
 70
     3
 71
     2
 72
     2
 73
     1
 90
        2
 40
0.6
 41
30.0
 62
     5
 63
     7
421
 16777215
 74
     1
 91
        0
 64
     7
 65
   257
 75
     1
175
     1
 42
1.0
 92
        0
 66
   257
 43
1.0
 76
     1
 77
     6
 78
     2
 67
     7
 79
     5
170
     0
171
     0
290
     0
174
     0
 93
       13
 44
0.0
173
     0
291
     1
 45
0.0
1001
ACAD
1000
AcDbSavedByObjectVersion
1070
     0
  0
VISUALSTYLE
  5
5D
102
{ACAD_REACTORS
330
56
102
}
102
{ACAD_XDICTIONARY
360
42D
102
}
330
56
100
AcDbVisualStyle
  2
Hidden
 70
     6
 71
     1
 72
     2
 73
     2
 90
        0
 40
0.6
 41
30.0
 62
     5
 63
     7
421
 16777215
 74
     2
 91
        2
 64
     7
 65
   257
 75
     2
175
     1
 42
40.0
 92
        0
 66
   257
 43
1.0
 76
     1
 77
     6
 78
     2
 67
     7
 79
     3
170
     0
171
     0
290
     0
174
     0
 93
        1
 44
0.0
173
     0
291
     0
 45
0.0
1001
ACAD
1000
AcDbSavedByObjectVersion
1070
     0
  0
VISUALSTYLE
  5
67
102
{ACAD_REACTORS
330
56
102
}
102
{ACAD_XDICTIONARY
360
441
102
}
330
56
100
AcDbVisualStyle
  2
JitterOff
 70
    20
 71
     2
 72
     2
 73
     0
 90
        0
 40
0.6
 41
30.0
 62
     5
 63
     7
421
 16777215
 74
     1
 91
        4
 64
     7
 65
   257
 75
     1
175
     1
 42
1.0
 92
       10
 66
     7
 43
1.0
 76
     1
 77
     6
 78
     2
 67
     7
 79
     5
170
     0
171
     0
290
     0
174
     0
 93
        1
 44
0.0
173
     0
291
     1
 45
0.0
1001
ACAD
1000
AcDbSavedByObjectVersion
1070
     0
  0
VISUALSTYLE
  5
64
102
{ACAD_REACTORS
330
56
102
}
102
{ACAD_XDICTIONARY
360
43B
102
}
330
56
100
AcDbVisualStyle
  2
Linepattern
 70
    14
 71
     2
 72
     2
 73
     0
 90
        0
 40
0.6
 41
30.0
 62
     5
 63
     7
421
 16777215
 74
     1
 91
        4
 64
     7
 65
   257
 75
     7
175
     7
 42
1.0
 92
        8
 66
     7
 43
1.0
 76
     1
 77
     6
 78
     2
 67
     7
 79
     5
170
     0
171
     0
290
     0
174
     0
 93
        1
 44
0.0
173
     0
291
     1
 45
0.0
1001
ACAD
1000
AcDbSavedByObjectVersion
1070
     0
  0
VISUALSTYLE
  5
68
102
{ACAD_REACTORS
330
56
102
}
102
{ACAD_XDICTIONARY
360
443
102
}
330
56
100
AcDbVisualStyle
  2
OverhangOff
 70
    21
 71
     2
 72
     2
 73
     0
 90
        0
 40
0.6
 41
30.0
 62
     5
 63
     7
421
 16777215
 74
     1
 91
        4
 64
     7
 65
   257
 75
     1
175
     1
 42
1.0
 92
        9
 66
     7
 43
1.0
 76
     1
 77
     6
 78
     2
 67
     7
 79
     5
170
     0
171
     0
290
     0
174
     0
 93
        1
 44
0.0
173
     0
291
     1
 45
0.0
1001
ACAD
1000
AcDbSavedByObjectVersion
1070
     0
  0
VISUALSTYLE
  5
5F
102
{ACAD_REACTORS
330
56
102
}
102
{ACAD_XDICTIONARY
360
431
102
}
330
56
100
AcDbVisualStyle
  2
Realistic
 70
     8
 71
     2
 72
     3
 73
     0
 90
        2
 40
0.6
 41
30.0
 62
     5
 63
     7
421
 16777215
 74
     0
 91
        0
 64
     7
 65
   257
 75
     1
175
     1
 42
1.0
 92
        8
 66
   257
 43
1.0
 76
     1
 77
     6
 78
     2
 67
     7
 79
     3
170
     0
171
     0
290
     0
174
     0
 93
       13
 44
0.0
173
     0
291
     0
 45
0.0
1001
ACAD
1000
AcDbSavedByObjectVersion
1070
     0
  0
VISUALSTYLE
  5
6E
102
{ACAD_REACTORS
330
56
102
}
102
{ACAD_XDICTIONARY
360
44F
102
}
330
56
100
AcDbVisualStyle
  2
Shaded
 70
    27
 71
     2
 72
     2
 73
     1
 90
        2
 40
0.6
 41
30.0
 62
     5
 63
     7
421
 16777215
 74
     0
 91
        4
 64
     7
 65
   257
 75
     1
175
     1
 42
1.0
 92
        8
 66
   257
 43
1.0
 76
     1
 77
     6
 78
     2
 67
     8
425
  7895160
 79
     3
170
     0
171
     0
290
     0
174
     0
 93
        5
 44
0.0
173
     0
291
     0
 45
0.0
1001
ACAD
1000
AcDbSavedByObjectVersion
1070
     0
  0
VISUALSTYLE
  5
6D
102
{ACAD_REACTORS
330
56
102
}
102
{ACAD_XDICTIONARY
360
44D
102
}
330
56
100
AcDbVisualStyle
  2
Shaded with edges
 70
    26
 71
     2
 72
     2
 73
     1
 90
        2
 40
0.6
 41
30.0
 62
     5
 63
     7
421
 16777215
 74
     1
 91
       10
 64
     7
 65
   257
 75
     2
175
     1
 42
1.0
 92
        8
 66
   257
 43
1.0
 76
     1
 77
     6
 78
     2
 67
     7
 79
     3
170
     0
171
     0
290
     0
174
     0
 93
        5
 44
0.0
173
     0
291
     0
 45
0.0
1001
ACAD
1000
AcDbSavedByObjectVersion
1070
     0
  0
VISUALSTYLE
  5
6A
102
{ACAD_REACTORS
330
56
102
}
102
{ACAD_XDICTIONARY
360
447
102
}
330
56
100
AcDbVisualStyle
  2
Shades of Gray
 70
    23
 71
     2
 72
     2
 73
     3
 90
        0
 40
0.6
 41
30.0
 62
     5
 63
     7
421
 16777215
 74
     2
 91
        2
 64
     7
 65
     7
 75
     1
175
     1
 42
40.0
 92
        8
 66
     7
 43
1.0
 76
     1
 77
     6
 78
     2
 67
     7
 79
     3
170
     0
171
     0
290
     0
174
     0
 93
        1
 44
0.0
173
     0
291
     0
 45
0.0
1001
ACAD
1000
AcDbSavedByObjectVersion
1070
     0
  0
VISUALSTYLE
  5
6B
102
{ACAD_REACTORS
330
56
102
}
102
{ACAD_XDICTIONARY
360
449
102
}
330
56
100
AcDbVisualStyle
  2
Sketchy
 70
    24
 71
     1
 72
     2
 73
     2
 90
        0
 40
0.6
 41
30.0
 62
     5
 63
     7
421
 16777215
 74
     2
 91
        2
 64
     7
 65
     7
 75
     1
175
     1
 42
40.0
 92
       11
 66
     7
 43
1.0
 76
     1
 77
     6
 78
     2
 67
     7
 79
     6
170
     0
171
     0
290
     0
174
     0
 93
        1
 44
0.0
173
     0
291
     0
 45
0.0
1001
ACAD
1000
AcDbSavedByObjectVersion
1070
     0
  0
VISUALSTYLE
  5
63
102
{ACAD_REACTORS
330
56
102
}
102
{ACAD_XDICTIONARY
360
439
102
}
330
56
100
AcDbVisualStyle
  2
Thicken
 70
    13
 71
     2
 72
     2
 73
     0
 90
        0
 40
0.6
 41
30.0
 62
     5
 63
     7
421
 16777215
 74
     1
 91
        4
 64
     7
 65
   257
 75
     1
175
     1
 42
1.0
 92
       12
 66
     7
 43
1.0
 76
     1
 77
     6
 78
     2
 67
     7
 79
     5
170
     0
171
     0
290
     0
174
     0
 93
        1
 44
0.0
173
     0
291
     1
 45
0.0
1001
ACAD
1000
AcDbSavedByObjectVersion
1070
     0
  0
VISUALSTYLE
  5
5C
102
{ACAD_REACTORS
330
56
102
}
102
{ACAD_XDICTIONARY
360
42B
102
}
330
56
100
AcDbVisualStyle
  2
Wireframe
 70
     5
 71
     0
 72
     2
 73
     0
 90
        0
 40
0.6
 41
30.0
 62
     5
 63
     7
421
 16777215
 74
     1
 91
        4
 64
     7
 65
   257
 75
     1
175
     1
 42
1.0
 92
        0
 66
   257
 43
1.0
 76
     1
 77
     6
 78
     2
 67
     7
 79
     3
170
     0
171
     0
290
     0
174
     0
 93
        1
 44
0.0
173
     0
291
     0
 45
0.0
1001
ACAD
1000
AcDbSavedByObjectVersion
1070
     0
  0
VISUALSTYLE
  5
6C
102
{ACAD_REACTORS
330
56
102
}
102
{ACAD_XDICTIONARY
360
44B
102
}
330
56
100
AcDbVisualStyle
  2
X-Ray
 70
    25
 71
     2
 72
     2
 73
     1
 90
        1
 40
0.5
 41
30.0
 62
     5
 63
     7
421
 16777215
 74
     1
 91
        0
 64
     7
 65
   257
 75
     1
175
     1
 42
1.0
 92
        8
 66
     7
 43
1.0
 76
     1
 77
     6
 78
     2
 67
     7
 79
     3
170
     0
171
     0
290
     0
174
     0
 93
       13
 44
0.0
173
     0
291
     0
 45
0.0
1001
ACAD
1000
AcDbSavedByObjectVersion
1070
     0
  0
DICTIONARYVAR
  5
420
102
{ACAD_REACTORS
330
4E
102
}
330
4E
100
DictionaryVariables
280
     0
  1
1:1
  0
DICTIONARYVAR
  5
4F
102
{ACAD_REACTORS
330
4E
102
}
330
4E
100
DictionaryVariables
280
     0
  1
1
  0
DICTIONARYVAR
  5
459
102
{ACAD_REACTORS
330
4E
102
}
330
4E
100
DictionaryVariables
280
     0
  1
0
  0
DICTIONARY
  5
453
330
93
100
AcDbDictionary
280
     1
281
     1
  3
ACAD_XREC_ROUNDTRIP
360
454
  0
DICTIONARY
  5
451
330
92
100
AcDbDictionary
280
     1
281
     1
  3
ACAD_XREC_ROUNDTRIP
360
452
  0
DICTIONARY
  5
455
330
94
100
AcDbDictionary
280
     1
281
     1
  3
ACAD_XREC_ROUNDTRIP
360
456
  0
DICTIONARY
  5
429
330
5B
100
AcDbDictionary
280
     1
281
     1
  3
ACAD_XREC_ROUNDTRIP
360
42A
  0
DICTIONARY
  5
42F
330
5E
100
AcDbDictionary
280
     1
281
     1
  3
ACAD_XREC_ROUNDTRIP
360
430
  0
DICTIONARY
  5
437
330
62
100
AcDbDictionary
280
     1
281
     1
  3
ACAD_XREC_ROUNDTRIP
360
438
  0
DICTIONARY
  5
43F
330
66
100
AcDbDictionary
280
     1
281
     1
  3
ACAD_XREC_ROUNDTRIP
360
440
  0
DICTIONARY
  5
433
330
60
100
AcDbDictionary
280
     1
281
     1
  3
ACAD_XREC_ROUNDTRIP
360
434
  0
DICTIONARY
  5
435
330
61
100
AcDbDictionary
280
     1
281
     1
  3
ACAD_XREC_ROUNDTRIP
360
436
  0
DICTIONARY
  5
445
330
69
100
AcDbDictionary
280
     1
281
     1
  3
ACAD_XREC_ROUNDTRIP
360
446
  0
DICTIONARY
  5
43D
330
65
100
AcDbDictionary
280
     1
281
     1
  3
ACAD_XREC_ROUNDTRIP
360
43E
  0
DICTIONARY
  5
421
330
57
100
AcDbDictionary
280
     1
281
     1
  3
ACAD_XREC_ROUNDTRIP
360
422
  0
DICTIONARY
  5
423
330
58
100
AcDbDictionary
280
     1
281
     1
  3
ACAD_XREC_ROUNDTRIP
360
424
  0
DICTIONARY
  5
425
330
59
100
AcDbDictionary
280
     1
281
     1
  3
ACAD_XREC_ROUNDTRIP
360
426
  0
DICTIONARY
  5
427
330
5A
100
AcDbDictionary
280
     1
281
     1
  3
ACAD_XREC_ROUNDTRIP
360
428
  0
DICTIONARY
  5
42D
330
5D
100
AcDbDictionary
280
     1
281
     1
  3
ACAD_XREC_ROUNDTRIP
360
42E
  0
DICTIONARY
  5
441
330
67
100
AcDbDictionary
280
     1
281
     1
  3
ACAD_XREC_ROUNDTRIP
360
442
  0
DICTIONARY
  5
43B
330
64
100
AcDbDictionary
280
     1
281
     1
  3
ACAD_XREC_ROUNDTRIP
360
43C
  0
DICTIONARY
  5
443
330
68
100
AcDbDictionary
280
     1
281
     1
  3
ACAD_XREC_ROUNDTRIP
360
444
  0
DICTIONARY
  5
431
330
5F
100
AcDbDictionary
280
     1
281
     1
  3
ACAD_XREC_ROUNDTRIP
360
432
  0
DICTIONARY
  5
44F
330
6E
100
AcDbDictionary
280
     1
281
     1
  3
ACAD_XREC_ROUNDTRIP
360
450
  0
DICTIONARY
  5
44D
330
6D
100
AcDbDictionary
280
     1
281
     1
  3
ACAD_XREC_ROUNDTRIP
360
44E
  0
DICTIONARY
  5
447
330
6A
100
AcDbDictionary
280
     1
281
     1
  3
ACAD_XREC_ROUNDTRIP
360
448
  0
DICTIONARY
  5
449
330
6B
100
AcDbDictionary
280
     1
281
     1
  3
ACAD_XREC_ROUNDTRIP
360
44A
  0
DICTIONARY
  5
439
330
63
100
AcDbDictionary
280
     1
281
     1
  3
ACAD_XREC_ROUNDTRIP
360
43A
  0
DICTIONARY
  5
42B
330
5C
100
AcDbDictionary
280
     1
281
     1
  3
ACAD_XREC_ROUNDTRIP
360
42C
  0
DICTIONARY
  5
44B
330
6C
100
AcDbDictionary
280
     1
281
     1
  3
ACAD_XREC_ROUNDTRIP
360
44C
  0
XRECORD
  5
454
102
{ACAD_REACTORS
330
453
102
}
330
453
100
AcDbXrecord
280
     1
102
MATERIAL
148
0.0
149
0.0
149
0.0
 93
        0
 94
      127
282
     0
 72
     1
 77
     1
171
     1
175
     1
179
     1
273
     0
  0
XRECORD
  5
452
102
{ACAD_REACTORS
330
451
102
}
330
451
100
AcDbXrecord
280
     1
102
MATERIAL
148
0.0
149
0.0
149
0.0
 93
        0
 94
      127
282
     0
 72
     1
 77
     1
171
     1
175
     1
179
     1
273
     0
  0
XRECORD
  5
456
102
{ACAD_REACTORS
330
455
102
}
330
455
100
AcDbXrecord
280
     1
102
MATERIAL
148
0.0
149
0.0
149
0.0
 93
        0
 94
      127
282
     0
 72
     1
 77
     1
171
     1
175
     1
179
     1
273
     0
  0
XRECORD
  5
42A
102
{ACAD_REACTORS
330
429
102
}
330
429
100
AcDbXrecord
280
     1
102
RTVSPropertyOp0
 70
     1
102
RTVSPropertyOp1
 70
     1
102
RTVSPropertyOp2
 70
     1
102
RTVSPropertyOp3
 70
     1
102
RTVSPropertyOp4
 70
     1
102
RTVSPropertyOp5
 70
     1
102
RTVSPropertyOp6
 70
     1
102
RTVSPropertyOp7
 70
     1
102
RTVSPropertyOp8
 70
     1
102
RTVSPropertyOp9
 70
     1
102
RTVSPropertyOp10
 70
     1
102
RTVSPropertyOp11
 70
     1
102
RTVSPropertyOp12
 70
     1
102
RTVSPropertyOp13
 70
     1
102
RTVSPropertyOp14
 70
     1
102
RTVSPropertyOp15
 70
     1
102
RTVSPropertyOp16
 70
     1
102
RTVSPropertyOp17
 70
     1
102
RTVSPropertyOp18
 70
     1
102
RTVSPropertyOp19
 70
     1
102
RTVSPropertyOp20
 70
     1
102
RTVSPropertyOp21
 70
     1
102
RTVSPropertyOp22
 70
     1
102
RTVSPropertyOp23
 70
     1
102
RTVSPropertyOp24
 70
     1
102
RTVSPropertyOp25
 70
     1
102
RTVSPropertyOp26
 70
     1
102
RTVSPropertyOp27
 70
     1
102
RTVSPropertyOp28
 70
     1
102
RTVSPropertyOp29
 70
     1
102
RTVSPropertyOp30
 70
     1
102
RTVSPropertyOp31
 70
     1
102
RTVSPropertyOp32
 70
     1
102
RTVSPropertyOp33
 70
     1
102
RTVSPropertyOp34
 70
     1
102
RTVSPropertyOp35
 70
     1
102
RTVSPropertyOp36
 70
     1
102
RTVSPropertyOp37
 70
     1
102
RTVSPropertyOp38
 70
     1
102
RTVSPropertyOp39
 70
     1
102
RTVSPropertyOp40
 70
     1
102
RTVSPropertyOp41
 70
     1
102
RTVSPropertyOp42
 70
     1
102
RTVSPropertyOp43
 70
     1
102
RTVSPropertyOp44
 70
     1
102
RTVSPropertyOp45
 70
     1
102
RTVSPropertyOp46
 70
     1
102
RTVSPropertyOp47
 70
     1
102
RTVSPropertyOp48
 70
     1
102
RTVSPropertyOp49
 70
     1
102
RTVSPropertyOp50
 70
     1
102
RTVSPropertyOp51
 70
     0
102
RTVSPropertyOp52
 70
     0
102
RTVSPropertyOp53
 70
     1
102
RTVSPropertyOp54
 70
     1
102
RTVSPropertyOp55
 70
     1
102
RTVSPropertyOp56
 70
     1
102
RTVSPropertyOp57
 70
     1
102
RTVSPost2010Prop28
280
     1
102
RTVSPost2010PropOp28
 70
     1
102
RTVSPost2010Prop29
280
     1
102
RTVSPost2010PropOp29
 70
     1
102
RTVSPost2010Prop30
280
     0
102
RTVSPost2010PropOp30
 70
     1
102
RTVSPost2010Prop31
280
     0
102
RTVSPost2010PropOp31
 70
     1
102
RTVSPost2010Prop32
280
     0
102
RTVSPost2010PropOp32
 70
     1
102
RTVSPost2010Prop33
280
     0
102
RTVSPost2010PropOp33
 70
     1
102
RTVSPost2010Prop34
280
     0
102
RTVSPost2010PropOp34
 70
     1
102
RTVSPost2010Prop35
280
     0
102
RTVSPost2010PropOp35
 70
     1
102
RTVSPost2010Prop36
280
     0
102
RTVSPost2010PropOp36
 70
     1
102
RTVSPost2010Prop37
 90
       50
102
RTVSPost2010PropOp37
 70
     1
102
RTVSPost2010Prop38
140
0.0
102
RTVSPost2010PropOp38
 70
     1
102
RTVSPost2010Prop39
140
1.0
102
RTVSPost2010PropOp39
 70
     1
102
RTVSPost2010Prop40
 90
        0
102
RTVSPost2010PropOp40
 70
     1
102
RTVSPost2010Prop41ColorIndex
 90
       18
102
RTVSPost2010Prop41ColorRGB
 90
        0
102
RTVSPost2010PropOp41
 70
     1
102
RTVSPost2010Prop42
 90
       50
102
RTVSPost2010PropOp42
 70
     1
102
RTVSPost2010Prop43
 90
        3
102
RTVSPost2010PropOp43
 70
     1
102
RTVSPost2010Prop44ColorIndex
 90
        5
102
RTVSPost2010Prop44ColorRGB
 90
      255
102
RTVSPost2010PropOp44
 70
     1
102
RTVSPost2010Prop45
280
     0
102
RTVSPost2010PropOp45
 70
     1
102
RTVSPost2010Prop46
 90
       50
102
RTVSPost2010PropOp46
 70
     1
102
RTVSPost2010Prop47
 90
       50
102
RTVSPost2010PropOp47
 70
     1
102
RTVSPost2010Prop48
 90
       50
102
RTVSPost2010PropOp48
 70
     1
102
RTVSPost2010Prop49
280
     0
102
RTVSPost2010PropOp49
 70
     1
102
RTVSPost2010Prop50
 90
       50
102
RTVSPost2010PropOp50
 70
     1
102
RTVSPost2010Prop51ColorIndex
 90
      256
102
RTVSPost2010Prop51ColorRGB
 90
-16777216
102
RTVSPost2010PropOp51
 70
     0
102
RTVSPost2010Prop52
140
1.0
102
RTVSPost2010PropOp52
 70
     0
102
RTVSPost2010Prop53
 90
        2
102
RTVSPost2010PropOp53
 70
     1
102
RTVSPost2010Prop54
  1
strokes_ogs.tif
102
RTVSPost2010PropOp54
 70
     1
102
RTVSPost2010Prop55
280
     0
102
RTVSPost2010PropOp55
 70
     1
102
RTVSPost2010Prop56
140
1.0
102
RTVSPost2010PropOp56
 70
     1
102
RTVSPost2010Prop57
140
1.0
102
RTVSPost2010PropOp57
 70
     1
  0
XRECORD
  5
430
102
{ACAD_REACTORS
330
42F
102
}
330
42F
100
AcDbXrecord
280
     1
102
RTVSPropertyOp0
 70
     1
102
RTVSPropertyOp1
 70
     1
102
RTVSPropertyOp2
 70
     1
102
RTVSPropertyOp3
 70
     1
102
RTVSPropertyOp4
 70
     1
102
RTVSPropertyOp5
 70
     1
102
RTVSPropertyOp6
 70
     1
102
RTVSPropertyOp7
 70
     1
102
RTVSPropertyOp8
 70
     1
102
RTVSPropertyOp9
 70
     1
102
RTVSPropertyOp10
 70
     1
102
RTVSPropertyOp11
 70
     1
102
RTVSPropertyOp12
 70
     1
102
RTVSPropertyOp13
 70
     1
102
RTVSPropertyOp14
 70
     1
102
RTVSPropertyOp15
 70
     1
102
RTVSPropertyOp16
 70
     1
102
RTVSPropertyOp17
 70
     1
102
RTVSPropertyOp18
 70
     1
102
RTVSPropertyOp19
 70
     1
102
RTVSPropertyOp20
 70
     1
102
RTVSPropertyOp21
 70
     1
102
RTVSPropertyOp22
 70
     1
102
RTVSPropertyOp23
 70
     1
102
RTVSPropertyOp24
 70
     1
102
RTVSPropertyOp25
 70
     1
102
RTVSPropertyOp26
 70
     1
102
RTVSPropertyOp27
 70
     1
102
RTVSPropertyOp28
 70
     1
102
RTVSPropertyOp29
 70
     1
102
RTVSPropertyOp30
 70
     1
102
RTVSPropertyOp31
 70
     1
102
RTVSPropertyOp32
 70
     1
102
RTVSPropertyOp33
 70
     1
102
RTVSPropertyOp34
 70
     1
102
RTVSPropertyOp35
 70
     1
102
RTVSPropertyOp36
 70
     1
102
RTVSPropertyOp37
 70
     1
102
RTVSPropertyOp38
 70
     1
102
RTVSPropertyOp39
 70
     1
102
RTVSPropertyOp40
 70
     1
102
RTVSPropertyOp41
 70
     1
102
RTVSPropertyOp42
 70
     1
102
RTVSPropertyOp43
 70
     1
102
RTVSPropertyOp44
 70
     1
102
RTVSPropertyOp45
 70
     1
102
RTVSPropertyOp46
 70
     1
102
RTVSPropertyOp47
 70
     1
102
RTVSPropertyOp48
 70
     1
102
RTVSPropertyOp49
 70
     1
102
RTVSPropertyOp50
 70
     1
102
RTVSPropertyOp51
 70
     0
102
RTVSPropertyOp52
 70
     0
102
RTVSPropertyOp53
 70
     1
102
RTVSPropertyOp54
 70
     1
102
RTVSPropertyOp55
 70
     1
102
RTVSPropertyOp56
 70
     1
102
RTVSPropertyOp57
 70
     1
102
RTVSPost2010Prop28
280
     0
102
RTVSPost2010PropOp28
 70
     1
102
RTVSPost2010Prop29
280
     1
102
RTVSPost2010PropOp29
 70
     1
102
RTVSPost2010Prop30
280
     1
102
RTVSPost2010PropOp30
 70
     1
102
RTVSPost2010Prop31
280
     0
102
RTVSPost2010PropOp31
 70
     1
102
RTVSPost2010Prop32
280
     0
102
RTVSPost2010PropOp32
 70
     1
102
RTVSPost2010Prop33
280
     0
102
RTVSPost2010PropOp33
 70
     1
102
RTVSPost2010Prop34
280
     0
102
RTVSPost2010PropOp34
 70
     1
102
RTVSPost2010Prop35
280
     0
102
RTVSPost2010PropOp35
 70
     1
102
RTVSPost2010Prop36
280
     0
102
RTVSPost2010PropOp36
 70
     1
102
RTVSPost2010Prop37
 90
       50
102
RTVSPost2010PropOp37
 70
     1
102
RTVSPost2010Prop38
140
0.0
102
RTVSPost2010PropOp38
 70
     1
102
RTVSPost2010Prop39
140
1.0
102
RTVSPost2010PropOp39
 70
     1
102
RTVSPost2010Prop40
 90
        0
102
RTVSPost2010PropOp40
 70
     1
102
RTVSPost2010Prop41ColorIndex
 90
       18
102
RTVSPost2010Prop41ColorRGB
 90
        0
102
RTVSPost2010PropOp41
 70
     1
102
RTVSPost2010Prop42
 90
       50
102
RTVSPost2010PropOp42
 70
     1
102
RTVSPost2010Prop43
 90
        3
102
RTVSPost2010PropOp43
 70
     1
102
RTVSPost2010Prop44ColorIndex
 90
        5
102
RTVSPost2010Prop44ColorRGB
 90
      255
102
RTVSPost2010PropOp44
 70
     1
102
RTVSPost2010Prop45
280
     0
102
RTVSPost2010PropOp45
 70
     1
102
RTVSPost2010Prop46
 90
       50
102
RTVSPost2010PropOp46
 70
     1
102
RTVSPost2010Prop47
 90
       50
102
RTVSPost2010PropOp47
 70
     1
102
RTVSPost2010Prop48
 90
       50
102
RTVSPost2010PropOp48
 70
     1
102
RTVSPost2010Prop49
280
     0
102
RTVSPost2010PropOp49
 70
     1
102
RTVSPost2010Prop50
 90
       50
102
RTVSPost2010PropOp50
 70
     1
102
RTVSPost2010Prop51ColorIndex
 90
      256
102
RTVSPost2010Prop51ColorRGB
 90
-16777216
102
RTVSPost2010PropOp51
 70
     0
102
RTVSPost2010Prop52
140
1.0
102
RTVSPost2010PropOp52
 70
     0
102
RTVSPost2010Prop53
 90
        2
102
RTVSPost2010PropOp53
 70
     1
102
RTVSPost2010Prop54
  1
strokes_ogs.tif
102
RTVSPost2010PropOp54
 70
     1
102
RTVSPost2010Prop55
280
     0
102
RTVSPost2010PropOp55
 70
     1
102
RTVSPost2010Prop56
140
1.0
102
RTVSPost2010PropOp56
 70
     1
102
RTVSPost2010Prop57
140
1.0
102
RTVSPost2010PropOp57
 70
     1
  0
XRECORD
  5
438
102
{ACAD_REACTORS
330
437
102
}
330
437
100
AcDbXrecord
280
     1
102
RTVSPropertyOp0
 70
     1
102
RTVSPropertyOp1
 70
     1
102
RTVSPropertyOp2
 70
     1
102
RTVSPropertyOp3
 70
     1
102
RTVSPropertyOp4
 70
     1
102
RTVSPropertyOp5
 70
     1
102
RTVSPropertyOp6
 70
     1
102
RTVSPropertyOp7
 70
     1
102
RTVSPropertyOp8
 70
     1
102
RTVSPropertyOp9
 70
     1
102
RTVSPropertyOp10
 70
     1
102
RTVSPropertyOp11
 70
     1
102
RTVSPropertyOp12
 70
     1
102
RTVSPropertyOp13
 70
     1
102
RTVSPropertyOp14
 70
     1
102
RTVSPropertyOp15
 70
     1
102
RTVSPropertyOp16
 70
     1
102
RTVSPropertyOp17
 70
     1
102
RTVSPropertyOp18
 70
     1
102
RTVSPropertyOp19
 70
     1
102
RTVSPropertyOp20
 70
     1
102
RTVSPropertyOp21
 70
     1
102
RTVSPropertyOp22
 70
     1
102
RTVSPropertyOp23
 70
     1
102
RTVSPropertyOp24
 70
     1
102
RTVSPropertyOp25
 70
     1
102
RTVSPropertyOp26
 70
     1
102
RTVSPropertyOp27
 70
     1
102
RTVSPropertyOp28
 70
     1
102
RTVSPropertyOp29
 70
     1
102
RTVSPropertyOp30
 70
     1
102
RTVSPropertyOp31
 70
     1
102
RTVSPropertyOp32
 70
     1
102
RTVSPropertyOp33
 70
     1
102
RTVSPropertyOp34
 70
     1
102
RTVSPropertyOp35
 70
     1
102
RTVSPropertyOp36
 70
     1
102
RTVSPropertyOp37
 70
     1
102
RTVSPropertyOp38
 70
     1
102
RTVSPropertyOp39
 70
     1
102
RTVSPropertyOp40
 70
     1
102
RTVSPropertyOp41
 70
     1
102
RTVSPropertyOp42
 70
     1
102
RTVSPropertyOp43
 70
     1
102
RTVSPropertyOp44
 70
     1
102
RTVSPropertyOp45
 70
     1
102
RTVSPropertyOp46
 70
     1
102
RTVSPropertyOp47
 70
     1
102
RTVSPropertyOp48
 70
     1
102
RTVSPropertyOp49
 70
     1
102
RTVSPropertyOp50
 70
     1
102
RTVSPropertyOp51
 70
     0
102
RTVSPropertyOp52
 70
     0
102
RTVSPropertyOp53
 70
     1
102
RTVSPropertyOp54
 70
     1
102
RTVSPropertyOp55
 70
     1
102
RTVSPropertyOp56
 70
     1
102
RTVSPropertyOp57
 70
     1
102
RTVSPost2010Prop28
280
     0
102
RTVSPost2010PropOp28
 70
     1
102
RTVSPost2010Prop29
280
     1
102
RTVSPost2010PropOp29
 70
     1
102
RTVSPost2010Prop30
280
     1
102
RTVSPost2010PropOp30
 70
     1
102
RTVSPost2010Prop31
280
     0
102
RTVSPost2010PropOp31
 70
     1
102
RTVSPost2010Prop32
280
     0
102
RTVSPost2010PropOp32
 70
     1
102
RTVSPost2010Prop33
280
     0
102
RTVSPost2010PropOp33
 70
     1
102
RTVSPost2010Prop34
280
     0
102
RTVSPost2010PropOp34
 70
     1
102
RTVSPost2010Prop35
280
     0
102
RTVSPost2010PropOp35
 70
     1
102
RTVSPost2010Prop36
280
     0
102
RTVSPost2010PropOp36
 70
     1
102
RTVSPost2010Prop37
 90
       50
102
RTVSPost2010PropOp37
 70
     1
102
RTVSPost2010Prop38
140
0.0
102
RTVSPost2010PropOp38
 70
     1
102
RTVSPost2010Prop39
140
1.0
102
RTVSPost2010PropOp39
 70
     1
102
RTVSPost2010Prop40
 90
        0
102
RTVSPost2010PropOp40
 70
     1
102
RTVSPost2010Prop41ColorIndex
 90
       18
102
RTVSPost2010Prop41ColorRGB
 90
        0
102
RTVSPost2010PropOp41
 70
     1
102
RTVSPost2010Prop42
 90
       50
102
RTVSPost2010PropOp42
 70
     1
102
RTVSPost2010Prop43
 90
        3
102
RTVSPost2010PropOp43
 70
     1
102
RTVSPost2010Prop44ColorIndex
 90
        5
102
RTVSPost2010Prop44ColorRGB
 90
      255
102
RTVSPost2010PropOp44
 70
     1
102
RTVSPost2010Prop45
280
     0
102
RTVSPost2010PropOp45
 70
     1
102
RTVSPost2010Prop46
 90
       50
102
RTVSPost2010PropOp46
 70
     1
102
RTVSPost2010Prop47
 90
       50
102
RTVSPost2010PropOp47
 70
     1
102
RTVSPost2010Prop48
 90
       50
102
RTVSPost2010PropOp48
 70
     1
102
RTVSPost2010Prop49
280
     0
102
RTVSPost2010PropOp49
 70
     1
102
RTVSPost2010Prop50
 90
       50
102
RTVSPost2010PropOp50
 70
     1
102
RTVSPost2010Prop51ColorIndex
 90
      256
102
RTVSPost2010Prop51ColorRGB
 90
-16777216
102
RTVSPost2010PropOp51
 70
     0
102
RTVSPost2010Prop52
140
1.0
102
RTVSPost2010PropOp52
 70
     0
102
RTVSPost2010Prop53
 90
        2
102
RTVSPost2010PropOp53
 70
     1
102
RTVSPost2010Prop54
  1
strokes_ogs.tif
102
RTVSPost2010PropOp54
 70
     1
102
RTVSPost2010Prop55
280
     0
102
RTVSPost2010PropOp55
 70
     1
102
RTVSPost2010Prop56
140
1.0
102
RTVSPost2010PropOp56
 70
     1
102
RTVSPost2010Prop57
140
1.0
102
RTVSPost2010PropOp57
 70
     1
  0
XRECORD
  5
440
102
{ACAD_REACTORS
330
43F
102
}
330
43F
100
AcDbXrecord
280
     1
102
RTVSPropertyOp0
 70
     1
102
RTVSPropertyOp1
 70
     1
102
RTVSPropertyOp2
 70
     1
102
RTVSPropertyOp3
 70
     1
102
RTVSPropertyOp4
 70
     1
102
RTVSPropertyOp5
 70
     1
102
RTVSPropertyOp6
 70
     1
102
RTVSPropertyOp7
 70
     1
102
RTVSPropertyOp8
 70
     1
102
RTVSPropertyOp9
 70
     1
102
RTVSPropertyOp10
 70
     1
102
RTVSPropertyOp11
 70
     1
102
RTVSPropertyOp12
 70
     1
102
RTVSPropertyOp13
 70
     1
102
RTVSPropertyOp14
 70
     1
102
RTVSPropertyOp15
 70
     1
102
RTVSPropertyOp16
 70
     1
102
RTVSPropertyOp17
 70
     1
102
RTVSPropertyOp18
 70
     1
102
RTVSPropertyOp19
 70
     1
102
RTVSPropertyOp20
 70
     1
102
RTVSPropertyOp21
 70
     1
102
RTVSPropertyOp22
 70
     1
102
RTVSPropertyOp23
 70
     1
102
RTVSPropertyOp24
 70
     1
102
RTVSPropertyOp25
 70
     1
102
RTVSPropertyOp26
 70
     1
102
RTVSPropertyOp27
 70
     1
102
RTVSPropertyOp28
 70
     1
102
RTVSPropertyOp29
 70
     1
102
RTVSPropertyOp30
 70
     1
102
RTVSPropertyOp31
 70
     1
102
RTVSPropertyOp32
 70
     1
102
RTVSPropertyOp33
 70
     1
102
RTVSPropertyOp34
 70
     1
102
RTVSPropertyOp35
 70
     1
102
RTVSPropertyOp36
 70
     1
102
RTVSPropertyOp37
 70
     1
102
RTVSPropertyOp38
 70
     1
102
RTVSPropertyOp39
 70
     1
102
RTVSPropertyOp40
 70
     1
102
RTVSPropertyOp41
 70
     1
102
RTVSPropertyOp42
 70
     1
102
RTVSPropertyOp43
 70
     1
102
RTVSPropertyOp44
 70
     1
102
RTVSPropertyOp45
 70
     1
102
RTVSPropertyOp46
 70
     1
102
RTVSPropertyOp47
 70
     1
102
RTVSPropertyOp48
 70
     1
102
RTVSPropertyOp49
 70
     1
102
RTVSPropertyOp50
 70
     1
102
RTVSPropertyOp51
 70
     0
102
RTVSPropertyOp52
 70
     0
102
RTVSPropertyOp53
 70
     1
102
RTVSPropertyOp54
 70
     1
102
RTVSPropertyOp55
 70
     1
102
RTVSPropertyOp56
 70
     1
102
RTVSPropertyOp57
 70
     1
102
RTVSPost2010Prop28
280
     0
102
RTVSPost2010PropOp28
 70
     1
102
RTVSPost2010Prop29
280
     1
102
RTVSPost2010PropOp29
 70
     1
102
RTVSPost2010Prop30
280
     1
102
RTVSPost2010PropOp30
 70
     1
102
RTVSPost2010Prop31
280
     0
102
RTVSPost2010PropOp31
 70
     1
102
RTVSPost2010Prop32
280
     0
102
RTVSPost2010PropOp32
 70
     1
102
RTVSPost2010Prop33
280
     0
102
RTVSPost2010PropOp33
 70
     1
102
RTVSPost2010Prop34
280
     0
102
RTVSPost2010PropOp34
 70
     1
102
RTVSPost2010Prop35
280
     0
102
RTVSPost2010PropOp35
 70
     1
102
RTVSPost2010Prop36
280
     0
102
RTVSPost2010PropOp36
 70
     1
102
RTVSPost2010Prop37
 90
       50
102
RTVSPost2010PropOp37
 70
     1
102
RTVSPost2010Prop38
140
0.0
102
RTVSPost2010PropOp38
 70
     1
102
RTVSPost2010Prop39
140
1.0
102
RTVSPost2010PropOp39
 70
     1
102
RTVSPost2010Prop40
 90
        0
102
RTVSPost2010PropOp40
 70
     1
102
RTVSPost2010Prop41ColorIndex
 90
       18
102
RTVSPost2010Prop41ColorRGB
 90
        0
102
RTVSPost2010PropOp41
 70
     1
102
RTVSPost2010Prop42
 90
       50
102
RTVSPost2010PropOp42
 70
     1
102
RTVSPost2010Prop43
 90
        3
102
RTVSPost2010PropOp43
 70
     1
102
RTVSPost2010Prop44ColorIndex
 90
        5
102
RTVSPost2010Prop44ColorRGB
 90
      255
102
RTVSPost2010PropOp44
 70
     1
102
RTVSPost2010Prop45
280
     0
102
RTVSPost2010PropOp45
 70
     1
102
RTVSPost2010Prop46
 90
       50
102
RTVSPost2010PropOp46
 70
     1
102
RTVSPost2010Prop47
 90
       50
102
RTVSPost2010PropOp47
 70
     1
102
RTVSPost2010Prop48
 90
       50
102
RTVSPost2010PropOp48
 70
     1
102
RTVSPost2010Prop49
280
     0
102
RTVSPost2010PropOp49
 70
     1
102
RTVSPost2010Prop50
 90
       50
102
RTVSPost2010PropOp50
 70
     1
102
RTVSPost2010Prop51ColorIndex
 90
      256
102
RTVSPost2010Prop51ColorRGB
 90
-16777216
102
RTVSPost2010PropOp51
 70
     0
102
RTVSPost2010Prop52
140
1.0
102
RTVSPost2010PropOp52
 70
     0
102
RTVSPost2010Prop53
 90
        2
102
RTVSPost2010PropOp53
 70
     1
102
RTVSPost2010Prop54
  1
strokes_ogs.tif
102
RTVSPost2010PropOp54
 70
     1
102
RTVSPost2010Prop55
280
     0
102
RTVSPost2010PropOp55
 70
     1
102
RTVSPost2010Prop56
140
1.0
102
RTVSPost2010PropOp56
 70
     1
102
RTVSPost2010Prop57
140
1.0
102
RTVSPost2010PropOp57
 70
     1
  0
XRECORD
  5
434
102
{ACAD_REACTORS
330
433
102
}
330
433
100
AcDbXrecord
280
     1
102
RTVSPropertyOp0
 70
     1
102
RTVSPropertyOp1
 70
     1
102
RTVSPropertyOp2
 70
     1
102
RTVSPropertyOp3
 70
     1
102
RTVSPropertyOp4
 70
     1
102
RTVSPropertyOp5
 70
     1
102
RTVSPropertyOp6
 70
     1
102
RTVSPropertyOp7
 70
     1
102
RTVSPropertyOp8
 70
     1
102
RTVSPropertyOp9
 70
     1
102
RTVSPropertyOp10
 70
     1
102
RTVSPropertyOp11
 70
     1
102
RTVSPropertyOp12
 70
     1
102
RTVSPropertyOp13
 70
     1
102
RTVSPropertyOp14
 70
     1
102
RTVSPropertyOp15
 70
     1
102
RTVSPropertyOp16
 70
     1
102
RTVSPropertyOp17
 70
     1
102
RTVSPropertyOp18
 70
     1
102
RTVSPropertyOp19
 70
     1
102
RTVSPropertyOp20
 70
     1
102
RTVSPropertyOp21
 70
     1
102
RTVSPropertyOp22
 70
     1
102
RTVSPropertyOp23
 70
     1
102
RTVSPropertyOp24
 70
     1
102
RTVSPropertyOp25
 70
     1
102
RTVSPropertyOp26
 70
     1
102
RTVSPropertyOp27
 70
     1
102
RTVSPropertyOp28
 70
     1
102
RTVSPropertyOp29
 70
     1
102
RTVSPropertyOp30
 70
     1
102
RTVSPropertyOp31
 70
     1
102
RTVSPropertyOp32
 70
     1
102
RTVSPropertyOp33
 70
     1
102
RTVSPropertyOp34
 70
     1
102
RTVSPropertyOp35
 70
     1
102
RTVSPropertyOp36
 70
     1
102
RTVSPropertyOp37
 70
     1
102
RTVSPropertyOp38
 70
     1
102
RTVSPropertyOp39
 70
     1
102
RTVSPropertyOp40
 70
     1
102
RTVSPropertyOp41
 70
     1
102
RTVSPropertyOp42
 70
     1
102
RTVSPropertyOp43
 70
     1
102
RTVSPropertyOp44
 70
     1
102
RTVSPropertyOp45
 70
     1
102
RTVSPropertyOp46
 70
     1
102
RTVSPropertyOp47
 70
     1
102
RTVSPropertyOp48
 70
     1
102
RTVSPropertyOp49
 70
     1
102
RTVSPropertyOp50
 70
     1
102
RTVSPropertyOp51
 70
     0
102
RTVSPropertyOp52
 70
     0
102
RTVSPropertyOp53
 70
     1
102
RTVSPropertyOp54
 70
     1
102
RTVSPropertyOp55
 70
     1
102
RTVSPropertyOp56
 70
     1
102
RTVSPropertyOp57
 70
     1
102
RTVSPost2010Prop28
280
     0
102
RTVSPost2010PropOp28
 70
     1
102
RTVSPost2010Prop29
280
     1
102
RTVSPost2010PropOp29
 70
     1
102
RTVSPost2010Prop30
280
     1
102
RTVSPost2010PropOp30
 70
     1
102
RTVSPost2010Prop31
280
     0
102
RTVSPost2010PropOp31
 70
     1
102
RTVSPost2010Prop32
280
     0
102
RTVSPost2010PropOp32
 70
     1
102
RTVSPost2010Prop33
280
     0
102
RTVSPost2010PropOp33
 70
     1
102
RTVSPost2010Prop34
280
     0
102
RTVSPost2010PropOp34
 70
     1
102
RTVSPost2010Prop35
280
     0
102
RTVSPost2010PropOp35
 70
     1
102
RTVSPost2010Prop36
280
     0
102
RTVSPost2010PropOp36
 70
     1
102
RTVSPost2010Prop37
 90
       50
102
RTVSPost2010PropOp37
 70
     1
102
RTVSPost2010Prop38
140
0.0
102
RTVSPost2010PropOp38
 70
     1
102
RTVSPost2010Prop39
140
1.0
102
RTVSPost2010PropOp39
 70
     1
102
RTVSPost2010Prop40
 90
        0
102
RTVSPost2010PropOp40
 70
     1
102
RTVSPost2010Prop41ColorIndex
 90
       18
102
RTVSPost2010Prop41ColorRGB
 90
        0
102
RTVSPost2010PropOp41
 70
     1
102
RTVSPost2010Prop42
 90
       50
102
RTVSPost2010PropOp42
 70
     1
102
RTVSPost2010Prop43
 90
        3
102
RTVSPost2010PropOp43
 70
     1
102
RTVSPost2010Prop44ColorIndex
 90
        5
102
RTVSPost2010Prop44ColorRGB
 90
      255
102
RTVSPost2010PropOp44
 70
     1
102
RTVSPost2010Prop45
280
     0
102
RTVSPost2010PropOp45
 70
     1
102
RTVSPost2010Prop46
 90
       50
102
RTVSPost2010PropOp46
 70
     1
102
RTVSPost2010Prop47
 90
       50
102
RTVSPost2010PropOp47
 70
     1
102
RTVSPost2010Prop48
 90
       50
102
RTVSPost2010PropOp48
 70
     1
102
RTVSPost2010Prop49
280
     0
102
RTVSPost2010PropOp49
 70
     1
102
RTVSPost2010Prop50
 90
       50
102
RTVSPost2010PropOp50
 70
     1
102
RTVSPost2010Prop51ColorIndex
 90
      256
102
RTVSPost2010Prop51ColorRGB
 90
-16777216
102
RTVSPost2010PropOp51
 70
     0
102
RTVSPost2010Prop52
140
1.0
102
RTVSPost2010PropOp52
 70
     0
102
RTVSPost2010Prop53
 90
        2
102
RTVSPost2010PropOp53
 70
     1
102
RTVSPost2010Prop54
  1
strokes_ogs.tif
102
RTVSPost2010PropOp54
 70
     1
102
RTVSPost2010Prop55
280
     0
102
RTVSPost2010PropOp55
 70
     1
102
RTVSPost2010Prop56
140
1.0
102
RTVSPost2010PropOp56
 70
     1
102
RTVSPost2010Prop57
140
1.0
102
RTVSPost2010PropOp57
 70
     1
  0
XRECORD
  5
436
102
{ACAD_REACTORS
330
435
102
}
330
435
100
AcDbXrecord
280
     1
102
RTVSPropertyOp0
 70
     1
102
RTVSPropertyOp1
 70
     1
102
RTVSPropertyOp2
 70
     1
102
RTVSPropertyOp3
 70
     1
102
RTVSPropertyOp4
 70
     1
102
RTVSPropertyOp5
 70
     1
102
RTVSPropertyOp6
 70
     1
102
RTVSPropertyOp7
 70
     1
102
RTVSPropertyOp8
 70
     1
102
RTVSPropertyOp9
 70
     1
102
RTVSPropertyOp10
 70
     1
102
RTVSPropertyOp11
 70
     1
102
RTVSPropertyOp12
 70
     1
102
RTVSPropertyOp13
 70
     1
102
RTVSPropertyOp14
 70
     1
102
RTVSPropertyOp15
 70
     1
102
RTVSPropertyOp16
 70
     1
102
RTVSPropertyOp17
 70
     1
102
RTVSPropertyOp18
 70
     1
102
RTVSPropertyOp19
 70
     1
102
RTVSPropertyOp20
 70
     1
102
RTVSPropertyOp21
 70
     1
102
RTVSPropertyOp22
 70
     1
102
RTVSPropertyOp23
 70
     1
102
RTVSPropertyOp24
 70
     1
102
RTVSPropertyOp25
 70
     1
102
RTVSPropertyOp26
 70
     1
102
RTVSPropertyOp27
 70
     1
102
RTVSPropertyOp28
 70
     1
102
RTVSPropertyOp29
 70
     1
102
RTVSPropertyOp30
 70
     1
102
RTVSPropertyOp31
 70
     1
102
RTVSPropertyOp32
 70
     1
102
RTVSPropertyOp33
 70
     1
102
RTVSPropertyOp34
 70
     1
102
RTVSPropertyOp35
 70
     1
102
RTVSPropertyOp36
 70
     1
102
RTVSPropertyOp37
 70
     1
102
RTVSPropertyOp38
 70
     1
102
RTVSPropertyOp39
 70
     1
102
RTVSPropertyOp40
 70
     1
102
RTVSPropertyOp41
 70
     1
102
RTVSPropertyOp42
 70
     1
102
RTVSPropertyOp43
 70
     1
102
RTVSPropertyOp44
 70
     1
102
RTVSPropertyOp45
 70
     1
102
RTVSPropertyOp46
 70
     1
102
RTVSPropertyOp47
 70
     1
102
RTVSPropertyOp48
 70
     1
102
RTVSPropertyOp49
 70
     1
102
RTVSPropertyOp50
 70
     1
102
RTVSPropertyOp51
 70
     0
102
RTVSPropertyOp52
 70
     0
102
RTVSPropertyOp53
 70
     1
102
RTVSPropertyOp54
 70
     1
102
RTVSPropertyOp55
 70
     1
102
RTVSPropertyOp56
 70
     1
102
RTVSPropertyOp57
 70
     1
102
RTVSPost2010Prop28
280
     0
102
RTVSPost2010PropOp28
 70
     1
102
RTVSPost2010Prop29
280
     1
102
RTVSPost2010PropOp29
 70
     1
102
RTVSPost2010Prop30
280
     1
102
RTVSPost2010PropOp30
 70
     1
102
RTVSPost2010Prop31
280
     0
102
RTVSPost2010PropOp31
 70
     1
102
RTVSPost2010Prop32
280
     0
102
RTVSPost2010PropOp32
 70
     1
102
RTVSPost2010Prop33
280
     0
102
RTVSPost2010PropOp33
 70
     1
102
RTVSPost2010Prop34
280
     0
102
RTVSPost2010PropOp34
 70
     1
102
RTVSPost2010Prop35
280
     0
102
RTVSPost2010PropOp35
 70
     1
102
RTVSPost2010Prop36
280
     0
102
RTVSPost2010PropOp36
 70
     1
102
RTVSPost2010Prop37
 90
       50
102
RTVSPost2010PropOp37
 70
     1
102
RTVSPost2010Prop38
140
0.0
102
RTVSPost2010PropOp38
 70
     1
102
RTVSPost2010Prop39
140
1.0
102
RTVSPost2010PropOp39
 70
     1
102
RTVSPost2010Prop40
 90
        0
102
RTVSPost2010PropOp40
 70
     1
102
RTVSPost2010Prop41ColorIndex
 90
       18
102
RTVSPost2010Prop41ColorRGB
 90
        0
102
RTVSPost2010PropOp41
 70
     1
102
RTVSPost2010Prop42
 90
       50
102
RTVSPost2010PropOp42
 70
     1
102
RTVSPost2010Prop43
 90
        3
102
RTVSPost2010PropOp43
 70
     1
102
RTVSPost2010Prop44ColorIndex
 90
        5
102
RTVSPost2010Prop44ColorRGB
 90
      255
102
RTVSPost2010PropOp44
 70
     1
102
RTVSPost2010Prop45
280
     0
102
RTVSPost2010PropOp45
 70
     1
102
RTVSPost2010Prop46
 90
       50
102
RTVSPost2010PropOp46
 70
     1
102
RTVSPost2010Prop47
 90
       50
102
RTVSPost2010PropOp47
 70
     1
102
RTVSPost2010Prop48
 90
       50
102
RTVSPost2010PropOp48
 70
     1
102
RTVSPost2010Prop49
280
     0
102
RTVSPost2010PropOp49
 70
     1
102
RTVSPost2010Prop50
 90
       50
102
RTVSPost2010PropOp50
 70
     1
102
RTVSPost2010Prop51ColorIndex
 90
      256
102
RTVSPost2010Prop51ColorRGB
 90
-16777216
102
RTVSPost2010PropOp51
 70
     0
102
RTVSPost2010Prop52
140
1.0
102
RTVSPost2010PropOp52
 70
     0
102
RTVSPost2010Prop53
 90
        2
102
RTVSPost2010PropOp53
 70
     1
102
RTVSPost2010Prop54
  1
strokes_ogs.tif
102
RTVSPost2010PropOp54
 70
     1
102
RTVSPost2010Prop55
280
     0
102
RTVSPost2010PropOp55
 70
     1
102
RTVSPost2010Prop56
140
1.0
102
RTVSPost2010PropOp56
 70
     1
102
RTVSPost2010Prop57
140
1.0
102
RTVSPost2010PropOp57
 70
     1
  0
XRECORD
  5
446
102
{ACAD_REACTORS
330
445
102
}
330
445
100
AcDbXrecord
280
     1
102
RTVSPropertyOp0
 70
     0
102
RTVSPropertyOp1
 70
     0
102
RTVSPropertyOp2
 70
     0
102
RTVSPropertyOp3
 70
     0
102
RTVSPropertyOp4
 70
     0
102
RTVSPropertyOp5
 70
     0
102
RTVSPropertyOp6
 70
     0
102
RTVSPropertyOp7
 70
     0
102
RTVSPropertyOp8
 70
     0
102
RTVSPropertyOp9
 70
     0
102
RTVSPropertyOp10
 70
     0
102
RTVSPropertyOp11
 70
     0
102
RTVSPropertyOp12
 70
     0
102
RTVSPropertyOp13
 70
     0
102
RTVSPropertyOp14
 70
     2
102
RTVSPropertyOp15
 70
     0
102
RTVSPropertyOp16
 70
     0
102
RTVSPropertyOp17
 70
     0
102
RTVSPropertyOp18
 70
     0
102
RTVSPropertyOp19
 70
     0
102
RTVSPropertyOp20
 70
     0
102
RTVSPropertyOp21
 70
     0
102
RTVSPropertyOp22
 70
     0
102
RTVSPropertyOp23
 70
     0
102
RTVSPropertyOp24
 70
     0
102
RTVSPropertyOp25
 70
     0
102
RTVSPropertyOp26
 70
     0
102
RTVSPropertyOp27
 70
     0
102
RTVSPropertyOp28
 70
     0
102
RTVSPropertyOp29
 70
     0
102
RTVSPropertyOp30
 70
     0
102
RTVSPropertyOp31
 70
     0
102
RTVSPropertyOp32
 70
     0
102
RTVSPropertyOp33
 70
     0
102
RTVSPropertyOp34
 70
     0
102
RTVSPropertyOp35
 70
     0
102
RTVSPropertyOp36
 70
     0
102
RTVSPropertyOp37
 70
     0
102
RTVSPropertyOp38
 70
     0
102
RTVSPropertyOp39
 70
     0
102
RTVSPropertyOp40
 70
     0
102
RTVSPropertyOp41
 70
     0
102
RTVSPropertyOp42
 70
     0
102
RTVSPropertyOp43
 70
     0
102
RTVSPropertyOp44
 70
     0
102
RTVSPropertyOp45
 70
     0
102
RTVSPropertyOp46
 70
     0
102
RTVSPropertyOp47
 70
     0
102
RTVSPropertyOp48
 70
     0
102
RTVSPropertyOp49
 70
     0
102
RTVSPropertyOp50
 70
     0
102
RTVSPropertyOp51
 70
     0
102
RTVSPropertyOp52
 70
     0
102
RTVSPropertyOp53
 70
     0
102
RTVSPropertyOp54
 70
     0
102
RTVSPropertyOp55
 70
     0
102
RTVSPropertyOp56
 70
     0
102
RTVSPropertyOp57
 70
     0
102
RTVSPost2010Prop28
280
     0
102
RTVSPost2010PropOp28
 70
     0
102
RTVSPost2010Prop29
280
     1
102
RTVSPost2010PropOp29
 70
     0
102
RTVSPost2010Prop30
280
     1
102
RTVSPost2010PropOp30
 70
     0
102
RTVSPost2010Prop31
280
     0
102
RTVSPost2010PropOp31
 70
     0
102
RTVSPost2010Prop32
280
     0
102
RTVSPost2010PropOp32
 70
     0
102
RTVSPost2010Prop33
280
     0
102
RTVSPost2010PropOp33
 70
     0
102
RTVSPost2010Prop34
280
     0
102
RTVSPost2010PropOp34
 70
     0
102
RTVSPost2010Prop35
280
     0
102
RTVSPost2010PropOp35
 70
     0
102
RTVSPost2010Prop36
280
     0
102
RTVSPost2010PropOp36
 70
     0
102
RTVSPost2010Prop37
 90
       50
102
RTVSPost2010PropOp37
 70
     0
102
RTVSPost2010Prop38
140
0.0
102
RTVSPost2010PropOp38
 70
     0
102
RTVSPost2010Prop39
140
1.0
102
RTVSPost2010PropOp39
 70
     0
102
RTVSPost2010Prop40
 90
        0
102
RTVSPost2010PropOp40
 70
     0
102
RTVSPost2010Prop41ColorIndex
 90
       18
102
RTVSPost2010Prop41ColorRGB
 90
        0
102
RTVSPost2010PropOp41
 70
     0
102
RTVSPost2010Prop42
 90
       50
102
RTVSPost2010PropOp42
 70
     0
102
RTVSPost2010Prop43
 90
        3
102
RTVSPost2010PropOp43
 70
     0
102
RTVSPost2010Prop44ColorIndex
 90
        5
102
RTVSPost2010Prop44ColorRGB
 90
      255
102
RTVSPost2010PropOp44
 70
     0
102
RTVSPost2010Prop45
280
     0
102
RTVSPost2010PropOp45
 70
     0
102
RTVSPost2010Prop46
 90
       50
102
RTVSPost2010PropOp46
 70
     0
102
RTVSPost2010Prop47
 90
       50
102
RTVSPost2010PropOp47
 70
     0
102
RTVSPost2010Prop48
 90
       50
102
RTVSPost2010PropOp48
 70
     0
102
RTVSPost2010Prop49
280
     0
102
RTVSPost2010PropOp49
 70
     0
102
RTVSPost2010Prop50
 90
       50
102
RTVSPost2010PropOp50
 70
     0
102
RTVSPost2010Prop51ColorIndex
 90
      256
102
RTVSPost2010Prop51ColorRGB
 90
-16777216
102
RTVSPost2010PropOp51
 70
     0
102
RTVSPost2010Prop52
140
1.0
102
RTVSPost2010PropOp52
 70
     0
102
RTVSPost2010Prop53
 90
        2
102
RTVSPost2010PropOp53
 70
     0
102
RTVSPost2010Prop54
  1
strokes_ogs.tif
102
RTVSPost2010PropOp54
 70
     0
102
RTVSPost2010Prop55
280
     0
102
RTVSPost2010PropOp55
 70
     0
102
RTVSPost2010Prop56
140
1.0
102
RTVSPost2010PropOp56
 70
     0
102
RTVSPost2010Prop57
140
1.0
102
RTVSPost2010PropOp57
 70
     0
  0
XRECORD
  5
43E
102
{ACAD_REACTORS
330
43D
102
}
330
43D
100
AcDbXrecord
280
     1
102
RTVSPropertyOp0
 70
     1
102
RTVSPropertyOp1
 70
     1
102
RTVSPropertyOp2
 70
     1
102
RTVSPropertyOp3
 70
     1
102
RTVSPropertyOp4
 70
     1
102
RTVSPropertyOp5
 70
     1
102
RTVSPropertyOp6
 70
     1
102
RTVSPropertyOp7
 70
     1
102
RTVSPropertyOp8
 70
     1
102
RTVSPropertyOp9
 70
     1
102
RTVSPropertyOp10
 70
     1
102
RTVSPropertyOp11
 70
     1
102
RTVSPropertyOp12
 70
     1
102
RTVSPropertyOp13
 70
     1
102
RTVSPropertyOp14
 70
     1
102
RTVSPropertyOp15
 70
     1
102
RTVSPropertyOp16
 70
     1
102
RTVSPropertyOp17
 70
     1
102
RTVSPropertyOp18
 70
     1
102
RTVSPropertyOp19
 70
     1
102
RTVSPropertyOp20
 70
     1
102
RTVSPropertyOp21
 70
     1
102
RTVSPropertyOp22
 70
     1
102
RTVSPropertyOp23
 70
     1
102
RTVSPropertyOp24
 70
     1
102
RTVSPropertyOp25
 70
     1
102
RTVSPropertyOp26
 70
     1
102
RTVSPropertyOp27
 70
     1
102
RTVSPropertyOp28
 70
     1
102
RTVSPropertyOp29
 70
     1
102
RTVSPropertyOp30
 70
     1
102
RTVSPropertyOp31
 70
     1
102
RTVSPropertyOp32
 70
     1
102
RTVSPropertyOp33
 70
     1
102
RTVSPropertyOp34
 70
     1
102
RTVSPropertyOp35
 70
     1
102
RTVSPropertyOp36
 70
     1
102
RTVSPropertyOp37
 70
     1
102
RTVSPropertyOp38
 70
     1
102
RTVSPropertyOp39
 70
     1
102
RTVSPropertyOp40
 70
     1
102
RTVSPropertyOp41
 70
     1
102
RTVSPropertyOp42
 70
     1
102
RTVSPropertyOp43
 70
     1
102
RTVSPropertyOp44
 70
     1
102
RTVSPropertyOp45
 70
     1
102
RTVSPropertyOp46
 70
     1
102
RTVSPropertyOp47
 70
     1
102
RTVSPropertyOp48
 70
     1
102
RTVSPropertyOp49
 70
     1
102
RTVSPropertyOp50
 70
     1
102
RTVSPropertyOp51
 70
     0
102
RTVSPropertyOp52
 70
     0
102
RTVSPropertyOp53
 70
     1
102
RTVSPropertyOp54
 70
     1
102
RTVSPropertyOp55
 70
     1
102
RTVSPropertyOp56
 70
     1
102
RTVSPropertyOp57
 70
     1
102
RTVSPost2010Prop28
280
     0
102
RTVSPost2010PropOp28
 70
     1
102
RTVSPost2010Prop29
280
     1
102
RTVSPost2010PropOp29
 70
     1
102
RTVSPost2010Prop30
280
     1
102
RTVSPost2010PropOp30
 70
     1
102
RTVSPost2010Prop31
280
     0
102
RTVSPost2010PropOp31
 70
     1
102
RTVSPost2010Prop32
280
     0
102
RTVSPost2010PropOp32
 70
     1
102
RTVSPost2010Prop33
280
     0
102
RTVSPost2010PropOp33
 70
     1
102
RTVSPost2010Prop34
280
     0
102
RTVSPost2010PropOp34
 70
     1
102
RTVSPost2010Prop35
280
     0
102
RTVSPost2010PropOp35
 70
     1
102
RTVSPost2010Prop36
280
     0
102
RTVSPost2010PropOp36
 70
     1
102
RTVSPost2010Prop37
 90
       50
102
RTVSPost2010PropOp37
 70
     1
102
RTVSPost2010Prop38
140
0.0
102
RTVSPost2010PropOp38
 70
     1
102
RTVSPost2010Prop39
140
1.0
102
RTVSPost2010PropOp39
 70
     1
102
RTVSPost2010Prop40
 90
        0
102
RTVSPost2010PropOp40
 70
     1
102
RTVSPost2010Prop41ColorIndex
 90
       18
102
RTVSPost2010Prop41ColorRGB
 90
        0
102
RTVSPost2010PropOp41
 70
     1
102
RTVSPost2010Prop42
 90
       50
102
RTVSPost2010PropOp42
 70
     1
102
RTVSPost2010Prop43
 90
        3
102
RTVSPost2010PropOp43
 70
     1
102
RTVSPost2010Prop44ColorIndex
 90
        5
102
RTVSPost2010Prop44ColorRGB
 90
      255
102
RTVSPost2010PropOp44
 70
     1
102
RTVSPost2010Prop45
280
     0
102
RTVSPost2010PropOp45
 70
     1
102
RTVSPost2010Prop46
 90
       50
102
RTVSPost2010PropOp46
 70
     1
102
RTVSPost2010Prop47
 90
       50
102
RTVSPost2010PropOp47
 70
     1
102
RTVSPost2010Prop48
 90
       50
102
RTVSPost2010PropOp48
 70
     1
102
RTVSPost2010Prop49
280
     0
102
RTVSPost2010PropOp49
 70
     1
102
RTVSPost2010Prop50
 90
       50
102
RTVSPost2010PropOp50
 70
     1
102
RTVSPost2010Prop51ColorIndex
 90
      256
102
RTVSPost2010Prop51ColorRGB
 90
-16777216
102
RTVSPost2010PropOp51
 70
     0
102
RTVSPost2010Prop52
140
1.0
102
RTVSPost2010PropOp52
 70
     0
102
RTVSPost2010Prop53
 90
        2
102
RTVSPost2010PropOp53
 70
     1
102
RTVSPost2010Prop54
  1
strokes_ogs.tif
102
RTVSPost2010PropOp54
 70
     1
102
RTVSPost2010Prop55
280
     0
102
RTVSPost2010PropOp55
 70
     1
102
RTVSPost2010Prop56
140
1.0
102
RTVSPost2010PropOp56
 70
     1
102
RTVSPost2010Prop57
140
1.0
102
RTVSPost2010PropOp57
 70
     1
  0
XRECORD
  5
422
102
{ACAD_REACTORS
330
421
102
}
330
421
100
AcDbXrecord
280
     1
102
RTVSPropertyOp0
 70
     1
102
RTVSPropertyOp1
 70
     1
102
RTVSPropertyOp2
 70
     1
102
RTVSPropertyOp3
 70
     1
102
RTVSPropertyOp4
 70
     1
102
RTVSPropertyOp5
 70
     1
102
RTVSPropertyOp6
 70
     1
102
RTVSPropertyOp7
 70
     1
102
RTVSPropertyOp8
 70
     1
102
RTVSPropertyOp9
 70
     1
102
RTVSPropertyOp10
 70
     1
102
RTVSPropertyOp11
 70
     1
102
RTVSPropertyOp12
 70
     1
102
RTVSPropertyOp13
 70
     1
102
RTVSPropertyOp14
 70
     1
102
RTVSPropertyOp15
 70
     1
102
RTVSPropertyOp16
 70
     1
102
RTVSPropertyOp17
 70
     1
102
RTVSPropertyOp18
 70
     1
102
RTVSPropertyOp19
 70
     1
102
RTVSPropertyOp20
 70
     1
102
RTVSPropertyOp21
 70
     1
102
RTVSPropertyOp22
 70
     1
102
RTVSPropertyOp23
 70
     1
102
RTVSPropertyOp24
 70
     1
102
RTVSPropertyOp25
 70
     1
102
RTVSPropertyOp26
 70
     1
102
RTVSPropertyOp27
 70
     1
102
RTVSPropertyOp28
 70
     1
102
RTVSPropertyOp29
 70
     1
102
RTVSPropertyOp30
 70
     1
102
RTVSPropertyOp31
 70
     1
102
RTVSPropertyOp32
 70
     1
102
RTVSPropertyOp33
 70
     1
102
RTVSPropertyOp34
 70
     1
102
RTVSPropertyOp35
 70
     1
102
RTVSPropertyOp36
 70
     1
102
RTVSPropertyOp37
 70
     1
102
RTVSPropertyOp38
 70
     1
102
RTVSPropertyOp39
 70
     1
102
RTVSPropertyOp40
 70
     1
102
RTVSPropertyOp41
 70
     1
102
RTVSPropertyOp42
 70
     1
102
RTVSPropertyOp43
 70
     1
102
RTVSPropertyOp44
 70
     1
102
RTVSPropertyOp45
 70
     1
102
RTVSPropertyOp46
 70
     1
102
RTVSPropertyOp47
 70
     1
102
RTVSPropertyOp48
 70
     1
102
RTVSPropertyOp49
 70
     1
102
RTVSPropertyOp50
 70
     1
102
RTVSPropertyOp51
 70
     0
102
RTVSPropertyOp52
 70
     0
102
RTVSPropertyOp53
 70
     1
102
RTVSPropertyOp54
 70
     1
102
RTVSPropertyOp55
 70
     1
102
RTVSPropertyOp56
 70
     1
102
RTVSPropertyOp57
 70
     1
102
RTVSPost2010Prop28
280
     0
102
RTVSPost2010PropOp28
 70
     1
102
RTVSPost2010Prop29
280
     1
102
RTVSPost2010PropOp29
 70
     1
102
RTVSPost2010Prop30
280
     1
102
RTVSPost2010PropOp30
 70
     1
102
RTVSPost2010Prop31
280
     0
102
RTVSPost2010PropOp31
 70
     1
102
RTVSPost2010Prop32
280
     0
102
RTVSPost2010PropOp32
 70
     1
102
RTVSPost2010Prop33
280
     0
102
RTVSPost2010PropOp33
 70
     1
102
RTVSPost2010Prop34
280
     0
102
RTVSPost2010PropOp34
 70
     1
102
RTVSPost2010Prop35
280
     0
102
RTVSPost2010PropOp35
 70
     1
102
RTVSPost2010Prop36
280
     0
102
RTVSPost2010PropOp36
 70
     1
102
RTVSPost2010Prop37
 90
       50
102
RTVSPost2010PropOp37
 70
     1
102
RTVSPost2010Prop38
140
0.0
102
RTVSPost2010PropOp38
 70
     1
102
RTVSPost2010Prop39
140
1.0
102
RTVSPost2010PropOp39
 70
     1
102
RTVSPost2010Prop40
 90
        0
102
RTVSPost2010PropOp40
 70
     1
102
RTVSPost2010Prop41ColorIndex
 90
       18
102
RTVSPost2010Prop41ColorRGB
 90
        0
102
RTVSPost2010PropOp41
 70
     1
102
RTVSPost2010Prop42
 90
       50
102
RTVSPost2010PropOp42
 70
     1
102
RTVSPost2010Prop43
 90
        3
102
RTVSPost2010PropOp43
 70
     1
102
RTVSPost2010Prop44ColorIndex
 90
        5
102
RTVSPost2010Prop44ColorRGB
 90
      255
102
RTVSPost2010PropOp44
 70
     1
102
RTVSPost2010Prop45
280
     0
102
RTVSPost2010PropOp45
 70
     1
102
RTVSPost2010Prop46
 90
       50
102
RTVSPost2010PropOp46
 70
     1
102
RTVSPost2010Prop47
 90
       50
102
RTVSPost2010PropOp47
 70
     1
102
RTVSPost2010Prop48
 90
       50
102
RTVSPost2010PropOp48
 70
     1
102
RTVSPost2010Prop49
280
     0
102
RTVSPost2010PropOp49
 70
     1
102
RTVSPost2010Prop50
 90
       50
102
RTVSPost2010PropOp50
 70
     1
102
RTVSPost2010Prop51ColorIndex
 90
      256
102
RTVSPost2010Prop51ColorRGB
 90
-16777216
102
RTVSPost2010PropOp51
 70
     0
102
RTVSPost2010Prop52
140
1.0
102
RTVSPost2010PropOp52
 70
     0
102
RTVSPost2010Prop53
 90
        2
102
RTVSPost2010PropOp53
 70
     1
102
RTVSPost2010Prop54
  1
strokes_ogs.tif
102
RTVSPost2010PropOp54
 70
     1
102
RTVSPost2010Prop55
280
     0
102
RTVSPost2010PropOp55
 70
     1
102
RTVSPost2010Prop56
140
1.0
102
RTVSPost2010PropOp56
 70
     1
102
RTVSPost2010Prop57
140
1.0
102
RTVSPost2010PropOp57
 70
     1
  0
XRECORD
  5
424
102
{ACAD_REACTORS
330
423
102
}
330
423
100
AcDbXrecord
280
     1
102
RTVSPropertyOp0
 70
     1
102
RTVSPropertyOp1
 70
     1
102
RTVSPropertyOp2
 70
     1
102
RTVSPropertyOp3
 70
     1
102
RTVSPropertyOp4
 70
     1
102
RTVSPropertyOp5
 70
     1
102
RTVSPropertyOp6
 70
     1
102
RTVSPropertyOp7
 70
     1
102
RTVSPropertyOp8
 70
     1
102
RTVSPropertyOp9
 70
     1
102
RTVSPropertyOp10
 70
     1
102
RTVSPropertyOp11
 70
     1
102
RTVSPropertyOp12
 70
     1
102
RTVSPropertyOp13
 70
     1
102
RTVSPropertyOp14
 70
     1
102
RTVSPropertyOp15
 70
     1
102
RTVSPropertyOp16
 70
     1
102
RTVSPropertyOp17
 70
     1
102
RTVSPropertyOp18
 70
     1
102
RTVSPropertyOp19
 70
     1
102
RTVSPropertyOp20
 70
     1
102
RTVSPropertyOp21
 70
     1
102
RTVSPropertyOp22
 70
     1
102
RTVSPropertyOp23
 70
     1
102
RTVSPropertyOp24
 70
     1
102
RTVSPropertyOp25
 70
     1
102
RTVSPropertyOp26
 70
     1
102
RTVSPropertyOp27
 70
     1
102
RTVSPropertyOp28
 70
     1
102
RTVSPropertyOp29
 70
     1
102
RTVSPropertyOp30
 70
     1
102
RTVSPropertyOp31
 70
     1
102
RTVSPropertyOp32
 70
     1
102
RTVSPropertyOp33
 70
     1
102
RTVSPropertyOp34
 70
     1
102
RTVSPropertyOp35
 70
     1
102
RTVSPropertyOp36
 70
     1
102
RTVSPropertyOp37
 70
     1
102
RTVSPropertyOp38
 70
     1
102
RTVSPropertyOp39
 70
     1
102
RTVSPropertyOp40
 70
     1
102
RTVSPropertyOp41
 70
     1
102
RTVSPropertyOp42
 70
     1
102
RTVSPropertyOp43
 70
     1
102
RTVSPropertyOp44
 70
     1
102
RTVSPropertyOp45
 70
     1
102
RTVSPropertyOp46
 70
     1
102
RTVSPropertyOp47
 70
     1
102
RTVSPropertyOp48
 70
     1
102
RTVSPropertyOp49
 70
     1
102
RTVSPropertyOp50
 70
     1
102
RTVSPropertyOp51
 70
     0
102
RTVSPropertyOp52
 70
     0
102
RTVSPropertyOp53
 70
     1
102
RTVSPropertyOp54
 70
     1
102
RTVSPropertyOp55
 70
     1
102
RTVSPropertyOp56
 70
     1
102
RTVSPropertyOp57
 70
     1
102
RTVSPost2010Prop28
280
     0
102
RTVSPost2010PropOp28
 70
     1
102
RTVSPost2010Prop29
280
     1
102
RTVSPost2010PropOp29
 70
     1
102
RTVSPost2010Prop30
280
     1
102
RTVSPost2010PropOp30
 70
     1
102
RTVSPost2010Prop31
280
     0
102
RTVSPost2010PropOp31
 70
     1
102
RTVSPost2010Prop32
280
     0
102
RTVSPost2010PropOp32
 70
     1
102
RTVSPost2010Prop33
280
     0
102
RTVSPost2010PropOp33
 70
     1
102
RTVSPost2010Prop34
280
     0
102
RTVSPost2010PropOp34
 70
     1
102
RTVSPost2010Prop35
280
     0
102
RTVSPost2010PropOp35
 70
     1
102
RTVSPost2010Prop36
280
     0
102
RTVSPost2010PropOp36
 70
     1
102
RTVSPost2010Prop37
 90
       50
102
RTVSPost2010PropOp37
 70
     1
102
RTVSPost2010Prop38
140
0.0
102
RTVSPost2010PropOp38
 70
     1
102
RTVSPost2010Prop39
140
1.0
102
RTVSPost2010PropOp39
 70
     1
102
RTVSPost2010Prop40
 90
        0
102
RTVSPost2010PropOp40
 70
     1
102
RTVSPost2010Prop41ColorIndex
 90
       18
102
RTVSPost2010Prop41ColorRGB
 90
        0
102
RTVSPost2010PropOp41
 70
     1
102
RTVSPost2010Prop42
 90
       50
102
RTVSPost2010PropOp42
 70
     1
102
RTVSPost2010Prop43
 90
        3
102
RTVSPost2010PropOp43
 70
     1
102
RTVSPost2010Prop44ColorIndex
 90
        5
102
RTVSPost2010Prop44ColorRGB
 90
      255
102
RTVSPost2010PropOp44
 70
     1
102
RTVSPost2010Prop45
280
     0
102
RTVSPost2010PropOp45
 70
     1
102
RTVSPost2010Prop46
 90
       50
102
RTVSPost2010PropOp46
 70
     1
102
RTVSPost2010Prop47
 90
       50
102
RTVSPost2010PropOp47
 70
     1
102
RTVSPost2010Prop48
 90
       50
102
RTVSPost2010PropOp48
 70
     1
102
RTVSPost2010Prop49
280
     0
102
RTVSPost2010PropOp49
 70
     1
102
RTVSPost2010Prop50
 90
       50
102
RTVSPost2010PropOp50
 70
     1
102
RTVSPost2010Prop51ColorIndex
 90
      256
102
RTVSPost2010Prop51ColorRGB
 90
-16777216
102
RTVSPost2010PropOp51
 70
     0
102
RTVSPost2010Prop52
140
1.0
102
RTVSPost2010PropOp52
 70
     0
102
RTVSPost2010Prop53
 90
        2
102
RTVSPost2010PropOp53
 70
     1
102
RTVSPost2010Prop54
  1
strokes_ogs.tif
102
RTVSPost2010PropOp54
 70
     1
102
RTVSPost2010Prop55
280
     0
102
RTVSPost2010PropOp55
 70
     1
102
RTVSPost2010Prop56
140
1.0
102
RTVSPost2010PropOp56
 70
     1
102
RTVSPost2010Prop57
140
1.0
102
RTVSPost2010PropOp57
 70
     1
  0
XRECORD
  5
426
102
{ACAD_REACTORS
330
425
102
}
330
425
100
AcDbXrecord
280
     1
102
RTVSPropertyOp0
 70
     1
102
RTVSPropertyOp1
 70
     1
102
RTVSPropertyOp2
 70
     1
102
RTVSPropertyOp3
 70
     1
102
RTVSPropertyOp4
 70
     1
102
RTVSPropertyOp5
 70
     1
102
RTVSPropertyOp6
 70
     1
102
RTVSPropertyOp7
 70
     1
102
RTVSPropertyOp8
 70
     1
102
RTVSPropertyOp9
 70
     1
102
RTVSPropertyOp10
 70
     1
102
RTVSPropertyOp11
 70
     1
102
RTVSPropertyOp12
 70
     1
102
RTVSPropertyOp13
 70
     1
102
RTVSPropertyOp14
 70
     1
102
RTVSPropertyOp15
 70
     1
102
RTVSPropertyOp16
 70
     1
102
RTVSPropertyOp17
 70
     1
102
RTVSPropertyOp18
 70
     1
102
RTVSPropertyOp19
 70
     1
102
RTVSPropertyOp20
 70
     1
102
RTVSPropertyOp21
 70
     1
102
RTVSPropertyOp22
 70
     1
102
RTVSPropertyOp23
 70
     1
102
RTVSPropertyOp24
 70
     1
102
RTVSPropertyOp25
 70
     1
102
RTVSPropertyOp26
 70
     1
102
RTVSPropertyOp27
 70
     1
102
RTVSPropertyOp28
 70
     1
102
RTVSPropertyOp29
 70
     1
102
RTVSPropertyOp30
 70
     1
102
RTVSPropertyOp31
 70
     1
102
RTVSPropertyOp32
 70
     1
102
RTVSPropertyOp33
 70
     1
102
RTVSPropertyOp34
 70
     1
102
RTVSPropertyOp35
 70
     1
102
RTVSPropertyOp36
 70
     1
102
RTVSPropertyOp37
 70
     1
102
RTVSPropertyOp38
 70
     1
102
RTVSPropertyOp39
 70
     1
102
RTVSPropertyOp40
 70
     1
102
RTVSPropertyOp41
 70
     1
102
RTVSPropertyOp42
 70
     1
102
RTVSPropertyOp43
 70
     1
102
RTVSPropertyOp44
 70
     1
102
RTVSPropertyOp45
 70
     1
102
RTVSPropertyOp46
 70
     1
102
RTVSPropertyOp47
 70
     1
102
RTVSPropertyOp48
 70
     1
102
RTVSPropertyOp49
 70
     1
102
RTVSPropertyOp50
 70
     1
102
RTVSPropertyOp51
 70
     0
102
RTVSPropertyOp52
 70
     0
102
RTVSPropertyOp53
 70
     1
102
RTVSPropertyOp54
 70
     1
102
RTVSPropertyOp55
 70
     1
102
RTVSPropertyOp56
 70
     1
102
RTVSPropertyOp57
 70
     1
102
RTVSPost2010Prop28
280
     0
102
RTVSPost2010PropOp28
 70
     1
102
RTVSPost2010Prop29
280
     1
102
RTVSPost2010PropOp29
 70
     1
102
RTVSPost2010Prop30
280
     1
102
RTVSPost2010PropOp30
 70
     1
102
RTVSPost2010Prop31
280
     0
102
RTVSPost2010PropOp31
 70
     1
102
RTVSPost2010Prop32
280
     0
102
RTVSPost2010PropOp32
 70
     1
102
RTVSPost2010Prop33
280
     0
102
RTVSPost2010PropOp33
 70
     1
102
RTVSPost2010Prop34
280
     0
102
RTVSPost2010PropOp34
 70
     1
102
RTVSPost2010Prop35
280
     0
102
RTVSPost2010PropOp35
 70
     1
102
RTVSPost2010Prop36
280
     0
102
RTVSPost2010PropOp36
 70
     1
102
RTVSPost2010Prop37
 90
       50
102
RTVSPost2010PropOp37
 70
     1
102
RTVSPost2010Prop38
140
0.0
102
RTVSPost2010PropOp38
 70
     1
102
RTVSPost2010Prop39
140
1.0
102
RTVSPost2010PropOp39
 70
     1
102
RTVSPost2010Prop40
 90
        0
102
RTVSPost2010PropOp40
 70
     1
102
RTVSPost2010Prop41ColorIndex
 90
       18
102
RTVSPost2010Prop41ColorRGB
 90
        0
102
RTVSPost2010PropOp41
 70
     1
102
RTVSPost2010Prop42
 90
       50
102
RTVSPost2010PropOp42
 70
     1
102
RTVSPost2010Prop43
 90
        3
102
RTVSPost2010PropOp43
 70
     1
102
RTVSPost2010Prop44ColorIndex
 90
        5
102
RTVSPost2010Prop44ColorRGB
 90
      255
102
RTVSPost2010PropOp44
 70
     1
102
RTVSPost2010Prop45
280
     0
102
RTVSPost2010PropOp45
 70
     1
102
RTVSPost2010Prop46
 90
       50
102
RTVSPost2010PropOp46
 70
     1
102
RTVSPost2010Prop47
 90
       50
102
RTVSPost2010PropOp47
 70
     1
102
RTVSPost2010Prop48
 90
       50
102
RTVSPost2010PropOp48
 70
     1
102
RTVSPost2010Prop49
280
     0
102
RTVSPost2010PropOp49
 70
     1
102
RTVSPost2010Prop50
 90
       50
102
RTVSPost2010PropOp50
 70
     1
102
RTVSPost2010Prop51ColorIndex
 90
      256
102
RTVSPost2010Prop51ColorRGB
 90
-16777216
102
RTVSPost2010PropOp51
 70
     0
102
RTVSPost2010Prop52
140
1.0
102
RTVSPost2010PropOp52
 70
     0
102
RTVSPost2010Prop53
 90
        2
102
RTVSPost2010PropOp53
 70
     1
102
RTVSPost2010Prop54
  1
strokes_ogs.tif
102
RTVSPost2010PropOp54
 70
     1
102
RTVSPost2010Prop55
280
     0
102
RTVSPost2010PropOp55
 70
     1
102
RTVSPost2010Prop56
140
1.0
102
RTVSPost2010PropOp56
 70
     1
102
RTVSPost2010Prop57
140
1.0
102
RTVSPost2010PropOp57
 70
     1
  0
XRECORD
  5
428
102
{ACAD_REACTORS
330
427
102
}
330
427
100
AcDbXrecord
280
     1
102
RTVSPropertyOp0
 70
     1
102
RTVSPropertyOp1
 70
     1
102
RTVSPropertyOp2
 70
     1
102
RTVSPropertyOp3
 70
     1
102
RTVSPropertyOp4
 70
     1
102
RTVSPropertyOp5
 70
     1
102
RTVSPropertyOp6
 70
     1
102
RTVSPropertyOp7
 70
     1
102
RTVSPropertyOp8
 70
     1
102
RTVSPropertyOp9
 70
     1
102
RTVSPropertyOp10
 70
     1
102
RTVSPropertyOp11
 70
     1
102
RTVSPropertyOp12
 70
     1
102
RTVSPropertyOp13
 70
     1
102
RTVSPropertyOp14
 70
     1
102
RTVSPropertyOp15
 70
     1
102
RTVSPropertyOp16
 70
     1
102
RTVSPropertyOp17
 70
     1
102
RTVSPropertyOp18
 70
     1
102
RTVSPropertyOp19
 70
     1
102
RTVSPropertyOp20
 70
     1
102
RTVSPropertyOp21
 70
     1
102
RTVSPropertyOp22
 70
     1
102
RTVSPropertyOp23
 70
     1
102
RTVSPropertyOp24
 70
     1
102
RTVSPropertyOp25
 70
     1
102
RTVSPropertyOp26
 70
     1
102
RTVSPropertyOp27
 70
     1
102
RTVSPropertyOp28
 70
     1
102
RTVSPropertyOp29
 70
     1
102
RTVSPropertyOp30
 70
     1
102
RTVSPropertyOp31
 70
     1
102
RTVSPropertyOp32
 70
     1
102
RTVSPropertyOp33
 70
     1
102
RTVSPropertyOp34
 70
     1
102
RTVSPropertyOp35
 70
     1
102
RTVSPropertyOp36
 70
     1
102
RTVSPropertyOp37
 70
     1
102
RTVSPropertyOp38
 70
     1
102
RTVSPropertyOp39
 70
     1
102
RTVSPropertyOp40
 70
     1
102
RTVSPropertyOp41
 70
     1
102
RTVSPropertyOp42
 70
     1
102
RTVSPropertyOp43
 70
     1
102
RTVSPropertyOp44
 70
     1
102
RTVSPropertyOp45
 70
     1
102
RTVSPropertyOp46
 70
     1
102
RTVSPropertyOp47
 70
     1
102
RTVSPropertyOp48
 70
     1
102
RTVSPropertyOp49
 70
     1
102
RTVSPropertyOp50
 70
     1
102
RTVSPropertyOp51
 70
     0
102
RTVSPropertyOp52
 70
     0
102
RTVSPropertyOp53
 70
     1
102
RTVSPropertyOp54
 70
     1
102
RTVSPropertyOp55
 70
     1
102
RTVSPropertyOp56
 70
     1
102
RTVSPropertyOp57
 70
     1
102
RTVSPost2010Prop28
280
     0
102
RTVSPost2010PropOp28
 70
     1
102
RTVSPost2010Prop29
280
     1
102
RTVSPost2010PropOp29
 70
     1
102
RTVSPost2010Prop30
280
     1
102
RTVSPost2010PropOp30
 70
     1
102
RTVSPost2010Prop31
280
     0
102
RTVSPost2010PropOp31
 70
     1
102
RTVSPost2010Prop32
280
     0
102
RTVSPost2010PropOp32
 70
     1
102
RTVSPost2010Prop33
280
     0
102
RTVSPost2010PropOp33
 70
     1
102
RTVSPost2010Prop34
280
     0
102
RTVSPost2010PropOp34
 70
     1
102
RTVSPost2010Prop35
280
     0
102
RTVSPost2010PropOp35
 70
     1
102
RTVSPost2010Prop36
280
     0
102
RTVSPost2010PropOp36
 70
     1
102
RTVSPost2010Prop37
 90
       50
102
RTVSPost2010PropOp37
 70
     1
102
RTVSPost2010Prop38
140
0.0
102
RTVSPost2010PropOp38
 70
     1
102
RTVSPost2010Prop39
140
1.0
102
RTVSPost2010PropOp39
 70
     1
102
RTVSPost2010Prop40
 90
        0
102
RTVSPost2010PropOp40
 70
     1
102
RTVSPost2010Prop41ColorIndex
 90
       18
102
RTVSPost2010Prop41ColorRGB
 90
        0
102
RTVSPost2010PropOp41
 70
     1
102
RTVSPost2010Prop42
 90
       50
102
RTVSPost2010PropOp42
 70
     1
102
RTVSPost2010Prop43
 90
        3
102
RTVSPost2010PropOp43
 70
     1
102
RTVSPost2010Prop44ColorIndex
 90
        5
102
RTVSPost2010Prop44ColorRGB
 90
      255
102
RTVSPost2010PropOp44
 70
     1
102
RTVSPost2010Prop45
280
     0
102
RTVSPost2010PropOp45
 70
     1
102
RTVSPost2010Prop46
 90
       50
102
RTVSPost2010PropOp46
 70
     1
102
RTVSPost2010Prop47
 90
       50
102
RTVSPost2010PropOp47
 70
     1
102
RTVSPost2010Prop48
 90
       50
102
RTVSPost2010PropOp48
 70
     1
102
RTVSPost2010Prop49
280
     0
102
RTVSPost2010PropOp49
 70
     1
102
RTVSPost2010Prop50
 90
       50
102
RTVSPost2010PropOp50
 70
     1
102
RTVSPost2010Prop51ColorIndex
 90
      256
102
RTVSPost2010Prop51ColorRGB
 90
-16777216
102
RTVSPost2010PropOp51
 70
     0
102
RTVSPost2010Prop52
140
1.0
102
RTVSPost2010PropOp52
 70
     0
102
RTVSPost2010Prop53
 90
        2
102
RTVSPost2010PropOp53
 70
     1
102
RTVSPost2010Prop54
  1
strokes_ogs.tif
102
RTVSPost2010PropOp54
 70
     1
102
RTVSPost2010Prop55
280
     0
102
RTVSPost2010PropOp55
 70
     1
102
RTVSPost2010Prop56
140
1.0
102
RTVSPost2010PropOp56
 70
     1
102
RTVSPost2010Prop57
140
1.0
102
RTVSPost2010PropOp57
 70
     1
  0
XRECORD
  5
42E
102
{ACAD_REACTORS
330
42D
102
}
330
42D
100
AcDbXrecord
280
     1
102
RTVSPropertyOp0
 70
     1
102
RTVSPropertyOp1
 70
     1
102
RTVSPropertyOp2
 70
     1
102
RTVSPropertyOp3
 70
     1
102
RTVSPropertyOp4
 70
     1
102
RTVSPropertyOp5
 70
     1
102
RTVSPropertyOp6
 70
     1
102
RTVSPropertyOp7
 70
     1
102
RTVSPropertyOp8
 70
     1
102
RTVSPropertyOp9
 70
     1
102
RTVSPropertyOp10
 70
     1
102
RTVSPropertyOp11
 70
     1
102
RTVSPropertyOp12
 70
     1
102
RTVSPropertyOp13
 70
     1
102
RTVSPropertyOp14
 70
     1
102
RTVSPropertyOp15
 70
     1
102
RTVSPropertyOp16
 70
     1
102
RTVSPropertyOp17
 70
     1
102
RTVSPropertyOp18
 70
     1
102
RTVSPropertyOp19
 70
     1
102
RTVSPropertyOp20
 70
     1
102
RTVSPropertyOp21
 70
     1
102
RTVSPropertyOp22
 70
     1
102
RTVSPropertyOp23
 70
     1
102
RTVSPropertyOp24
 70
     1
102
RTVSPropertyOp25
 70
     1
102
RTVSPropertyOp26
 70
     1
102
RTVSPropertyOp27
 70
     1
102
RTVSPropertyOp28
 70
     1
102
RTVSPropertyOp29
 70
     1
102
RTVSPropertyOp30
 70
     1
102
RTVSPropertyOp31
 70
     1
102
RTVSPropertyOp32
 70
     1
102
RTVSPropertyOp33
 70
     1
102
RTVSPropertyOp34
 70
     1
102
RTVSPropertyOp35
 70
     1
102
RTVSPropertyOp36
 70
     1
102
RTVSPropertyOp37
 70
     1
102
RTVSPropertyOp38
 70
     1
102
RTVSPropertyOp39
 70
     1
102
RTVSPropertyOp40
 70
     1
102
RTVSPropertyOp41
 70
     1
102
RTVSPropertyOp42
 70
     1
102
RTVSPropertyOp43
 70
     1
102
RTVSPropertyOp44
 70
     1
102
RTVSPropertyOp45
 70
     1
102
RTVSPropertyOp46
 70
     1
102
RTVSPropertyOp47
 70
     1
102
RTVSPropertyOp48
 70
     1
102
RTVSPropertyOp49
 70
     1
102
RTVSPropertyOp50
 70
     1
102
RTVSPropertyOp51
 70
     0
102
RTVSPropertyOp52
 70
     0
102
RTVSPropertyOp53
 70
     1
102
RTVSPropertyOp54
 70
     1
102
RTVSPropertyOp55
 70
     1
102
RTVSPropertyOp56
 70
     1
102
RTVSPropertyOp57
 70
     1
102
RTVSPost2010Prop28
280
     0
102
RTVSPost2010PropOp28
 70
     1
102
RTVSPost2010Prop29
280
     1
102
RTVSPost2010PropOp29
 70
     1
102
RTVSPost2010Prop30
280
     1
102
RTVSPost2010PropOp30
 70
     1
102
RTVSPost2010Prop31
280
     0
102
RTVSPost2010PropOp31
 70
     1
102
RTVSPost2010Prop32
280
     0
102
RTVSPost2010PropOp32
 70
     1
102
RTVSPost2010Prop33
280
     0
102
RTVSPost2010PropOp33
 70
     1
102
RTVSPost2010Prop34
280
     0
102
RTVSPost2010PropOp34
 70
     1
102
RTVSPost2010Prop35
280
     0
102
RTVSPost2010PropOp35
 70
     1
102
RTVSPost2010Prop36
280
     0
102
RTVSPost2010PropOp36
 70
     1
102
RTVSPost2010Prop37
 90
       50
102
RTVSPost2010PropOp37
 70
     1
102
RTVSPost2010Prop38
140
0.0
102
RTVSPost2010PropOp38
 70
     1
102
RTVSPost2010Prop39
140
1.0
102
RTVSPost2010PropOp39
 70
     1
102
RTVSPost2010Prop40
 90
        0
102
RTVSPost2010PropOp40
 70
     1
102
RTVSPost2010Prop41ColorIndex
 90
       18
102
RTVSPost2010Prop41ColorRGB
 90
        0
102
RTVSPost2010PropOp41
 70
     1
102
RTVSPost2010Prop42
 90
       50
102
RTVSPost2010PropOp42
 70
     1
102
RTVSPost2010Prop43
 90
        3
102
RTVSPost2010PropOp43
 70
     1
102
RTVSPost2010Prop44ColorIndex
 90
        5
102
RTVSPost2010Prop44ColorRGB
 90
      255
102
RTVSPost2010PropOp44
 70
     1
102
RTVSPost2010Prop45
280
     0
102
RTVSPost2010PropOp45
 70
     1
102
RTVSPost2010Prop46
 90
       50
102
RTVSPost2010PropOp46
 70
     1
102
RTVSPost2010Prop47
 90
       50
102
RTVSPost2010PropOp47
 70
     1
102
RTVSPost2010Prop48
 90
       50
102
RTVSPost2010PropOp48
 70
     1
102
RTVSPost2010Prop49
280
     0
102
RTVSPost2010PropOp49
 70
     1
102
RTVSPost2010Prop50
 90
       50
102
RTVSPost2010PropOp50
 70
     1
102
RTVSPost2010Prop51ColorIndex
 90
      256
102
RTVSPost2010Prop51ColorRGB
 90
-16777216
102
RTVSPost2010PropOp51
 70
     0
102
RTVSPost2010Prop52
140
1.0
102
RTVSPost2010PropOp52
 70
     0
102
RTVSPost2010Prop53
 90
        2
102
RTVSPost2010PropOp53
 70
     1
102
RTVSPost2010Prop54
  1
strokes_ogs.tif
102
RTVSPost2010PropOp54
 70
     1
102
RTVSPost2010Prop55
280
     0
102
RTVSPost2010PropOp55
 70
     1
102
RTVSPost2010Prop56
140
1.0
102
RTVSPost2010PropOp56
 70
     1
102
RTVSPost2010Prop57
140
1.0
102
RTVSPost2010PropOp57
 70
     1
  0
XRECORD
  5
442
102
{ACAD_REACTORS
330
441
102
}
330
441
100
AcDbXrecord
280
     1
102
RTVSPropertyOp0
 70
     0
102
RTVSPropertyOp1
 70
     0
102
RTVSPropertyOp2
 70
     0
102
RTVSPropertyOp3
 70
     0
102
RTVSPropertyOp4
 70
     0
102
RTVSPropertyOp5
 70
     0
102
RTVSPropertyOp6
 70
     0
102
RTVSPropertyOp7
 70
     0
102
RTVSPropertyOp8
 70
     0
102
RTVSPropertyOp9
 70
     0
102
RTVSPropertyOp10
 70
     0
102
RTVSPropertyOp11
 70
     0
102
RTVSPropertyOp12
 70
     0
102
RTVSPropertyOp13
 70
     0
102
RTVSPropertyOp14
 70
     2
102
RTVSPropertyOp15
 70
     0
102
RTVSPropertyOp16
 70
     0
102
RTVSPropertyOp17
 70
     0
102
RTVSPropertyOp18
 70
     0
102
RTVSPropertyOp19
 70
     0
102
RTVSPropertyOp20
 70
     0
102
RTVSPropertyOp21
 70
     0
102
RTVSPropertyOp22
 70
     0
102
RTVSPropertyOp23
 70
     0
102
RTVSPropertyOp24
 70
     0
102
RTVSPropertyOp25
 70
     0
102
RTVSPropertyOp26
 70
     0
102
RTVSPropertyOp27
 70
     0
102
RTVSPropertyOp28
 70
     0
102
RTVSPropertyOp29
 70
     0
102
RTVSPropertyOp30
 70
     0
102
RTVSPropertyOp31
 70
     0
102
RTVSPropertyOp32
 70
     0
102
RTVSPropertyOp33
 70
     0
102
RTVSPropertyOp34
 70
     0
102
RTVSPropertyOp35
 70
     0
102
RTVSPropertyOp36
 70
     0
102
RTVSPropertyOp37
 70
     0
102
RTVSPropertyOp38
 70
     0
102
RTVSPropertyOp39
 70
     0
102
RTVSPropertyOp40
 70
     0
102
RTVSPropertyOp41
 70
     0
102
RTVSPropertyOp42
 70
     0
102
RTVSPropertyOp43
 70
     0
102
RTVSPropertyOp44
 70
     0
102
RTVSPropertyOp45
 70
     0
102
RTVSPropertyOp46
 70
     0
102
RTVSPropertyOp47
 70
     0
102
RTVSPropertyOp48
 70
     0
102
RTVSPropertyOp49
 70
     0
102
RTVSPropertyOp50
 70
     0
102
RTVSPropertyOp51
 70
     0
102
RTVSPropertyOp52
 70
     0
102
RTVSPropertyOp53
 70
     0
102
RTVSPropertyOp54
 70
     0
102
RTVSPropertyOp55
 70
     0
102
RTVSPropertyOp56
 70
     0
102
RTVSPropertyOp57
 70
     0
102
RTVSPost2010Prop28
280
     0
102
RTVSPost2010PropOp28
 70
     0
102
RTVSPost2010Prop29
280
     1
102
RTVSPost2010PropOp29
 70
     0
102
RTVSPost2010Prop30
280
     1
102
RTVSPost2010PropOp30
 70
     0
102
RTVSPost2010Prop31
280
     0
102
RTVSPost2010PropOp31
 70
     0
102
RTVSPost2010Prop32
280
     0
102
RTVSPost2010PropOp32
 70
     0
102
RTVSPost2010Prop33
280
     0
102
RTVSPost2010PropOp33
 70
     0
102
RTVSPost2010Prop34
280
     0
102
RTVSPost2010PropOp34
 70
     0
102
RTVSPost2010Prop35
280
     0
102
RTVSPost2010PropOp35
 70
     0
102
RTVSPost2010Prop36
280
     0
102
RTVSPost2010PropOp36
 70
     0
102
RTVSPost2010Prop37
 90
       50
102
RTVSPost2010PropOp37
 70
     0
102
RTVSPost2010Prop38
140
0.0
102
RTVSPost2010PropOp38
 70
     0
102
RTVSPost2010Prop39
140
1.0
102
RTVSPost2010PropOp39
 70
     0
102
RTVSPost2010Prop40
 90
        0
102
RTVSPost2010PropOp40
 70
     0
102
RTVSPost2010Prop41ColorIndex
 90
       18
102
RTVSPost2010Prop41ColorRGB
 90
        0
102
RTVSPost2010PropOp41
 70
     0
102
RTVSPost2010Prop42
 90
       50
102
RTVSPost2010PropOp42
 70
     0
102
RTVSPost2010Prop43
 90
        3
102
RTVSPost2010PropOp43
 70
     0
102
RTVSPost2010Prop44ColorIndex
 90
        5
102
RTVSPost2010Prop44ColorRGB
 90
      255
102
RTVSPost2010PropOp44
 70
     0
102
RTVSPost2010Prop45
280
     0
102
RTVSPost2010PropOp45
 70
     0
102
RTVSPost2010Prop46
 90
       50
102
RTVSPost2010PropOp46
 70
     0
102
RTVSPost2010Prop47
 90
       50
102
RTVSPost2010PropOp47
 70
     0
102
RTVSPost2010Prop48
 90
       50
102
RTVSPost2010PropOp48
 70
     0
102
RTVSPost2010Prop49
280
     0
102
RTVSPost2010PropOp49
 70
     0
102
RTVSPost2010Prop50
 90
       50
102
RTVSPost2010PropOp50
 70
     0
102
RTVSPost2010Prop51ColorIndex
 90
      256
102
RTVSPost2010Prop51ColorRGB
 90
-16777216
102
RTVSPost2010PropOp51
 70
     0
102
RTVSPost2010Prop52
140
1.0
102
RTVSPost2010PropOp52
 70
     0
102
RTVSPost2010Prop53
 90
        2
102
RTVSPost2010PropOp53
 70
     0
102
RTVSPost2010Prop54
  1
strokes_ogs.tif
102
RTVSPost2010PropOp54
 70
     0
102
RTVSPost2010Prop55
280
     0
102
RTVSPost2010PropOp55
 70
     0
102
RTVSPost2010Prop56
140
1.0
102
RTVSPost2010PropOp56
 70
     0
102
RTVSPost2010Prop57
140
1.0
102
RTVSPost2010PropOp57
 70
     0
  0
XRECORD
  5
43C
102
{ACAD_REACTORS
330
43B
102
}
330
43B
100
AcDbXrecord
280
     1
102
RTVSPropertyOp0
 70
     1
102
RTVSPropertyOp1
 70
     1
102
RTVSPropertyOp2
 70
     1
102
RTVSPropertyOp3
 70
     1
102
RTVSPropertyOp4
 70
     1
102
RTVSPropertyOp5
 70
     1
102
RTVSPropertyOp6
 70
     1
102
RTVSPropertyOp7
 70
     1
102
RTVSPropertyOp8
 70
     1
102
RTVSPropertyOp9
 70
     1
102
RTVSPropertyOp10
 70
     1
102
RTVSPropertyOp11
 70
     1
102
RTVSPropertyOp12
 70
     1
102
RTVSPropertyOp13
 70
     1
102
RTVSPropertyOp14
 70
     1
102
RTVSPropertyOp15
 70
     1
102
RTVSPropertyOp16
 70
     1
102
RTVSPropertyOp17
 70
     1
102
RTVSPropertyOp18
 70
     1
102
RTVSPropertyOp19
 70
     1
102
RTVSPropertyOp20
 70
     1
102
RTVSPropertyOp21
 70
     1
102
RTVSPropertyOp22
 70
     1
102
RTVSPropertyOp23
 70
     1
102
RTVSPropertyOp24
 70
     1
102
RTVSPropertyOp25
 70
     1
102
RTVSPropertyOp26
 70
     1
102
RTVSPropertyOp27
 70
     1
102
RTVSPropertyOp28
 70
     1
102
RTVSPropertyOp29
 70
     1
102
RTVSPropertyOp30
 70
     1
102
RTVSPropertyOp31
 70
     1
102
RTVSPropertyOp32
 70
     1
102
RTVSPropertyOp33
 70
     1
102
RTVSPropertyOp34
 70
     1
102
RTVSPropertyOp35
 70
     1
102
RTVSPropertyOp36
 70
     1
102
RTVSPropertyOp37
 70
     1
102
RTVSPropertyOp38
 70
     1
102
RTVSPropertyOp39
 70
     1
102
RTVSPropertyOp40
 70
     1
102
RTVSPropertyOp41
 70
     1
102
RTVSPropertyOp42
 70
     1
102
RTVSPropertyOp43
 70
     1
102
RTVSPropertyOp44
 70
     1
102
RTVSPropertyOp45
 70
     1
102
RTVSPropertyOp46
 70
     1
102
RTVSPropertyOp47
 70
     1
102
RTVSPropertyOp48
 70
     1
102
RTVSPropertyOp49
 70
     1
102
RTVSPropertyOp50
 70
     1
102
RTVSPropertyOp51
 70
     0
102
RTVSPropertyOp52
 70
     0
102
RTVSPropertyOp53
 70
     1
102
RTVSPropertyOp54
 70
     1
102
RTVSPropertyOp55
 70
     1
102
RTVSPropertyOp56
 70
     1
102
RTVSPropertyOp57
 70
     1
102
RTVSPost2010Prop28
280
     0
102
RTVSPost2010PropOp28
 70
     1
102
RTVSPost2010Prop29
280
     1
102
RTVSPost2010PropOp29
 70
     1
102
RTVSPost2010Prop30
280
     1
102
RTVSPost2010PropOp30
 70
     1
102
RTVSPost2010Prop31
280
     0
102
RTVSPost2010PropOp31
 70
     1
102
RTVSPost2010Prop32
280
     0
102
RTVSPost2010PropOp32
 70
     1
102
RTVSPost2010Prop33
280
     0
102
RTVSPost2010PropOp33
 70
     1
102
RTVSPost2010Prop34
280
     0
102
RTVSPost2010PropOp34
 70
     1
102
RTVSPost2010Prop35
280
     0
102
RTVSPost2010PropOp35
 70
     1
102
RTVSPost2010Prop36
280
     0
102
RTVSPost2010PropOp36
 70
     1
102
RTVSPost2010Prop37
 90
       50
102
RTVSPost2010PropOp37
 70
     1
102
RTVSPost2010Prop38
140
0.0
102
RTVSPost2010PropOp38
 70
     1
102
RTVSPost2010Prop39
140
1.0
102
RTVSPost2010PropOp39
 70
     1
102
RTVSPost2010Prop40
 90
        0
102
RTVSPost2010PropOp40
 70
     1
102
RTVSPost2010Prop41ColorIndex
 90
       18
102
RTVSPost2010Prop41ColorRGB
 90
        0
102
RTVSPost2010PropOp41
 70
     1
102
RTVSPost2010Prop42
 90
       50
102
RTVSPost2010PropOp42
 70
     1
102
RTVSPost2010Prop43
 90
        3
102
RTVSPost2010PropOp43
 70
     1
102
RTVSPost2010Prop44ColorIndex
 90
        5
102
RTVSPost2010Prop44ColorRGB
 90
      255
102
RTVSPost2010PropOp44
 70
     1
102
RTVSPost2010Prop45
280
     0
102
RTVSPost2010PropOp45
 70
     1
102
RTVSPost2010Prop46
 90
       50
102
RTVSPost2010PropOp46
 70
     1
102
RTVSPost2010Prop47
 90
       50
102
RTVSPost2010PropOp47
 70
     1
102
RTVSPost2010Prop48
 90
       50
102
RTVSPost2010PropOp48
 70
     1
102
RTVSPost2010Prop49
280
     0
102
RTVSPost2010PropOp49
 70
     1
102
RTVSPost2010Prop50
 90
       50
102
RTVSPost2010PropOp50
 70
     1
102
RTVSPost2010Prop51ColorIndex
 90
      256
102
RTVSPost2010Prop51ColorRGB
 90
-16777216
102
RTVSPost2010PropOp51
 70
     0
102
RTVSPost2010Prop52
140
1.0
102
RTVSPost2010PropOp52
 70
     0
102
RTVSPost2010Prop53
 90
        2
102
RTVSPost2010PropOp53
 70
     1
102
RTVSPost2010Prop54
  1
strokes_ogs.tif
102
RTVSPost2010PropOp54
 70
     1
102
RTVSPost2010Prop55
280
     0
102
RTVSPost2010PropOp55
 70
     1
102
RTVSPost2010Prop56
140
1.0
102
RTVSPost2010PropOp56
 70
     1
102
RTVSPost2010Prop57
140
1.0
102
RTVSPost2010PropOp57
 70
     1
  0
XRECORD
  5
444
102
{ACAD_REACTORS
330
443
102
}
330
443
100
AcDbXrecord
280
     1
102
RTVSPropertyOp0
 70
     0
102
RTVSPropertyOp1
 70
     0
102
RTVSPropertyOp2
 70
     0
102
RTVSPropertyOp3
 70
     0
102
RTVSPropertyOp4
 70
     0
102
RTVSPropertyOp5
 70
     0
102
RTVSPropertyOp6
 70
     0
102
RTVSPropertyOp7
 70
     0
102
RTVSPropertyOp8
 70
     0
102
RTVSPropertyOp9
 70
     0
102
RTVSPropertyOp10
 70
     0
102
RTVSPropertyOp11
 70
     0
102
RTVSPropertyOp12
 70
     0
102
RTVSPropertyOp13
 70
     0
102
RTVSPropertyOp14
 70
     2
102
RTVSPropertyOp15
 70
     0
102
RTVSPropertyOp16
 70
     0
102
RTVSPropertyOp17
 70
     0
102
RTVSPropertyOp18
 70
     0
102
RTVSPropertyOp19
 70
     0
102
RTVSPropertyOp20
 70
     0
102
RTVSPropertyOp21
 70
     0
102
RTVSPropertyOp22
 70
     0
102
RTVSPropertyOp23
 70
     0
102
RTVSPropertyOp24
 70
     0
102
RTVSPropertyOp25
 70
     0
102
RTVSPropertyOp26
 70
     0
102
RTVSPropertyOp27
 70
     0
102
RTVSPropertyOp28
 70
     0
102
RTVSPropertyOp29
 70
     0
102
RTVSPropertyOp30
 70
     0
102
RTVSPropertyOp31
 70
     0
102
RTVSPropertyOp32
 70
     0
102
RTVSPropertyOp33
 70
     0
102
RTVSPropertyOp34
 70
     0
102
RTVSPropertyOp35
 70
     0
102
RTVSPropertyOp36
 70
     0
102
RTVSPropertyOp37
 70
     0
102
RTVSPropertyOp38
 70
     0
102
RTVSPropertyOp39
 70
     0
102
RTVSPropertyOp40
 70
     0
102
RTVSPropertyOp41
 70
     0
102
RTVSPropertyOp42
 70
     0
102
RTVSPropertyOp43
 70
     0
102
RTVSPropertyOp44
 70
     0
102
RTVSPropertyOp45
 70
     0
102
RTVSPropertyOp46
 70
     0
102
RTVSPropertyOp47
 70
     0
102
RTVSPropertyOp48
 70
     0
102
RTVSPropertyOp49
 70
     0
102
RTVSPropertyOp50
 70
     0
102
RTVSPropertyOp51
 70
     0
102
RTVSPropertyOp52
 70
     0
102
RTVSPropertyOp53
 70
     0
102
RTVSPropertyOp54
 70
     0
102
RTVSPropertyOp55
 70
     0
102
RTVSPropertyOp56
 70
     0
102
RTVSPropertyOp57
 70
     0
102
RTVSPost2010Prop28
280
     0
102
RTVSPost2010PropOp28
 70
     0
102
RTVSPost2010Prop29
280
     1
102
RTVSPost2010PropOp29
 70
     0
102
RTVSPost2010Prop30
280
     1
102
RTVSPost2010PropOp30
 70
     0
102
RTVSPost2010Prop31
280
     0
102
RTVSPost2010PropOp31
 70
     0
102
RTVSPost2010Prop32
280
     0
102
RTVSPost2010PropOp32
 70
     0
102
RTVSPost2010Prop33
280
     0
102
RTVSPost2010PropOp33
 70
     0
102
RTVSPost2010Prop34
280
     0
102
RTVSPost2010PropOp34
 70
     0
102
RTVSPost2010Prop35
280
     0
102
RTVSPost2010PropOp35
 70
     0
102
RTVSPost2010Prop36
280
     0
102
RTVSPost2010PropOp36
 70
     0
102
RTVSPost2010Prop37
 90
       50
102
RTVSPost2010PropOp37
 70
     0
102
RTVSPost2010Prop38
140
0.0
102
RTVSPost2010PropOp38
 70
     0
102
RTVSPost2010Prop39
140
1.0
102
RTVSPost2010PropOp39
 70
     0
102
RTVSPost2010Prop40
 90
        0
102
RTVSPost2010PropOp40
 70
     0
102
RTVSPost2010Prop41ColorIndex
 90
       18
102
RTVSPost2010Prop41ColorRGB
 90
        0
102
RTVSPost2010PropOp41
 70
     0
102
RTVSPost2010Prop42
 90
       50
102
RTVSPost2010PropOp42
 70
     0
102
RTVSPost2010Prop43
 90
        3
102
RTVSPost2010PropOp43
 70
     0
102
RTVSPost2010Prop44ColorIndex
 90
        5
102
RTVSPost2010Prop44ColorRGB
 90
      255
102
RTVSPost2010PropOp44
 70
     0
102
RTVSPost2010Prop45
280
     0
102
RTVSPost2010PropOp45
 70
     0
102
RTVSPost2010Prop46
 90
       50
102
RTVSPost2010PropOp46
 70
     0
102
RTVSPost2010Prop47
 90
       50
102
RTVSPost2010PropOp47
 70
     0
102
RTVSPost2010Prop48
 90
       50
102
RTVSPost2010PropOp48
 70
     0
102
RTVSPost2010Prop49
280
     0
102
RTVSPost2010PropOp49
 70
     0
102
RTVSPost2010Prop50
 90
       50
102
RTVSPost2010PropOp50
 70
     0
102
RTVSPost2010Prop51ColorIndex
 90
      256
102
RTVSPost2010Prop51ColorRGB
 90
-16777216
102
RTVSPost2010PropOp51
 70
     0
102
RTVSPost2010Prop52
140
1.0
102
RTVSPost2010PropOp52
 70
     0
102
RTVSPost2010Prop53
 90
        2
102
RTVSPost2010PropOp53
 70
     0
102
RTVSPost2010Prop54
  1
strokes_ogs.tif
102
RTVSPost2010PropOp54
 70
     0
102
RTVSPost2010Prop55
280
     0
102
RTVSPost2010PropOp55
 70
     0
102
RTVSPost2010Prop56
140
1.0
102
RTVSPost2010PropOp56
 70
     0
102
RTVSPost2010Prop57
140
1.0
102
RTVSPost2010PropOp57
 70
     0
  0
XRECORD
  5
432
102
{ACAD_REACTORS
330
431
102
}
330
431
100
AcDbXrecord
280
     1
102
RTVSPropertyOp0
 70
     1
102
RTVSPropertyOp1
 70
     1
102
RTVSPropertyOp2
 70
     1
102
RTVSPropertyOp3
 70
     1
102
RTVSPropertyOp4
 70
     1
102
RTVSPropertyOp5
 70
     1
102
RTVSPropertyOp6
 70
     1
102
RTVSPropertyOp7
 70
     1
102
RTVSPropertyOp8
 70
     1
102
RTVSPropertyOp9
 70
     1
102
RTVSPropertyOp10
 70
     1
102
RTVSPropertyOp11
 70
     1
102
RTVSPropertyOp12
 70
     1
102
RTVSPropertyOp13
 70
     1
102
RTVSPropertyOp14
 70
     1
102
RTVSPropertyOp15
 70
     1
102
RTVSPropertyOp16
 70
     1
102
RTVSPropertyOp17
 70
     1
102
RTVSPropertyOp18
 70
     1
102
RTVSPropertyOp19
 70
     1
102
RTVSPropertyOp20
 70
     1
102
RTVSPropertyOp21
 70
     1
102
RTVSPropertyOp22
 70
     1
102
RTVSPropertyOp23
 70
     1
102
RTVSPropertyOp24
 70
     1
102
RTVSPropertyOp25
 70
     1
102
RTVSPropertyOp26
 70
     1
102
RTVSPropertyOp27
 70
     1
102
RTVSPropertyOp28
 70
     1
102
RTVSPropertyOp29
 70
     1
102
RTVSPropertyOp30
 70
     1
102
RTVSPropertyOp31
 70
     1
102
RTVSPropertyOp32
 70
     1
102
RTVSPropertyOp33
 70
     1
102
RTVSPropertyOp34
 70
     1
102
RTVSPropertyOp35
 70
     1
102
RTVSPropertyOp36
 70
     1
102
RTVSPropertyOp37
 70
     1
102
RTVSPropertyOp38
 70
     1
102
RTVSPropertyOp39
 70
     1
102
RTVSPropertyOp40
 70
     1
102
RTVSPropertyOp41
 70
     1
102
RTVSPropertyOp42
 70
     1
102
RTVSPropertyOp43
 70
     1
102
RTVSPropertyOp44
 70
     1
102
RTVSPropertyOp45
 70
     1
102
RTVSPropertyOp46
 70
     1
102
RTVSPropertyOp47
 70
     1
102
RTVSPropertyOp48
 70
     1
102
RTVSPropertyOp49
 70
     1
102
RTVSPropertyOp50
 70
     1
102
RTVSPropertyOp51
 70
     0
102
RTVSPropertyOp52
 70
     0
102
RTVSPropertyOp53
 70
     1
102
RTVSPropertyOp54
 70
     1
102
RTVSPropertyOp55
 70
     1
102
RTVSPropertyOp56
 70
     1
102
RTVSPropertyOp57
 70
     1
102
RTVSPost2010Prop28
280
     0
102
RTVSPost2010PropOp28
 70
     1
102
RTVSPost2010Prop29
280
     1
102
RTVSPost2010PropOp29
 70
     1
102
RTVSPost2010Prop30
280
     1
102
RTVSPost2010PropOp30
 70
     1
102
RTVSPost2010Prop31
280
     0
102
RTVSPost2010PropOp31
 70
     1
102
RTVSPost2010Prop32
280
     0
102
RTVSPost2010PropOp32
 70
     1
102
RTVSPost2010Prop33
280
     0
102
RTVSPost2010PropOp33
 70
     1
102
RTVSPost2010Prop34
280
     0
102
RTVSPost2010PropOp34
 70
     1
102
RTVSPost2010Prop35
280
     0
102
RTVSPost2010PropOp35
 70
     1
102
RTVSPost2010Prop36
280
     0
102
RTVSPost2010PropOp36
 70
     1
102
RTVSPost2010Prop37
 90
       50
102
RTVSPost2010PropOp37
 70
     1
102
RTVSPost2010Prop38
140
0.0
102
RTVSPost2010PropOp38
 70
     1
102
RTVSPost2010Prop39
140
1.0
102
RTVSPost2010PropOp39
 70
     1
102
RTVSPost2010Prop40
 90
        0
102
RTVSPost2010PropOp40
 70
     1
102
RTVSPost2010Prop41ColorIndex
 90
       18
102
RTVSPost2010Prop41ColorRGB
 90
        0
102
RTVSPost2010PropOp41
 70
     1
102
RTVSPost2010Prop42
 90
       50
102
RTVSPost2010PropOp42
 70
     1
102
RTVSPost2010Prop43
 90
        3
102
RTVSPost2010PropOp43
 70
     1
102
RTVSPost2010Prop44ColorIndex
 90
        5
102
RTVSPost2010Prop44ColorRGB
 90
      255
102
RTVSPost2010PropOp44
 70
     1
102
RTVSPost2010Prop45
280
     0
102
RTVSPost2010PropOp45
 70
     1
102
RTVSPost2010Prop46
 90
       50
102
RTVSPost2010PropOp46
 70
     1
102
RTVSPost2010Prop47
 90
       50
102
RTVSPost2010PropOp47
 70
     1
102
RTVSPost2010Prop48
 90
       50
102
RTVSPost2010PropOp48
 70
     1
102
RTVSPost2010Prop49
280
     0
102
RTVSPost2010PropOp49
 70
     1
102
RTVSPost2010Prop50
 90
       50
102
RTVSPost2010PropOp50
 70
     1
102
RTVSPost2010Prop51ColorIndex
 90
      256
102
RTVSPost2010Prop51ColorRGB
 90
-16777216
102
RTVSPost2010PropOp51
 70
     0
102
RTVSPost2010Prop52
140
1.0
102
RTVSPost2010PropOp52
 70
     0
102
RTVSPost2010Prop53
 90
        2
102
RTVSPost2010PropOp53
 70
     1
102
RTVSPost2010Prop54
  1
strokes_ogs.tif
102
RTVSPost2010PropOp54
 70
     1
102
RTVSPost2010Prop55
280
     0
102
RTVSPost2010PropOp55
 70
     1
102
RTVSPost2010Prop56
140
1.0
102
RTVSPost2010PropOp56
 70
     1
102
RTVSPost2010Prop57
140
1.0
102
RTVSPost2010PropOp57
 70
     1
  0
XRECORD
  5
450
102
{ACAD_REACTORS
330
44F
102
}
330
44F
100
AcDbXrecord
280
     1
102
RTVSPropertyOp0
 70
     1
102
RTVSPropertyOp1
 70
     1
102
RTVSPropertyOp2
 70
     1
102
RTVSPropertyOp3
 70
     1
102
RTVSPropertyOp4
 70
     1
102
RTVSPropertyOp5
 70
     1
102
RTVSPropertyOp6
 70
     1
102
RTVSPropertyOp7
 70
     1
102
RTVSPropertyOp8
 70
     1
102
RTVSPropertyOp9
 70
     1
102
RTVSPropertyOp10
 70
     1
102
RTVSPropertyOp11
 70
     1
102
RTVSPropertyOp12
 70
     1
102
RTVSPropertyOp13
 70
     1
102
RTVSPropertyOp14
 70
     1
102
RTVSPropertyOp15
 70
     1
102
RTVSPropertyOp16
 70
     1
102
RTVSPropertyOp17
 70
     1
102
RTVSPropertyOp18
 70
     1
102
RTVSPropertyOp19
 70
     1
102
RTVSPropertyOp20
 70
     1
102
RTVSPropertyOp21
 70
     1
102
RTVSPropertyOp22
 70
     1
102
RTVSPropertyOp23
 70
     1
102
RTVSPropertyOp24
 70
     1
102
RTVSPropertyOp25
 70
     1
102
RTVSPropertyOp26
 70
     1
102
RTVSPropertyOp27
 70
     1
102
RTVSPropertyOp28
 70
     1
102
RTVSPropertyOp29
 70
     1
102
RTVSPropertyOp30
 70
     1
102
RTVSPropertyOp31
 70
     1
102
RTVSPropertyOp32
 70
     1
102
RTVSPropertyOp33
 70
     1
102
RTVSPropertyOp34
 70
     1
102
RTVSPropertyOp35
 70
     1
102
RTVSPropertyOp36
 70
     1
102
RTVSPropertyOp37
 70
     1
102
RTVSPropertyOp38
 70
     1
102
RTVSPropertyOp39
 70
     1
102
RTVSPropertyOp40
 70
     1
102
RTVSPropertyOp41
 70
     1
102
RTVSPropertyOp42
 70
     1
102
RTVSPropertyOp43
 70
     1
102
RTVSPropertyOp44
 70
     1
102
RTVSPropertyOp45
 70
     1
102
RTVSPropertyOp46
 70
     1
102
RTVSPropertyOp47
 70
     1
102
RTVSPropertyOp48
 70
     1
102
RTVSPropertyOp49
 70
     1
102
RTVSPropertyOp50
 70
     1
102
RTVSPropertyOp51
 70
     0
102
RTVSPropertyOp52
 70
     0
102
RTVSPropertyOp53
 70
     1
102
RTVSPropertyOp54
 70
     1
102
RTVSPropertyOp55
 70
     1
102
RTVSPropertyOp56
 70
     1
102
RTVSPropertyOp57
 70
     1
102
RTVSPost2010Prop28
280
     0
102
RTVSPost2010PropOp28
 70
     1
102
RTVSPost2010Prop29
280
     1
102
RTVSPost2010PropOp29
 70
     1
102
RTVSPost2010Prop30
280
     1
102
RTVSPost2010PropOp30
 70
     1
102
RTVSPost2010Prop31
280
     0
102
RTVSPost2010PropOp31
 70
     1
102
RTVSPost2010Prop32
280
     0
102
RTVSPost2010PropOp32
 70
     1
102
RTVSPost2010Prop33
280
     0
102
RTVSPost2010PropOp33
 70
     1
102
RTVSPost2010Prop34
280
     0
102
RTVSPost2010PropOp34
 70
     1
102
RTVSPost2010Prop35
280
     0
102
RTVSPost2010PropOp35
 70
     1
102
RTVSPost2010Prop36
280
     0
102
RTVSPost2010PropOp36
 70
     1
102
RTVSPost2010Prop37
 90
       50
102
RTVSPost2010PropOp37
 70
     1
102
RTVSPost2010Prop38
140
0.0
102
RTVSPost2010PropOp38
 70
     1
102
RTVSPost2010Prop39
140
1.0
102
RTVSPost2010PropOp39
 70
     1
102
RTVSPost2010Prop40
 90
        0
102
RTVSPost2010PropOp40
 70
     1
102
RTVSPost2010Prop41ColorIndex
 90
       18
102
RTVSPost2010Prop41ColorRGB
 90
        0
102
RTVSPost2010PropOp41
 70
     1
102
RTVSPost2010Prop42
 90
       50
102
RTVSPost2010PropOp42
 70
     1
102
RTVSPost2010Prop43
 90
        3
102
RTVSPost2010PropOp43
 70
     1
102
RTVSPost2010Prop44ColorIndex
 90
        5
102
RTVSPost2010Prop44ColorRGB
 90
      255
102
RTVSPost2010PropOp44
 70
     1
102
RTVSPost2010Prop45
280
     0
102
RTVSPost2010PropOp45
 70
     1
102
RTVSPost2010Prop46
 90
       50
102
RTVSPost2010PropOp46
 70
     1
102
RTVSPost2010Prop47
 90
       50
102
RTVSPost2010PropOp47
 70
     1
102
RTVSPost2010Prop48
 90
       50
102
RTVSPost2010PropOp48
 70
     1
102
RTVSPost2010Prop49
280
     0
102
RTVSPost2010PropOp49
 70
     1
102
RTVSPost2010Prop50
 90
       50
102
RTVSPost2010PropOp50
 70
     1
102
RTVSPost2010Prop51ColorIndex
 90
      256
102
RTVSPost2010Prop51ColorRGB
 90
-16777216
102
RTVSPost2010PropOp51
 70
     0
102
RTVSPost2010Prop52
140
1.0
102
RTVSPost2010PropOp52
 70
     0
102
RTVSPost2010Prop53
 90
        2
102
RTVSPost2010PropOp53
 70
     1
102
RTVSPost2010Prop54
  1
strokes_ogs.tif
102
RTVSPost2010PropOp54
 70
     1
102
RTVSPost2010Prop55
280
     0
102
RTVSPost2010PropOp55
 70
     1
102
RTVSPost2010Prop56
140
1.0
102
RTVSPost2010PropOp56
 70
     1
102
RTVSPost2010Prop57
140
1.0
102
RTVSPost2010PropOp57
 70
     1
  0
XRECORD
  5
44E
102
{ACAD_REACTORS
330
44D
102
}
330
44D
100
AcDbXrecord
280
     1
102
RTVSPropertyOp0
 70
     1
102
RTVSPropertyOp1
 70
     1
102
RTVSPropertyOp2
 70
     1
102
RTVSPropertyOp3
 70
     1
102
RTVSPropertyOp4
 70
     1
102
RTVSPropertyOp5
 70
     1
102
RTVSPropertyOp6
 70
     1
102
RTVSPropertyOp7
 70
     1
102
RTVSPropertyOp8
 70
     1
102
RTVSPropertyOp9
 70
     1
102
RTVSPropertyOp10
 70
     1
102
RTVSPropertyOp11
 70
     1
102
RTVSPropertyOp12
 70
     1
102
RTVSPropertyOp13
 70
     1
102
RTVSPropertyOp14
 70
     1
102
RTVSPropertyOp15
 70
     1
102
RTVSPropertyOp16
 70
     1
102
RTVSPropertyOp17
 70
     1
102
RTVSPropertyOp18
 70
     1
102
RTVSPropertyOp19
 70
     1
102
RTVSPropertyOp20
 70
     1
102
RTVSPropertyOp21
 70
     1
102
RTVSPropertyOp22
 70
     1
102
RTVSPropertyOp23
 70
     1
102
RTVSPropertyOp24
 70
     1
102
RTVSPropertyOp25
 70
     1
102
RTVSPropertyOp26
 70
     1
102
RTVSPropertyOp27
 70
     1
102
RTVSPropertyOp28
 70
     1
102
RTVSPropertyOp29
 70
     1
102
RTVSPropertyOp30
 70
     1
102
RTVSPropertyOp31
 70
     1
102
RTVSPropertyOp32
 70
     1
102
RTVSPropertyOp33
 70
     1
102
RTVSPropertyOp34
 70
     1
102
RTVSPropertyOp35
 70
     1
102
RTVSPropertyOp36
 70
     1
102
RTVSPropertyOp37
 70
     1
102
RTVSPropertyOp38
 70
     1
102
RTVSPropertyOp39
 70
     1
102
RTVSPropertyOp40
 70
     1
102
RTVSPropertyOp41
 70
     1
102
RTVSPropertyOp42
 70
     1
102
RTVSPropertyOp43
 70
     1
102
RTVSPropertyOp44
 70
     1
102
RTVSPropertyOp45
 70
     1
102
RTVSPropertyOp46
 70
     1
102
RTVSPropertyOp47
 70
     1
102
RTVSPropertyOp48
 70
     1
102
RTVSPropertyOp49
 70
     1
102
RTVSPropertyOp50
 70
     1
102
RTVSPropertyOp51
 70
     0
102
RTVSPropertyOp52
 70
     0
102
RTVSPropertyOp53
 70
     1
102
RTVSPropertyOp54
 70
     1
102
RTVSPropertyOp55
 70
     1
102
RTVSPropertyOp56
 70
     1
102
RTVSPropertyOp57
 70
     1
102
RTVSPost2010Prop28
280
     0
102
RTVSPost2010PropOp28
 70
     1
102
RTVSPost2010Prop29
280
     1
102
RTVSPost2010PropOp29
 70
     1
102
RTVSPost2010Prop30
280
     1
102
RTVSPost2010PropOp30
 70
     1
102
RTVSPost2010Prop31
280
     0
102
RTVSPost2010PropOp31
 70
     1
102
RTVSPost2010Prop32
280
     0
102
RTVSPost2010PropOp32
 70
     1
102
RTVSPost2010Prop33
280
     0
102
RTVSPost2010PropOp33
 70
     1
102
RTVSPost2010Prop34
280
     0
102
RTVSPost2010PropOp34
 70
     1
102
RTVSPost2010Prop35
280
     0
102
RTVSPost2010PropOp35
 70
     1
102
RTVSPost2010Prop36
280
     0
102
RTVSPost2010PropOp36
 70
     1
102
RTVSPost2010Prop37
 90
       50
102
RTVSPost2010PropOp37
 70
     1
102
RTVSPost2010Prop38
140
0.0
102
RTVSPost2010PropOp38
 70
     1
102
RTVSPost2010Prop39
140
1.0
102
RTVSPost2010PropOp39
 70
     1
102
RTVSPost2010Prop40
 90
        0
102
RTVSPost2010PropOp40
 70
     1
102
RTVSPost2010Prop41ColorIndex
 90
       18
102
RTVSPost2010Prop41ColorRGB
 90
        0
102
RTVSPost2010PropOp41
 70
     1
102
RTVSPost2010Prop42
 90
       50
102
RTVSPost2010PropOp42
 70
     1
102
RTVSPost2010Prop43
 90
        3
102
RTVSPost2010PropOp43
 70
     1
102
RTVSPost2010Prop44ColorIndex
 90
        5
102
RTVSPost2010Prop44ColorRGB
 90
      255
102
RTVSPost2010PropOp44
 70
     1
102
RTVSPost2010Prop45
280
     0
102
RTVSPost2010PropOp45
 70
     1
102
RTVSPost2010Prop46
 90
       50
102
RTVSPost2010PropOp46
 70
     1
102
RTVSPost2010Prop47
 90
       50
102
RTVSPost2010PropOp47
 70
     1
102
RTVSPost2010Prop48
 90
       50
102
RTVSPost2010PropOp48
 70
     1
102
RTVSPost2010Prop49
280
     0
102
RTVSPost2010PropOp49
 70
     1
102
RTVSPost2010Prop50
 90
       50
102
RTVSPost2010PropOp50
 70
     1
102
RTVSPost2010Prop51ColorIndex
 90
      256
102
RTVSPost2010Prop51ColorRGB
 90
-16777216
102
RTVSPost2010PropOp51
 70
     0
102
RTVSPost2010Prop52
140
1.0
102
RTVSPost2010PropOp52
 70
     0
102
RTVSPost2010Prop53
 90
        2
102
RTVSPost2010PropOp53
 70
     1
102
RTVSPost2010Prop54
  1
strokes_ogs.tif
102
RTVSPost2010PropOp54
 70
     1
102
RTVSPost2010Prop55
280
     0
102
RTVSPost2010PropOp55
 70
     1
102
RTVSPost2010Prop56
140
1.0
102
RTVSPost2010PropOp56
 70
     1
102
RTVSPost2010Prop57
140
1.0
102
RTVSPost2010PropOp57
 70
     1
  0
XRECORD
  5
448
102
{ACAD_REACTORS
330
447
102
}
330
447
100
AcDbXrecord
280
     1
102
RTVSPropertyOp0
 70
     1
102
RTVSPropertyOp1
 70
     1
102
RTVSPropertyOp2
 70
     1
102
RTVSPropertyOp3
 70
     1
102
RTVSPropertyOp4
 70
     1
102
RTVSPropertyOp5
 70
     1
102
RTVSPropertyOp6
 70
     1
102
RTVSPropertyOp7
 70
     1
102
RTVSPropertyOp8
 70
     1
102
RTVSPropertyOp9
 70
     1
102
RTVSPropertyOp10
 70
     1
102
RTVSPropertyOp11
 70
     1
102
RTVSPropertyOp12
 70
     1
102
RTVSPropertyOp13
 70
     1
102
RTVSPropertyOp14
 70
     1
102
RTVSPropertyOp15
 70
     1
102
RTVSPropertyOp16
 70
     1
102
RTVSPropertyOp17
 70
     1
102
RTVSPropertyOp18
 70
     1
102
RTVSPropertyOp19
 70
     1
102
RTVSPropertyOp20
 70
     1
102
RTVSPropertyOp21
 70
     1
102
RTVSPropertyOp22
 70
     1
102
RTVSPropertyOp23
 70
     1
102
RTVSPropertyOp24
 70
     1
102
RTVSPropertyOp25
 70
     1
102
RTVSPropertyOp26
 70
     1
102
RTVSPropertyOp27
 70
     1
102
RTVSPropertyOp28
 70
     1
102
RTVSPropertyOp29
 70
     1
102
RTVSPropertyOp30
 70
     1
102
RTVSPropertyOp31
 70
     1
102
RTVSPropertyOp32
 70
     1
102
RTVSPropertyOp33
 70
     1
102
RTVSPropertyOp34
 70
     1
102
RTVSPropertyOp35
 70
     1
102
RTVSPropertyOp36
 70
     1
102
RTVSPropertyOp37
 70
     1
102
RTVSPropertyOp38
 70
     1
102
RTVSPropertyOp39
 70
     1
102
RTVSPropertyOp40
 70
     1
102
RTVSPropertyOp41
 70
     1
102
RTVSPropertyOp42
 70
     1
102
RTVSPropertyOp43
 70
     1
102
RTVSPropertyOp44
 70
     1
102
RTVSPropertyOp45
 70
     1
102
RTVSPropertyOp46
 70
     1
102
RTVSPropertyOp47
 70
     1
102
RTVSPropertyOp48
 70
     1
102
RTVSPropertyOp49
 70
     1
102
RTVSPropertyOp50
 70
     1
102
RTVSPropertyOp51
 70
     0
102
RTVSPropertyOp52
 70
     0
102
RTVSPropertyOp53
 70
     1
102
RTVSPropertyOp54
 70
     1
102
RTVSPropertyOp55
 70
     1
102
RTVSPropertyOp56
 70
     1
102
RTVSPropertyOp57
 70
     1
102
RTVSPost2010Prop28
280
     0
102
RTVSPost2010PropOp28
 70
     1
102
RTVSPost2010Prop29
280
     1
102
RTVSPost2010PropOp29
 70
     1
102
RTVSPost2010Prop30
280
     1
102
RTVSPost2010PropOp30
 70
     1
102
RTVSPost2010Prop31
280
     0
102
RTVSPost2010PropOp31
 70
     1
102
RTVSPost2010Prop32
280
     0
102
RTVSPost2010PropOp32
 70
     1
102
RTVSPost2010Prop33
280
     0
102
RTVSPost2010PropOp33
 70
     1
102
RTVSPost2010Prop34
280
     0
102
RTVSPost2010PropOp34
 70
     1
102
RTVSPost2010Prop35
280
     0
102
RTVSPost2010PropOp35
 70
     1
102
RTVSPost2010Prop36
280
     0
102
RTVSPost2010PropOp36
 70
     1
102
RTVSPost2010Prop37
 90
       50
102
RTVSPost2010PropOp37
 70
     1
102
RTVSPost2010Prop38
140
0.0
102
RTVSPost2010PropOp38
 70
     1
102
RTVSPost2010Prop39
140
1.0
102
RTVSPost2010PropOp39
 70
     1
102
RTVSPost2010Prop40
 90
        0
102
RTVSPost2010PropOp40
 70
     1
102
RTVSPost2010Prop41ColorIndex
 90
       18
102
RTVSPost2010Prop41ColorRGB
 90
        0
102
RTVSPost2010PropOp41
 70
     1
102
RTVSPost2010Prop42
 90
       50
102
RTVSPost2010PropOp42
 70
     1
102
RTVSPost2010Prop43
 90
        3
102
RTVSPost2010PropOp43
 70
     1
102
RTVSPost2010Prop44ColorIndex
 90
        5
102
RTVSPost2010Prop44ColorRGB
 90
      255
102
RTVSPost2010PropOp44
 70
     1
102
RTVSPost2010Prop45
280
     0
102
RTVSPost2010PropOp45
 70
     1
102
RTVSPost2010Prop46
 90
       50
102
RTVSPost2010PropOp46
 70
     1
102
RTVSPost2010Prop47
 90
       50
102
RTVSPost2010PropOp47
 70
     1
102
RTVSPost2010Prop48
 90
       50
102
RTVSPost2010PropOp48
 70
     1
102
RTVSPost2010Prop49
280
     0
102
RTVSPost2010PropOp49
 70
     1
102
RTVSPost2010Prop50
 90
       50
102
RTVSPost2010PropOp50
 70
     1
102
RTVSPost2010Prop51ColorIndex
 90
      256
102
RTVSPost2010Prop51ColorRGB
 90
-16777216
102
RTVSPost2010PropOp51
 70
     0
102
RTVSPost2010Prop52
140
1.0
102
RTVSPost2010PropOp52
 70
     0
102
RTVSPost2010Prop53
 90
        2
102
RTVSPost2010PropOp53
 70
     1
102
RTVSPost2010Prop54
  1
strokes_ogs.tif
102
RTVSPost2010PropOp54
 70
     1
102
RTVSPost2010Prop55
280
     0
102
RTVSPost2010PropOp55
 70
     1
102
RTVSPost2010Prop56
140
1.0
102
RTVSPost2010PropOp56
 70
     1
102
RTVSPost2010Prop57
140
1.0
102
RTVSPost2010PropOp57
 70
     1
  0
XRECORD
  5
44A
102
{ACAD_REACTORS
330
449
102
}
330
449
100
AcDbXrecord
280
     1
102
RTVSPropertyOp0
 70
     1
102
RTVSPropertyOp1
 70
     1
102
RTVSPropertyOp2
 70
     1
102
RTVSPropertyOp3
 70
     1
102
RTVSPropertyOp4
 70
     1
102
RTVSPropertyOp5
 70
     1
102
RTVSPropertyOp6
 70
     1
102
RTVSPropertyOp7
 70
     1
102
RTVSPropertyOp8
 70
     1
102
RTVSPropertyOp9
 70
     1
102
RTVSPropertyOp10
 70
     1
102
RTVSPropertyOp11
 70
     1
102
RTVSPropertyOp12
 70
     1
102
RTVSPropertyOp13
 70
     1
102
RTVSPropertyOp14
 70
     1
102
RTVSPropertyOp15
 70
     1
102
RTVSPropertyOp16
 70
     1
102
RTVSPropertyOp17
 70
     1
102
RTVSPropertyOp18
 70
     1
102
RTVSPropertyOp19
 70
     1
102
RTVSPropertyOp20
 70
     1
102
RTVSPropertyOp21
 70
     1
102
RTVSPropertyOp22
 70
     1
102
RTVSPropertyOp23
 70
     1
102
RTVSPropertyOp24
 70
     1
102
RTVSPropertyOp25
 70
     1
102
RTVSPropertyOp26
 70
     1
102
RTVSPropertyOp27
 70
     1
102
RTVSPropertyOp28
 70
     1
102
RTVSPropertyOp29
 70
     1
102
RTVSPropertyOp30
 70
     1
102
RTVSPropertyOp31
 70
     1
102
RTVSPropertyOp32
 70
     1
102
RTVSPropertyOp33
 70
     1
102
RTVSPropertyOp34
 70
     1
102
RTVSPropertyOp35
 70
     1
102
RTVSPropertyOp36
 70
     1
102
RTVSPropertyOp37
 70
     1
102
RTVSPropertyOp38
 70
     1
102
RTVSPropertyOp39
 70
     1
102
RTVSPropertyOp40
 70
     1
102
RTVSPropertyOp41
 70
     1
102
RTVSPropertyOp42
 70
     1
102
RTVSPropertyOp43
 70
     1
102
RTVSPropertyOp44
 70
     1
102
RTVSPropertyOp45
 70
     1
102
RTVSPropertyOp46
 70
     1
102
RTVSPropertyOp47
 70
     1
102
RTVSPropertyOp48
 70
     1
102
RTVSPropertyOp49
 70
     1
102
RTVSPropertyOp50
 70
     1
102
RTVSPropertyOp51
 70
     0
102
RTVSPropertyOp52
 70
     0
102
RTVSPropertyOp53
 70
     1
102
RTVSPropertyOp54
 70
     1
102
RTVSPropertyOp55
 70
     1
102
RTVSPropertyOp56
 70
     1
102
RTVSPropertyOp57
 70
     1
102
RTVSPost2010Prop28
280
     0
102
RTVSPost2010PropOp28
 70
     1
102
RTVSPost2010Prop29
280
     1
102
RTVSPost2010PropOp29
 70
     1
102
RTVSPost2010Prop30
280
     1
102
RTVSPost2010PropOp30
 70
     1
102
RTVSPost2010Prop31
280
     0
102
RTVSPost2010PropOp31
 70
     1
102
RTVSPost2010Prop32
280
     0
102
RTVSPost2010PropOp32
 70
     1
102
RTVSPost2010Prop33
280
     0
102
RTVSPost2010PropOp33
 70
     1
102
RTVSPost2010Prop34
280
     0
102
RTVSPost2010PropOp34
 70
     1
102
RTVSPost2010Prop35
280
     0
102
RTVSPost2010PropOp35
 70
     1
102
RTVSPost2010Prop36
280
     0
102
RTVSPost2010PropOp36
 70
     1
102
RTVSPost2010Prop37
 90
       50
102
RTVSPost2010PropOp37
 70
     1
102
RTVSPost2010Prop38
140
0.0
102
RTVSPost2010PropOp38
 70
     1
102
RTVSPost2010Prop39
140
1.0
102
RTVSPost2010PropOp39
 70
     1
102
RTVSPost2010Prop40
 90
        0
102
RTVSPost2010PropOp40
 70
     1
102
RTVSPost2010Prop41ColorIndex
 90
       18
102
RTVSPost2010Prop41ColorRGB
 90
        0
102
RTVSPost2010PropOp41
 70
     1
102
RTVSPost2010Prop42
 90
       50
102
RTVSPost2010PropOp42
 70
     1
102
RTVSPost2010Prop43
 90
        3
102
RTVSPost2010PropOp43
 70
     1
102
RTVSPost2010Prop44ColorIndex
 90
        5
102
RTVSPost2010Prop44ColorRGB
 90
      255
102
RTVSPost2010PropOp44
 70
     1
102
RTVSPost2010Prop45
280
     0
102
RTVSPost2010PropOp45
 70
     1
102
RTVSPost2010Prop46
 90
       50
102
RTVSPost2010PropOp46
 70
     1
102
RTVSPost2010Prop47
 90
       50
102
RTVSPost2010PropOp47
 70
     1
102
RTVSPost2010Prop48
 90
       50
102
RTVSPost2010PropOp48
 70
     1
102
RTVSPost2010Prop49
280
     0
102
RTVSPost2010PropOp49
 70
     1
102
RTVSPost2010Prop50
 90
       50
102
RTVSPost2010PropOp50
 70
     1
102
RTVSPost2010Prop51ColorIndex
 90
      256
102
RTVSPost2010Prop51ColorRGB
 90
-16777216
102
RTVSPost2010PropOp51
 70
     0
102
RTVSPost2010Prop52
140
1.0
102
RTVSPost2010PropOp52
 70
     0
102
RTVSPost2010Prop53
 90
        2
102
RTVSPost2010PropOp53
 70
     1
102
RTVSPost2010Prop54
  1
strokes_ogs.tif
102
RTVSPost2010PropOp54
 70
     1
102
RTVSPost2010Prop55
280
     0
102
RTVSPost2010PropOp55
 70
     1
102
RTVSPost2010Prop56
140
1.0
102
RTVSPost2010PropOp56
 70
     1
102
RTVSPost2010Prop57
140
1.0
102
RTVSPost2010PropOp57
 70
     1
  0
XRECORD
  5
43A
102
{ACAD_REACTORS
330
439
102
}
330
439
100
AcDbXrecord
280
     1
102
RTVSPropertyOp0
 70
     1
102
RTVSPropertyOp1
 70
     1
102
RTVSPropertyOp2
 70
     1
102
RTVSPropertyOp3
 70
     1
102
RTVSPropertyOp4
 70
     1
102
RTVSPropertyOp5
 70
     1
102
RTVSPropertyOp6
 70
     1
102
RTVSPropertyOp7
 70
     1
102
RTVSPropertyOp8
 70
     1
102
RTVSPropertyOp9
 70
     1
102
RTVSPropertyOp10
 70
     1
102
RTVSPropertyOp11
 70
     1
102
RTVSPropertyOp12
 70
     1
102
RTVSPropertyOp13
 70
     1
102
RTVSPropertyOp14
 70
     1
102
RTVSPropertyOp15
 70
     1
102
RTVSPropertyOp16
 70
     1
102
RTVSPropertyOp17
 70
     1
102
RTVSPropertyOp18
 70
     1
102
RTVSPropertyOp19
 70
     1
102
RTVSPropertyOp20
 70
     1
102
RTVSPropertyOp21
 70
     1
102
RTVSPropertyOp22
 70
     1
102
RTVSPropertyOp23
 70
     1
102
RTVSPropertyOp24
 70
     1
102
RTVSPropertyOp25
 70
     1
102
RTVSPropertyOp26
 70
     1
102
RTVSPropertyOp27
 70
     1
102
RTVSPropertyOp28
 70
     1
102
RTVSPropertyOp29
 70
     1
102
RTVSPropertyOp30
 70
     1
102
RTVSPropertyOp31
 70
     1
102
RTVSPropertyOp32
 70
     1
102
RTVSPropertyOp33
 70
     1
102
RTVSPropertyOp34
 70
     1
102
RTVSPropertyOp35
 70
     1
102
RTVSPropertyOp36
 70
     1
102
RTVSPropertyOp37
 70
     1
102
RTVSPropertyOp38
 70
     1
102
RTVSPropertyOp39
 70
     1
102
RTVSPropertyOp40
 70
     1
102
RTVSPropertyOp41
 70
     1
102
RTVSPropertyOp42
 70
     1
102
RTVSPropertyOp43
 70
     1
102
RTVSPropertyOp44
 70
     1
102
RTVSPropertyOp45
 70
     1
102
RTVSPropertyOp46
 70
     1
102
RTVSPropertyOp47
 70
     1
102
RTVSPropertyOp48
 70
     1
102
RTVSPropertyOp49
 70
     1
102
RTVSPropertyOp50
 70
     1
102
RTVSPropertyOp51
 70
     0
102
RTVSPropertyOp52
 70
     0
102
RTVSPropertyOp53
 70
     1
102
RTVSPropertyOp54
 70
     1
102
RTVSPropertyOp55
 70
     1
102
RTVSPropertyOp56
 70
     1
102
RTVSPropertyOp57
 70
     1
102
RTVSPost2010Prop28
280
     0
102
RTVSPost2010PropOp28
 70
     1
102
RTVSPost2010Prop29
280
     1
102
RTVSPost2010PropOp29
 70
     1
102
RTVSPost2010Prop30
280
     1
102
RTVSPost2010PropOp30
 70
     1
102
RTVSPost2010Prop31
280
     0
102
RTVSPost2010PropOp31
 70
     1
102
RTVSPost2010Prop32
280
     0
102
RTVSPost2010PropOp32
 70
     1
102
RTVSPost2010Prop33
280
     0
102
RTVSPost2010PropOp33
 70
     1
102
RTVSPost2010Prop34
280
     0
102
RTVSPost2010PropOp34
 70
     1
102
RTVSPost2010Prop35
280
     0
102
RTVSPost2010PropOp35
 70
     1
102
RTVSPost2010Prop36
280
     0
102
RTVSPost2010PropOp36
 70
     1
102
RTVSPost2010Prop37
 90
       50
102
RTVSPost2010PropOp37
 70
     1
102
RTVSPost2010Prop38
140
0.0
102
RTVSPost2010PropOp38
 70
     1
102
RTVSPost2010Prop39
140
1.0
102
RTVSPost2010PropOp39
 70
     1
102
RTVSPost2010Prop40
 90
        0
102
RTVSPost2010PropOp40
 70
     1
102
RTVSPost2010Prop41ColorIndex
 90
       18
102
RTVSPost2010Prop41ColorRGB
 90
        0
102
RTVSPost2010PropOp41
 70
     1
102
RTVSPost2010Prop42
 90
       50
102
RTVSPost2010PropOp42
 70
     1
102
RTVSPost2010Prop43
 90
        3
102
RTVSPost2010PropOp43
 70
     1
102
RTVSPost2010Prop44ColorIndex
 90
        5
102
RTVSPost2010Prop44ColorRGB
 90
      255
102
RTVSPost2010PropOp44
 70
     1
102
RTVSPost2010Prop45
280
     0
102
RTVSPost2010PropOp45
 70
     1
102
RTVSPost2010Prop46
 90
       50
102
RTVSPost2010PropOp46
 70
     1
102
RTVSPost2010Prop47
 90
       50
102
RTVSPost2010PropOp47
 70
     1
102
RTVSPost2010Prop48
 90
       50
102
RTVSPost2010PropOp48
 70
     1
102
RTVSPost2010Prop49
280
     0
102
RTVSPost2010PropOp49
 70
     1
102
RTVSPost2010Prop50
 90
       50
102
RTVSPost2010PropOp50
 70
     1
102
RTVSPost2010Prop51ColorIndex
 90
      256
102
RTVSPost2010Prop51ColorRGB
 90
-16777216
102
RTVSPost2010PropOp51
 70
     0
102
RTVSPost2010Prop52
140
1.0
102
RTVSPost2010PropOp52
 70
     0
102
RTVSPost2010Prop53
 90
        2
102
RTVSPost2010PropOp53
 70
     1
102
RTVSPost2010Prop54
  1
strokes_ogs.tif
102
RTVSPost2010PropOp54
 70
     1
102
RTVSPost2010Prop55
280
     0
102
RTVSPost2010PropOp55
 70
     1
102
RTVSPost2010Prop56
140
1.0
102
RTVSPost2010PropOp56
 70
     1
102
RTVSPost2010Prop57
140
1.0
102
RTVSPost2010PropOp57
 70
     1
  0
XRECORD
  5
42C
102
{ACAD_REACTORS
330
42B
102
}
330
42B
100
AcDbXrecord
280
     1
102
RTVSPropertyOp0
 70
     1
102
RTVSPropertyOp1
 70
     1
102
RTVSPropertyOp2
 70
     1
102
RTVSPropertyOp3
 70
     1
102
RTVSPropertyOp4
 70
     1
102
RTVSPropertyOp5
 70
     1
102
RTVSPropertyOp6
 70
     1
102
RTVSPropertyOp7
 70
     1
102
RTVSPropertyOp8
 70
     1
102
RTVSPropertyOp9
 70
     1
102
RTVSPropertyOp10
 70
     1
102
RTVSPropertyOp11
 70
     1
102
RTVSPropertyOp12
 70
     1
102
RTVSPropertyOp13
 70
     1
102
RTVSPropertyOp14
 70
     1
102
RTVSPropertyOp15
 70
     1
102
RTVSPropertyOp16
 70
     1
102
RTVSPropertyOp17
 70
     1
102
RTVSPropertyOp18
 70
     1
102
RTVSPropertyOp19
 70
     1
102
RTVSPropertyOp20
 70
     1
102
RTVSPropertyOp21
 70
     1
102
RTVSPropertyOp22
 70
     1
102
RTVSPropertyOp23
 70
     1
102
RTVSPropertyOp24
 70
     1
102
RTVSPropertyOp25
 70
     1
102
RTVSPropertyOp26
 70
     1
102
RTVSPropertyOp27
 70
     1
102
RTVSPropertyOp28
 70
     1
102
RTVSPropertyOp29
 70
     1
102
RTVSPropertyOp30
 70
     1
102
RTVSPropertyOp31
 70
     1
102
RTVSPropertyOp32
 70
     1
102
RTVSPropertyOp33
 70
     1
102
RTVSPropertyOp34
 70
     1
102
RTVSPropertyOp35
 70
     1
102
RTVSPropertyOp36
 70
     1
102
RTVSPropertyOp37
 70
     1
102
RTVSPropertyOp38
 70
     1
102
RTVSPropertyOp39
 70
     1
102
RTVSPropertyOp40
 70
     1
102
RTVSPropertyOp41
 70
     1
102
RTVSPropertyOp42
 70
     1
102
RTVSPropertyOp43
 70
     1
102
RTVSPropertyOp44
 70
     1
102
RTVSPropertyOp45
 70
     1
102
RTVSPropertyOp46
 70
     1
102
RTVSPropertyOp47
 70
     1
102
RTVSPropertyOp48
 70
     1
102
RTVSPropertyOp49
 70
     1
102
RTVSPropertyOp50
 70
     1
102
RTVSPropertyOp51
 70
     0
102
RTVSPropertyOp52
 70
     0
102
RTVSPropertyOp53
 70
     1
102
RTVSPropertyOp54
 70
     1
102
RTVSPropertyOp55
 70
     1
102
RTVSPropertyOp56
 70
     1
102
RTVSPropertyOp57
 70
     1
102
RTVSPost2010Prop28
280
     0
102
RTVSPost2010PropOp28
 70
     1
102
RTVSPost2010Prop29
280
     1
102
RTVSPost2010PropOp29
 70
     1
102
RTVSPost2010Prop30
280
     1
102
RTVSPost2010PropOp30
 70
     1
102
RTVSPost2010Prop31
280
     0
102
RTVSPost2010PropOp31
 70
     1
102
RTVSPost2010Prop32
280
     0
102
RTVSPost2010PropOp32
 70
     1
102
RTVSPost2010Prop33
280
     0
102
RTVSPost2010PropOp33
 70
     1
102
RTVSPost2010Prop34
280
     0
102
RTVSPost2010PropOp34
 70
     1
102
RTVSPost2010Prop35
280
     0
102
RTVSPost2010PropOp35
 70
     1
102
RTVSPost2010Prop36
280
     0
102
RTVSPost2010PropOp36
 70
     1
102
RTVSPost2010Prop37
 90
       50
102
RTVSPost2010PropOp37
 70
     1
102
RTVSPost2010Prop38
140
0.0
102
RTVSPost2010PropOp38
 70
     1
102
RTVSPost2010Prop39
140
1.0
102
RTVSPost2010PropOp39
 70
     1
102
RTVSPost2010Prop40
 90
        0
102
RTVSPost2010PropOp40
 70
     1
102
RTVSPost2010Prop41ColorIndex
 90
       18
102
RTVSPost2010Prop41ColorRGB
 90
        0
102
RTVSPost2010PropOp41
 70
     1
102
RTVSPost2010Prop42
 90
       50
102
RTVSPost2010PropOp42
 70
     1
102
RTVSPost2010Prop43
 90
        3
102
RTVSPost2010PropOp43
 70
     1
102
RTVSPost2010Prop44ColorIndex
 90
        5
102
RTVSPost2010Prop44ColorRGB
 90
      255
102
RTVSPost2010PropOp44
 70
     1
102
RTVSPost2010Prop45
280
     0
102
RTVSPost2010PropOp45
 70
     1
102
RTVSPost2010Prop46
 90
       50
102
RTVSPost2010PropOp46
 70
     1
102
RTVSPost2010Prop47
 90
       50
102
RTVSPost2010PropOp47
 70
     1
102
RTVSPost2010Prop48
 90
       50
102
RTVSPost2010PropOp48
 70
     1
102
RTVSPost2010Prop49
280
     0
102
RTVSPost2010PropOp49
 70
     1
102
RTVSPost2010Prop50
 90
       50
102
RTVSPost2010PropOp50
 70
     1
102
RTVSPost2010Prop51ColorIndex
 90
      256
102
RTVSPost2010Prop51ColorRGB
 90
-16777216
102
RTVSPost2010PropOp51
 70
     0
102
RTVSPost2010Prop52
140
1.0
102
RTVSPost2010PropOp52
 70
     0
102
RTVSPost2010Prop53
 90
        2
102
RTVSPost2010PropOp53
 70
     1
102
RTVSPost2010Prop54
  1
strokes_ogs.tif
102
RTVSPost2010PropOp54
 70
     1
102
RTVSPost2010Prop55
280
     0
102
RTVSPost2010PropOp55
 70
     1
102
RTVSPost2010Prop56
140
1.0
102
RTVSPost2010PropOp56
 70
     1
102
RTVSPost2010Prop57
140
1.0
102
RTVSPost2010PropOp57
 70
     1
  0
XRECORD
  5
44C
102
{ACAD_REACTORS
330
44B
102
}
330
44B
100
AcDbXrecord
280
     1
102
RTVSPropertyOp0
 70
     1
102
RTVSPropertyOp1
 70
     1
102
RTVSPropertyOp2
 70
     1
102
RTVSPropertyOp3
 70
     1
102
RTVSPropertyOp4
 70
     1
102
RTVSPropertyOp5
 70
     1
102
RTVSPropertyOp6
 70
     1
102
RTVSPropertyOp7
 70
     1
102
RTVSPropertyOp8
 70
     1
102
RTVSPropertyOp9
 70
     1
102
RTVSPropertyOp10
 70
     1
102
RTVSPropertyOp11
 70
     1
102
RTVSPropertyOp12
 70
     1
102
RTVSPropertyOp13
 70
     1
102
RTVSPropertyOp14
 70
     1
102
RTVSPropertyOp15
 70
     1
102
RTVSPropertyOp16
 70
     1
102
RTVSPropertyOp17
 70
     1
102
RTVSPropertyOp18
 70
     1
102
RTVSPropertyOp19
 70
     1
102
RTVSPropertyOp20
 70
     1
102
RTVSPropertyOp21
 70
     1
102
RTVSPropertyOp22
 70
     1
102
RTVSPropertyOp23
 70
     1
102
RTVSPropertyOp24
 70
     1
102
RTVSPropertyOp25
 70
     1
102
RTVSPropertyOp26
 70
     1
102
RTVSPropertyOp27
 70
     1
102
RTVSPropertyOp28
 70
     1
102
RTVSPropertyOp29
 70
     1
102
RTVSPropertyOp30
 70
     1
102
RTVSPropertyOp31
 70
     1
102
RTVSPropertyOp32
 70
     1
102
RTVSPropertyOp33
 70
     1
102
RTVSPropertyOp34
 70
     1
102
RTVSPropertyOp35
 70
     1
102
RTVSPropertyOp36
 70
     1
102
RTVSPropertyOp37
 70
     1
102
RTVSPropertyOp38
 70
     1
102
RTVSPropertyOp39
 70
     1
102
RTVSPropertyOp40
 70
     1
102
RTVSPropertyOp41
 70
     1
102
RTVSPropertyOp42
 70
     1
102
RTVSPropertyOp43
 70
     1
102
RTVSPropertyOp44
 70
     1
102
RTVSPropertyOp45
 70
     1
102
RTVSPropertyOp46
 70
     1
102
RTVSPropertyOp47
 70
     1
102
RTVSPropertyOp48
 70
     1
102
RTVSPropertyOp49
 70
     1
102
RTVSPropertyOp50
 70
     1
102
RTVSPropertyOp51
 70
     0
102
RTVSPropertyOp52
 70
     0
102
RTVSPropertyOp53
 70
     1
102
RTVSPropertyOp54
 70
     1
102
RTVSPropertyOp55
 70
     1
102
RTVSPropertyOp56
 70
     1
102
RTVSPropertyOp57
 70
     1
102
RTVSPost2010Prop28
280
     0
102
RTVSPost2010PropOp28
 70
     1
102
RTVSPost2010Prop29
280
     1
102
RTVSPost2010PropOp29
 70
     1
102
RTVSPost2010Prop30
280
     1
102
RTVSPost2010PropOp30
 70
     1
102
RTVSPost2010Prop31
280
     0
102
RTVSPost2010PropOp31
 70
     1
102
RTVSPost2010Prop32
280
     0
102
RTVSPost2010PropOp32
 70
     1
102
RTVSPost2010Prop33
280
     0
102
RTVSPost2010PropOp33
 70
     1
102
RTVSPost2010Prop34
280
     0
102
RTVSPost2010PropOp34
 70
     1
102
RTVSPost2010Prop35
280
     0
102
RTVSPost2010PropOp35
 70
     1
102
RTVSPost2010Prop36
280
     0
102
RTVSPost2010PropOp36
 70
     1
102
RTVSPost2010Prop37
 90
       50
102
RTVSPost2010PropOp37
 70
     1
102
RTVSPost2010Prop38
140
0.0
102
RTVSPost2010PropOp38
 70
     1
102
RTVSPost2010Prop39
140
1.0
102
RTVSPost2010PropOp39
 70
     1
102
RTVSPost2010Prop40
 90
        0
102
RTVSPost2010PropOp40
 70
     1
102
RTVSPost2010Prop41ColorIndex
 90
       18
102
RTVSPost2010Prop41ColorRGB
 90
        0
102
RTVSPost2010PropOp41
 70
     1
102
RTVSPost2010Prop42
 90
       50
102
RTVSPost2010PropOp42
 70
     1
102
RTVSPost2010Prop43
 90
        3
102
RTVSPost2010PropOp43
 70
     1
102
RTVSPost2010Prop44ColorIndex
 90
        5
102
RTVSPost2010Prop44ColorRGB
 90
      255
102
RTVSPost2010PropOp44
 70
     1
102
RTVSPost2010Prop45
280
     0
102
RTVSPost2010PropOp45
 70
     1
102
RTVSPost2010Prop46
 90
       50
102
RTVSPost2010PropOp46
 70
     1
102
RTVSPost2010Prop47
 90
       50
102
RTVSPost2010PropOp47
 70
     1
102
RTVSPost2010Prop48
 90
       50
102
RTVSPost2010PropOp48
 70
     1
102
RTVSPost2010Prop49
280
     0
102
RTVSPost2010PropOp49
 70
     1
102
RTVSPost2010Prop50
 90
       50
102
RTVSPost2010PropOp50
 70
     1
102
RTVSPost2010Prop51ColorIndex
 90
      256
102
RTVSPost2010Prop51ColorRGB
 90
-16777216
102
RTVSPost2010PropOp51
 70
     0
102
RTVSPost2010Prop52
140
1.0
102
RTVSPost2010PropOp52
 70
     0
102
RTVSPost2010Prop53
 90
        2
102
RTVSPost2010PropOp53
 70
     1
102
RTVSPost2010Prop54
  1
strokes_ogs.tif
102
RTVSPost2010PropOp54
 70
     1
102
RTVSPost2010Prop55
280
     0
102
RTVSPost2010PropOp55
 70
     1
102
RTVSPost2010Prop56
140
1.0
102
RTVSPost2010PropOp56
 70
     1
102
RTVSPost2010Prop57
140
1.0
102
RTVSPost2010PropOp57
 70
     1
  0
ENDSEC
  0
EOF
