  0
SECTION
  2
HEADER
  9
$ACADVER
  1
AC1018
  9
$ACADMAINTVER
 70
     0
  9
$DWGCODEPAGE
  3
ANSI_1252
  9
$INSBASE
 10
0.0
 20
0.0
 30
0.0
  9
$EXTMIN
 10
-0.0702369108567247
 20
-0.0715556327654241
 30
0.0
  9
$EXTMAX
 10
4.745979748616517
 20
1.489460251161063
 30
0.0
  9
$LIMMIN
 10
0.0
 20
0.0
  9
$LIMMAX
 10
12.0
 20
9.0
  9
$ORTHOMODE
 70
     0
  9
$REGENMODE
 70
     1
  9
$FILLMODE
 70
     1
  9
$QTEXTMODE
 70
     0
  9
$MIRRTEXT
 70
     1
  9
$LTSCALE
 40
1.0
  9
$ATTMODE
 70
     1
  9
$TEXTSIZE
 40
0.2
  9
$TRACEWID
 40
0.05
  9
$TEXTSTYLE
  7
Simplex
  9
$CLAYER
  8
0
  9
$CELTYPE
  6
ByLayer
  9
$CECOLOR
 62
   256
  9
$CELTSCALE
 40
1.0
  9
$DISPSILH
 70
     0
  9
$DIMSCALE
 40
1.0
  9
$DIMASZ
 40
0.18
  9
$DIMEXO
 40
0.0625
  9
$DIMDLI
 40
0.38
  9
$DIMRND
 40
0.0
  9
$DIMDLE
 40
0.0
  9
$DIMEXE
 40
0.18
  9
$DIMTP
 40
0.0
  9
$DIMTM
 40
0.0
  9
$DIMTXT
 40
0.18
  9
$DIMCEN
 40
0.09
  9
$DIMTSZ
 40
0.0
  9
$DIMTOL
 70
     0
  9
$DIMLIM
 70
     0
  9
$DIMTIH
 70
     1
  9
$DIMTOH
 70
     1
  9
$DIMSE1
 70
     0
  9
$DIMSE2
 70
     0
  9
$DIMTAD
 70
     0
  9
$DIMZIN
 70
     0
  9
$DIMBLK
  1

  9
$DIMASO
 70
     1
  9
$DIMSHO
 70
     1
  9
$DIMPOST
  1

  9
$DIMAPOST
  1

  9
$DIMALT
 70
     0
  9
$DIMALTD
 70
     2
  9
$DIMALTF
 40
25.4
  9
$DIMLFAC
 40
1.0
  9
$DIMTOFL
 70
     0
  9
$DIMTVP
 40
0.0
  9
$DIMTIX
 70
     0
  9
$DIMSOXD
 70
     0
  9
$DIMSAH
 70
     0
  9
$DIMBLK1
  1

  9
$DIMBLK2
  1

  9
$DIMSTYLE
  2
Standard
  9
$DIMCLRD
 70
     0
  9
$DIMCLRE
 70
     0
  9
$DIMCLRT
 70
     0
  9
$DIMTFAC
 40
1.0
  9
$DIMGAP
 40
0.09
  9
$DIMJUST
 70
     0
  9
$DIMSD1
 70
     0
  9
$DIMSD2
 70
     0
  9
$DIMTOLJ
 70
     1
  9
$DIMTZIN
 70
     0
  9
$DIMALTZ
 70
     0
  9
$DIMALTTZ
 70
     0
  9
$DIMUPT
 70
     0
  9
$DIMDEC
 70
     4
  9
$DIMTDEC
 70
     4
  9
$DIMALTU
 70
     2
  9
$DIMALTTD
 70
     2
  9
$DIMTXSTY
  7
Standard
  9
$DIMAUNIT
 70
     0
  9
$DIMADEC
 70
     0
  9
$DIMALTRND
 40
0.0
  9
$DIMAZIN
 70
     0
  9
$DIMDSEP
 70
    46
  9
$DIMATFIT
 70
     3
  9
$DIMFRAC
 70
     0
  9
$DIMLDRBLK
  1

  9
$DIMLUNIT
 70
     2
  9
$DIMLWD
 70
    -2
  9
$DIMLWE
 70
    -2
  9
$DIMTMOVE
 70
     0
  9
$LUNITS
 70
     2
  9
$LUPREC
 70
     4
  9
$SKETCHINC
 40
0.1
  9
$FILLETRAD
 40
0.5
  9
$AUNITS
 70
     0
  9
$AUPREC
 70
     0
  9
$MENU
  1
.
  9
$ELEVATION
 40
0.0
  9
$PELEVATION
 40
0.0
  9
$THICKNESS
 40
0.0
  9
$LIMCHECK
 70
     0
  9
$CHAMFERA
 40
0.5
  9
$CHAMFERB
 40
0.5
  9
$CHAMFERC
 40
1.0
  9
$CHAMFERD
 40
0.0
  9
$SKPOLY
 70
     0
  9
$TDCREATE
 40
2452380.939152083
  9
$TDUCREATE
 40
2452380.897485417
  9
$TDUPDATE
 40
2457748.41660809
  9
$TDUUPDATE
 40
2457748.374941424
  9
$TDINDWG
 40
0.0040921296
  9
$TDUSRTIMER
 40
0.0040921296
  9
$USRTIMER
 70
     1
  9
$ANGBASE
 50
0.0
  9
$ANGDIR
 70
     0
  9
$PDMODE
 70
     0
  9
$PDSIZE
 40
0.0
  9
$PLINEWID
 40
0.0
  9
$SPLFRAME
 70
     0
  9
$SPLINETYPE
 70
     6
  9
$SPLINESEGS
 70
     8
  9
$HANDSEED
  5
403
  9
$SURFTAB1
 70
     6
  9
$SURFTAB2
 70
     6
  9
$SURFTYPE
 70
     6
  9
$SURFU
 70
     6
  9
$SURFV
 70
     6
  9
$UCSBASE
  2

  9
$UCSNAME
  2

  9
$UCSORG
 10
0.0
 20
0.0
 30
0.0
  9
$UCSXDIR
 10
1.0
 20
0.0
 30
0.0
  9
$UCSYDIR
 10
0.0
 20
1.0
 30
0.0
  9
$UCSORTHOREF
  2

  9
$UCSORTHOVIEW
 70
     0
  9
$UCSORGTOP
 10
0.0
 20
0.0
 30
0.0
  9
$UCSORGBOTTOM
 10
0.0
 20
0.0
 30
0.0
  9
$UCSORGLEFT
 10
0.0
 20
0.0
 30
0.0
  9
$UCSORGRIGHT
 10
0.0
 20
0.0
 30
0.0
  9
$UCSORGFRONT
 10
0.0
 20
0.0
 30
0.0
  9
$UCSORGBACK
 10
0.0
 20
0.0
 30
0.0
  9
$PUCSBASE
  2

  9
$PUCSNAME
  2

  9
$PUCSORG
 10
0.0
 20
0.0
 30
0.0
  9
$PUCSXDIR
 10
1.0
 20
0.0
 30
0.0
  9
$PUCSYDIR
 10
0.0
 20
1.0
 30
0.0
  9
$PUCSORTHOREF
  2

  9
$PUCSORTHOVIEW
 70
     0
  9
$PUCSORGTOP
 10
0.0
 20
0.0
 30
0.0
  9
$PUCSORGBOTTOM
 10
0.0
 20
0.0
 30
0.0
  9
$PUCSORGLEFT
 10
0.0
 20
0.0
 30
0.0
  9
$PUCSORGRIGHT
 10
0.0
 20
0.0
 30
0.0
  9
$PUCSORGFRONT
 10
0.0
 20
0.0
 30
0.0
  9
$PUCSORGBACK
 10
0.0
 20
0.0
 30
0.0
  9
$USERI1
 70
     0
  9
$USERI2
 70
     0
  9
$USERI3
 70
     0
  9
$USERI4
 70
     0
  9
$USERI5
 70
     0
  9
$USERR1
 40
0.0
  9
$USERR2
 40
0.0
  9
$USERR3
 40
0.0
  9
$USERR4
 40
0.0
  9
$USERR5
 40
0.0
  9
$WORLDVIEW
 70
     1
  9
$SHADEDGE
 70
     3
  9
$SHADEDIF
 70
    70
  9
$TILEMODE
 70
     1
  9
$MAXACTVP
 70
    64
  9
$PINSBASE
 10
0.0
 20
0.0
 30
0.0
  9
$PLIMCHECK
 70
     0
  9
$PEXTMIN
 10
1.000000000000000E+20
 20
1.000000000000000E+20
 30
1.000000000000000E+20
  9
$PEXTMAX
 10
-1.000000000000000E+20
 20
-1.000000000000000E+20
 30
-1.000000000000000E+20
  9
$PLIMMIN
 10
0.0
 20
0.0
  9
$PLIMMAX
 10
12.0
 20
9.0
  9
$UNITMODE
 70
     0
  9
$VISRETAIN
 70
     1
  9
$PLINEGEN
 70
     0
  9
$PSLTSCALE
 70
     1
  9
$TREEDEPTH
 70
  3020
  9
$CMLSTYLE
  2
Standard
  9
$CMLJUST
 70
     0
  9
$CMLSCALE
 40
1.0
  9
$PROXYGRAPHICS
 70
     1
  9
$MEASUREMENT
 70
     0
  9
$CELWEIGHT
370
    -1
  9
$ENDCAPS
280
     0
  9
$JOINSTYLE
280
     0
  9
$LWDISPLAY
290
     1
  9
$INSUNITS
 70
     0
  9
$HYPERLINKBASE
  1

  9
$STYLESHEET
  1

  9
$XEDIT
290
     1
  9
$CEPSNTYPE
380
     0
  9
$PSTYLEMODE
290
     1
  9
$FINGERPRINTGUID
  2
{2DA8D5D2-0A6F-4433-BE9F-7C818D36D6ED}
  9
$VERSIONGUID
  2
{A098EE71-2063-4C44-BF23-3920F6FD3DB3}
  9
$EXTNAMES
290
     1
  9
$PSVPSCALE
 40
0.0
  9
$OLESTARTUP
290
     0
  9
$SORTENTS
280
   127
  9
$INDEXCTL
280
     0
  9
$HIDETEXT
280
     1
  9
$XCLIPFRAME
290
     0
  9
$HALOGAP
280
     0
  9
$OBSCOLOR
 70
   257
  9
$OBSLTYPE
280
     0
  9
$INTERSECTIONDISPLAY
280
     0
  9
$INTERSECTIONCOLOR
 70
   257
  9
$DIMASSOC
280
     1
  9
$PROJECTNAME
  1

  0
ENDSEC
  0
SECTION
  2
CLASSES
  0
CLASS
  1
ACDBDICTIONARYWDFLT
  2
AcDbDictionaryWithDefault
  3
ObjectDBX Classes
 90
        0
 91
        4
280
     0
281
     0
  0
CLASS
  1
ACDBPLACEHOLDER
  2
AcDbPlaceHolder
  3
ObjectDBX Classes
 90
        0
 91
        1
280
     0
281
     0
  0
CLASS
  1
LAYOUT
  2
AcDbLayout
  3
ObjectDBX Classes
 90
        0
 91
        1
280
     0
281
     0
  0
CLASS
  1
DICTIONARYVAR
  2
AcDbDictionaryVar
  3
ObjectDBX Classes
 90
        0
 91
        4
280
     0
281
     0
  0
CLASS
  1
VISUALSTYLE
  2
AcDbVisualStyle
  3
ObjectDBX Classes
 90
     4095
 91
        4
280
     0
281
     0
  0
CLASS
  1
SCALE
  2
AcDbScale
  3
ObjectDBX Classes
 90
     1153
 91
        4
280
     0
281
     0
  0
CLASS
  1
MATERIAL
  2
AcDbMaterial
  3
ObjectDBX Classes
 90
     1153
 91
        4
280
     0
281
     0
  0
CLASS
  1
RASTERVARIABLES
  2
AcDbRasterVariables
  3
ISM
 90
        0
 91
        4
280
     0
281
     0
  0
CLASS
  1
SUN
  2
AcDbSun
  3
SCENEOE
 90
     1153
 91
        4
280
     0
281
     0
  0
ENDSEC
  0
SECTION
  2
TABLES
  0
TABLE
  2
VPORT
  5
8
102
{ACAD_XDICTIONARY
360
3C5
102
}
330
0
100
AcDbSymbolTable
 70
     2
  0
VPORT
  5
55
330
8
100
AcDbSymbolTableRecord
100
AcDbViewportTableRecord
  2
*Active
 70
     0
 10
0.0
 20
0.0
 11
1.0
 21
1.0
 12
0.0
 22
0.0
 13
0.0
 23
0.0
 14
0.5
 24
0.5
 15
0.5
 25
0.5
 16
0.0
 26
0.0
 36
1.0
 17
19.46018119533666
 27
34.86910109459582
 37
0.0
 40
1.717117472319153
 41
3.085309194521943
 42
50.0
 43
0.0
 44
0.0
 50
0.0
 51
0.0
 71
     8
 72
   100
 73
     1
 74
     3
 75
     0
 76
     0
 77
     0
 78
     0
281
     0
 65
     1
110
0.0
120
0.0
130
0.0
111
1.0
121
0.0
131
0.0
112
0.0
122
1.0
132
0.0
 79
     0
146
0.0
  0
ENDTAB
  0
TABLE
  2
LTYPE
  5
5
330
0
100
AcDbSymbolTable
 70
    25
  0
LTYPE
  5
14
330
5
100
AcDbSymbolTableRecord
100
AcDbLinetypeTableRecord
  2
ByBlock
 70
     0
  3

 72
    65
 73
     0
 40
0.0
  0
LTYPE
  5
15
330
5
100
AcDbSymbolTableRecord
100
AcDbLinetypeTableRecord
  2
ByLayer
 70
     0
  3

 72
    65
 73
     0
 40
0.0
  0
LTYPE
  5
16
330
5
100
AcDbSymbolTableRecord
100
AcDbLinetypeTableRecord
  2
Continuous
 70
     0
  3
Solid line
 72
    65
 73
     0
 40
0.0
  0
LTYPE
  5
2D
330
5
100
AcDbSymbolTableRecord
100
AcDbLinetypeTableRecord
  2
BORDER
 70
     0
  3
Border __ __ . __ __ . __ __ . __ __ . __ __ .
 72
    65
 73
     6
 40
1.75
 49
0.5
 74
     0
 49
-0.25
 74
     0
 49
0.5
 74
     0
 49
-0.25
 74
     0
 49
0.0
 74
     0
 49
-0.25
 74
     0
  0
LTYPE
  5
2E
330
5
100
AcDbSymbolTableRecord
100
AcDbLinetypeTableRecord
  2
BORDER2
 70
     0
  3
Border (.5x) __.__.__.__.__.__.__.__.__.__.__.
 72
    65
 73
     6
 40
0.875
 49
0.25
 74
     0
 49
-0.125
 74
     0
 49
0.25
 74
     0
 49
-0.125
 74
     0
 49
0.0
 74
     0
 49
-0.125
 74
     0
  0
LTYPE
  5
2F
330
5
100
AcDbSymbolTableRecord
100
AcDbLinetypeTableRecord
  2
BORDERX2
 70
     0
  3
Border (2x) ____  ____  .  ____  ____  .  ___
 72
    65
 73
     6
 40
3.5
 49
1.0
 74
     0
 49
-0.5
 74
     0
 49
1.0
 74
     0
 49
-0.5
 74
     0
 49
0.0
 74
     0
 49
-0.5
 74
     0
  0
LTYPE
  5
30
330
5
100
AcDbSymbolTableRecord
100
AcDbLinetypeTableRecord
  2
CENTER
 70
     0
  3
Center ____ _ ____ _ ____ _ ____ _ ____ _ ____
 72
    65
 73
     4
 40
2.0
 49
1.25
 74
     0
 49
-0.25
 74
     0
 49
0.25
 74
     0
 49
-0.25
 74
     0
  0
LTYPE
  5
31
330
5
100
AcDbSymbolTableRecord
100
AcDbLinetypeTableRecord
  2
CENTER2
 70
     0
  3
Center (.5x) ___ _ ___ _ ___ _ ___ _ ___ _ ___
 72
    65
 73
     4
 40
1.125
 49
0.75
 74
     0
 49
-0.125
 74
     0
 49
0.125
 74
     0
 49
-0.125
 74
     0
  0
LTYPE
  5
32
330
5
100
AcDbSymbolTableRecord
100
AcDbLinetypeTableRecord
  2
CENTERX2
 70
     0
  3
Center (2x) ________  __  ________  __  _____
 72
    65
 73
     4
 40
4.0
 49
2.5
 74
     0
 49
-0.5
 74
     0
 49
0.5
 74
     0
 49
-0.5
 74
     0
  0
LTYPE
  5
33
330
5
100
AcDbSymbolTableRecord
100
AcDbLinetypeTableRecord
  2
DASHDOT
 70
     0
  3
Dash dot __ . __ . __ . __ . __ . __ . __ . __
 72
    65
 73
     4
 40
1.0
 49
0.5
 74
     0
 49
-0.25
 74
     0
 49
0.0
 74
     0
 49
-0.25
 74
     0
  0
LTYPE
  5
34
330
5
100
AcDbSymbolTableRecord
100
AcDbLinetypeTableRecord
  2
DASHDOT2
 70
     0
  3
Dash dot (.5x) _._._._._._._._._._._._._._._.
 72
    65
 73
     4
 40
0.5
 49
0.25
 74
     0
 49
-0.125
 74
     0
 49
0.0
 74
     0
 49
-0.125
 74
     0
  0
LTYPE
  5
35
330
5
100
AcDbSymbolTableRecord
100
AcDbLinetypeTableRecord
  2
DASHDOTX2
 70
     0
  3
Dash dot (2x) ____  .  ____  .  ____  .  ___
 72
    65
 73
     4
 40
2.0
 49
1.0
 74
     0
 49
-0.5
 74
     0
 49
0.0
 74
     0
 49
-0.5
 74
     0
  0
LTYPE
  5
36
330
5
100
AcDbSymbolTableRecord
100
AcDbLinetypeTableRecord
  2
DASHED
 70
     0
  3
Dashed __ __ __ __ __ __ __ __ __ __ __ __ __ _
 72
    65
 73
     2
 40
0.75
 49
0.5
 74
     0
 49
-0.25
 74
     0
  0
LTYPE
  5
37
330
5
100
AcDbSymbolTableRecord
100
AcDbLinetypeTableRecord
  2
DASHED2
 70
     0
  3
Dashed (.5x) _ _ _ _ _ _ _ _ _ _ _ _ _ _ _ _ _
 72
    65
 73
     2
 40
0.375
 49
0.25
 74
     0
 49
-0.125
 74
     0
  0
LTYPE
  5
38
330
5
100
AcDbSymbolTableRecord
100
AcDbLinetypeTableRecord
  2
DASHEDX2
 70
     0
  3
Dashed (2x) ____  ____  ____  ____  ____  ___
 72
    65
 73
     2
 40
1.5
 49
1.0
 74
     0
 49
-0.5
 74
     0
  0
LTYPE
  5
39
330
5
100
AcDbSymbolTableRecord
100
AcDbLinetypeTableRecord
  2
DIVIDE
 70
     0
  3
Divide ____ . . ____ . . ____ . . ____ . . ____
 72
    65
 73
     6
 40
1.25
 49
0.5
 74
     0
 49
-0.25
 74
     0
 49
0.0
 74
     0
 49
-0.25
 74
     0
 49
0.0
 74
     0
 49
-0.25
 74
     0
  0
LTYPE
  5
3A
330
5
100
AcDbSymbolTableRecord
100
AcDbLinetypeTableRecord
  2
DIVIDE2
 70
     0
  3
Divide (.5x) __..__..__..__..__..__..__..__.._
 72
    65
 73
     6
 40
0.625
 49
0.25
 74
     0
 49
-0.125
 74
     0
 49
0.0
 74
     0
 49
-0.125
 74
     0
 49
0.0
 74
     0
 49
-0.125
 74
     0
  0
LTYPE
  5
3B
330
5
100
AcDbSymbolTableRecord
100
AcDbLinetypeTableRecord
  2
DIVIDEX2
 70
     0
  3
Divide (2x) ________  .  .  ________  .  .  _
 72
    65
 73
     6
 40
2.5
 49
1.0
 74
     0
 49
-0.5
 74
     0
 49
0.0
 74
     0
 49
-0.5
 74
     0
 49
0.0
 74
     0
 49
-0.5
 74
     0
  0
LTYPE
  5
3C
330
5
100
AcDbSymbolTableRecord
100
AcDbLinetypeTableRecord
  2
DOT
 70
     0
  3
Dot . . . . . . . . . . . . . . . . . . . . . .
 72
    65
 73
     2
 40
0.25
 49
0.0
 74
     0
 49
-0.25
 74
     0
  0
LTYPE
  5
3D
330
5
100
AcDbSymbolTableRecord
100
AcDbLinetypeTableRecord
  2
DOT2
 70
     0
  3
Dot (.5x) .....................................
 72
    65
 73
     2
 40
0.125
 49
0.0
 74
     0
 49
-0.125
 74
     0
  0
LTYPE
  5
3E
330
5
100
AcDbSymbolTableRecord
100
AcDbLinetypeTableRecord
  2
DOTX2
 70
     0
  3
Dot (2x) .  .  .  .  .  .  .  .  .  .  .  .  . 
 72
    65
 73
     2
 40
0.5
 49
0.0
 74
     0
 49
-0.5
 74
     0
  0
LTYPE
  5
3F
330
5
100
AcDbSymbolTableRecord
100
AcDbLinetypeTableRecord
  2
HIDDEN
 70
     0
  3
Hidden __ __ __ __ __ __ __ __ __ __ __ __ __ _
 72
    65
 73
     2
 40
0.375
 49
0.25
 74
     0
 49
-0.125
 74
     0
  0
LTYPE
  5
40
330
5
100
AcDbSymbolTableRecord
100
AcDbLinetypeTableRecord
  2
HIDDEN2
 70
     0
  3
Hidden (.5x) _ _ _ _ _ _ _ _ _ _ _ _ _ _ _ _ _
 72
    65
 73
     2
 40
0.1875
 49
0.125
 74
     0
 49
-0.0625
 74
     0
  0
LTYPE
  5
41
330
5
100
AcDbSymbolTableRecord
100
AcDbLinetypeTableRecord
  2
HIDDENX2
 70
     0
  3
Hidden (2x) ____ ____ ____ ____ ____ ____ ____
 72
    65
 73
     2
 40
0.75
 49
0.5
 74
     0
 49
-0.25
 74
     0
  0
LTYPE
  5
42
330
5
100
AcDbSymbolTableRecord
100
AcDbLinetypeTableRecord
  2
PHANTOM
 70
     0
  3
Phantom ______  __  __  ______  __  __  ______
 72
    65
 73
     6
 40
2.5
 49
1.25
 74
     0
 49
-0.25
 74
     0
 49
0.25
 74
     0
 49
-0.25
 74
     0
 49
0.25
 74
     0
 49
-0.25
 74
     0
  0
LTYPE
  5
43
330
5
100
AcDbSymbolTableRecord
100
AcDbLinetypeTableRecord
  2
PHANTOM2
 70
     0
  3
Phantom (.5x) ___ _ _ ___ _ _ ___ _ _ ___ _ _
 72
    65
 73
     6
 40
1.25
 49
0.625
 74
     0
 49
-0.125
 74
     0
 49
0.125
 74
     0
 49
-0.125
 74
     0
 49
0.125
 74
     0
 49
-0.125
 74
     0
  0
LTYPE
  5
44
330
5
100
AcDbSymbolTableRecord
100
AcDbLinetypeTableRecord
  2
PHANTOMX2
 70
     0
  3
Phantom (2x) ____________    ____    ____   _
 72
    65
 73
     6
 40
5.0
 49
2.5
 74
     0
 49
-0.5
 74
     0
 49
0.5
 74
     0
 49
-0.5
 74
     0
 49
0.5
 74
     0
 49
-0.5
 74
     0
  0
ENDTAB
  0
TABLE
  2
LAYER
  5
2
330
0
100
AcDbSymbolTable
 70
     2
  0
LAYER
  5
10
330
2
100
AcDbSymbolTableRecord
100
AcDbLayerTableRecord
  2
0
 70
     0
 62
     7
  6
Continuous
370
    -3
390
F
  0
LAYER
  5
97
330
2
100
AcDbSymbolTableRecord
100
AcDbLayerTableRecord
  2
1
 70
     0
 62
     7
  6
Continuous
370
     0
390
F
  0
ENDTAB
  0
TABLE
  2
STYLE
  5
3
330
0
100
AcDbSymbolTable
 70
     4
  0
STYLE
  5
11
330
3
100
AcDbSymbolTableRecord
100
AcDbTextStyleTableRecord
  2
Standard
 70
     0
 40
0.0
 41
1.0
 50
0.0
 71
     0
 42
0.2
  3
txt
  4

  0
STYLE
  5
2C
330
3
100
AcDbSymbolTableRecord
100
AcDbTextStyleTableRecord
  2

 70
     1
 40
0.0
 41
1.0
 50
0.0
 71
     0
 42
0.2
  3
ltypeshp.shx
  4

  0
STYLE
  5
4A
330
3
100
AcDbSymbolTableRecord
100
AcDbTextStyleTableRecord
  2
Simplex
 70
     0
 40
0.0
 41
1.0
 50
0.0
 71
     0
 42
0.2
  3
simplex.shx
  4

  0
STYLE
  5
4B
330
3
100
AcDbSymbolTableRecord
100
AcDbTextStyleTableRecord
  2
BigFont
 70
     0
 40
0.0
 41
1.0
 50
0.0
 71
     0
 42
0.2
  3
simplex.shx
  4
bigfont.shx
  0
ENDTAB
  0
TABLE
  2
VIEW
  5
6
330
0
100
AcDbSymbolTable
 70
     0
  0
ENDTAB
  0
TABLE
  2
UCS
  5
7
330
0
100
AcDbSymbolTable
 70
     0
  0
ENDTAB
  0
TABLE
  2
APPID
  5
9
330
0
100
AcDbSymbolTable
 70
     1
  0
APPID
  5
12
330
9
100
AcDbSymbolTableRecord
100
AcDbRegAppTableRecord
  2
ACAD
 70
     0
  0
ENDTAB
  0
TABLE
  2
DIMSTYLE
  5
A
330
0
100
AcDbSymbolTable
 70
     1
100
AcDbDimStyleTable
  0
DIMSTYLE
105
27
330
A
100
AcDbSymbolTableRecord
100
AcDbDimStyleTableRecord
  2
Standard
 70
     0
178
     0
340
11
  0
ENDTAB
  0
TABLE
  2
BLOCK_RECORD
  5
1
330
0
100
AcDbSymbolTable
 70
     1
  0
BLOCK_RECORD
  5
1F
330
1
100
AcDbSymbolTableRecord
100
AcDbBlockTableRecord
  2
*Model_Space
340
22
  0
BLOCK_RECORD
  5
1B
330
1
100
AcDbSymbolTableRecord
100
AcDbBlockTableRecord
  2
*Paper_Space
340
1E
  0
ENDTAB
  0
ENDSEC
  0
SECTION
  2
BLOCKS
  0
BLOCK
  5
20
330
1F
100
AcDbEntity
  8
0
100
AcDbBlockBegin
  2
*Model_Space
 70
     0
 10
0.0
 20
0.0
 30
0.0
  3
*Model_Space
  1
*Model_Space
  0
ENDBLK
  5
21
330
1F
100
AcDbEntity
  8
0
100
AcDbBlockEnd
  0
BLOCK
  5
1C
330
1B
100
AcDbEntity
 67
     1
  8
0
100
AcDbBlockBegin
  2
*Paper_Space
 70
     0
 10
0.0
 20
0.0
 30
0.0
  3
*Paper_Space
  1
*Paper_Space
  0
ENDBLK
  5
1D
330
1B
100
AcDbEntity
 67
     1
  8
0
100
AcDbBlockEnd
  0
ENDSEC
  0
SECTION
  2
ENTITIES
  0
LINE
  5
98
330
1F
100
AcDbEntity
  8
1
  6
Continuous
 62
   172
420
      213
 48
2.0
370
     0
100
AcDbLine
 10
-0.0702369108567247
 20
0.0000031418908293
 30
0.0
 11
4.745979748616517
 21
0.0000031418908293
 31
0.0
  0
LINE
  5
99
330
1F
100
AcDbEntity
  8
1
  6
Continuous
 62
   172
420
      213
 48
2.0
370
     0
100
AcDbLine
 10
3.629040613764484
 20
-0.0653331306213971
 30
0.0
 11
3.629040613764484
 21
0.1120081804832438
 31
0.0
  0
LINE
  5
9A
330
1F
100
AcDbEntity
  8
1
  6
Continuous
 62
   172
420
      213
 48
2.0
370
     0
100
AcDbLine
 10
0.9782547004109823
 20
-0.0715556327654241
 30
0.0
 11
0.9782547004109823
 21
0.1120081804832438
 31
0.0
  0
POLYLINE
  5
9B
330
1F
100
AcDbEntity
  8
1
  6
Continuous
 62
   172
420
      213
 48
2.0
370
     0
100
AcDb2dPolyline
 66
     1
 10
0.0
 20
0.0
 30
0.0
 70
   128
  0
VERTEX
  5
9C
330
9B
100
AcDbEntity
  8
1
  6
Continuous
 62
   172
420
      213
 48
2.0
100
AcDbVertex
100
AcDb2dVertex
 10
0.6929263741265821
 20
0.1655758781636507
 30
0.0
  0
VERTEX
  5
9D
330
9B
100
AcDbEntity
  8
1
  6
Continuous
 62
   172
420
      213
 48
2.0
100
AcDbVertex
100
AcDb2dVertex
 10
0.347762428294029
 20
0.1697512484761319
 30
0.0
  0
VERTEX
  5
9E
330
9B
100
AcDbEntity
  8
1
  6
Continuous
 62
   172
420
      213
 48
2.0
100
AcDbVertex
100
AcDb2dVertex
 10
0.2767811329816503
 20
0.1808855693094387
 30
0.0
  0
VERTEX
  5
9F
330
9B
100
AcDbEntity
  8
1
  6
Continuous
 62
   172
420
      213
 48
2.0
100
AcDbVertex
100
AcDb2dVertex
 10
0.1960573069402152
 20
0.2087213713927127
 30
0.0
  0
SEQEND
  5
A0
330
9B
100
AcDbEntity
  8
1
  6
Continuous
 62
   172
420
      213
 48
2.0
370
     0
  0
POLYLINE
  5
A1
330
1F
100
AcDbEntity
  8
1
  6
Continuous
 62
   172
420
      213
 48
2.0
370
     0
100
AcDb2dPolyline
 66
     1
 10
0.0
 20
0.0
 30
0.0
 70
   128
  0
VERTEX
  5
A2
330
A1
100
AcDbEntity
  8
1
  6
Continuous
 62
   172
420
      213
 48
2.0
100
AcDbVertex
100
AcDb2dVertex
 10
0.6052435975642787
 20
0.2073295812885476
 30
0.0
  0
VERTEX
  5
A3
330
A1
100
AcDbEntity
  8
1
  6
Continuous
 62
   172
420
      213
 48
2.0
100
AcDbVertex
100
AcDb2dVertex
 10
0.1974490970443661
 20
0.2087213713927127
 30
0.0
  0
VERTEX
  5
A4
330
A1
100
AcDbEntity
  8
1
  6
Continuous
 62
   172
420
      213
 48
2.0
100
AcDbVertex
100
AcDb2dVertex
 10
0.083322308502968
 20
0.2184639021218544
 30
0.0
  0
VERTEX
  5
A5
330
A1
100
AcDbEntity
  8
1
  6
Continuous
 62
   172
420
      213
 48
2.0
100
AcDbVertex
100
AcDb2dVertex
 10
0.0095574329822874
 20
0.2309900130593263
 30
0.0
  0
VERTEX
  5
A6
330
A1
100
AcDbEntity
  8
1
  6
Continuous
 62
   172
420
      213
 48
2.0
100
AcDbVertex
100
AcDb2dVertex
 10
0.002598482461476
 20
0.2421243338926331
 30
0.0
  0
VERTEX
  5
A7
330
A1
100
AcDbEntity
  8
1
  6
Continuous
 62
   172
420
      213
 48
2.0
100
AcDbVertex
100
AcDb2dVertex
 10
0.0067738527739856
 20
0.2560422349342701
 30
0.0
  0
VERTEX
  5
A8
330
A1
100
AcDbEntity
  8
1
  6
Continuous
 62
   172
420
      213
 48
2.0
100
AcDbVertex
100
AcDb2dVertex
 10
0.0123410131905892
 20
0.2671765557675769
 30
0.0
  0
VERTEX
  5
A9
330
A1
100
AcDbEntity
  8
1
  6
Continuous
 62
   172
420
      213
 48
2.0
100
AcDbVertex
100
AcDb2dVertex
 10
0.0401768152738917
 20
0.2908369875383556
 30
0.0
  0
VERTEX
  5
AA
330
A1
100
AcDbEntity
  8
1
  6
Continuous
 62
   172
420
      213
 48
2.0
100
AcDbVertex
100
AcDb2dVertex
 10
0.037393235065533
 20
0.5121316141003547
 30
0.0
  0
VERTEX
  5
AB
330
A1
100
AcDbEntity
  8
1
  6
Continuous
 62
   172
420
      213
 48
2.0
100
AcDbVertex
100
AcDb2dVertex
 10
0.0499193460030618
 20
0.5469263667044402
 30
0.0
  0
VERTEX
  5
AC
330
A1
100
AcDbEntity
  8
1
  6
Continuous
 62
   172
420
      213
 48
2.0
100
AcDbVertex
100
AcDb2dVertex
 10
0.0791469381904584
 20
0.6137322917042809
 30
0.0
  0
VERTEX
  5
AD
330
A1
100
AcDbEntity
  8
1
  6
Continuous
 62
   172
420
      213
 48
2.0
100
AcDbVertex
100
AcDb2dVertex
 10
0.1348185423570065
 20
0.7014150682665843
 30
0.0
  0
SEQEND
  5
AE
330
A1
100
AcDbEntity
  8
1
  6
Continuous
 62
   172
420
      213
 48
2.0
370
     0
  0
POLYLINE
  5
AF
330
1F
100
AcDbEntity
  8
1
  6
Continuous
 62
   172
420
      213
 48
2.0
370
     0
100
AcDb2dPolyline
 66
     1
 10
0.0
 20
0.0
 30
0.0
 70
   128
  0
VERTEX
  5
B0
330
AF
100
AcDbEntity
  8
1
  6
Continuous
 62
   172
420
      213
 48
2.0
100
AcDbVertex
100
AcDb2dVertex
 10
0.0165163835030988
 20
0.2560422349342701
 30
0.0
  0
VERTEX
  5
B1
330
AF
100
AcDbEntity
  8
1
  6
Continuous
 62
   172
420
      213
 48
2.0
100
AcDbVertex
100
AcDb2dVertex
 10
0.1278595918361951
 20
0.2602176052467655
 30
0.0
  0
VERTEX
  5
B2
330
AF
100
AcDbEntity
  8
1
  6
Continuous
 62
   172
420
      213
 48
2.0
100
AcDbVertex
100
AcDb2dVertex
 10
0.2405945902734423
 20
0.2699601359759072
 30
0.0
  0
VERTEX
  5
B3
330
AF
100
AcDbEntity
  8
1
  6
Continuous
 62
   172
420
      213
 48
2.0
100
AcDbVertex
100
AcDb2dVertex
 10
0.5537473637102401
 20
0.3033630984758275
 30
0.0
  0
SEQEND
  5
B4
330
AF
100
AcDbEntity
  8
1
  6
Continuous
 62
   172
420
      213
 48
2.0
370
     0
  0
POLYLINE
  5
B5
330
1F
100
AcDbEntity
  8
1
  6
Continuous
 62
   172
420
      213
 48
2.0
370
     0
100
AcDb2dPolyline
 66
     1
 10
0.0
 20
0.0
 30
0.0
 70
   128
  0
VERTEX
  5
B6
330
B5
100
AcDbEntity
  8
1
  6
Continuous
 62
   172
420
      213
 48
2.0
100
AcDbVertex
100
AcDb2dVertex
 10
0.6052435975642787
 20
0.2073295812885476
 30
0.0
  0
VERTEX
  5
B7
330
B5
100
AcDbEntity
  8
1
  6
Continuous
 62
   172
420
      213
 48
2.0
100
AcDbVertex
100
AcDb2dVertex
 10
0.6080271777725805
 20
0.3339824807674319
 30
0.0
  0
VERTEX
  5
B8
330
B5
100
AcDbEntity
  8
1
  6
Continuous
 62
   172
420
      213
 48
2.0
100
AcDbVertex
100
AcDb2dVertex
 10
0.613594338189241
 20
0.3966130354547772
 30
0.0
  0
VERTEX
  5
B9
330
B5
100
AcDbEntity
  8
1
  6
Continuous
 62
   172
420
      213
 48
2.0
100
AcDbVertex
100
AcDb2dVertex
 10
0.6289040293350716
 20
0.4467174792046649
 30
0.0
  0
VERTEX
  5
BA
330
B5
100
AcDbEntity
  8
1
  6
Continuous
 62
   172
420
      213
 48
2.0
100
AcDbVertex
100
AcDb2dVertex
 10
0.6525644611058077
 20
0.502389083371213
 30
0.0
  0
VERTEX
  5
BB
330
B5
100
AcDbEntity
  8
1
  6
Continuous
 62
   172
420
      213
 48
2.0
100
AcDbVertex
100
AcDb2dVertex
 10
0.6817920532932611
 20
0.5469263667044402
 30
0.0
  0
VERTEX
  5
BC
330
B5
100
AcDbEntity
  8
1
  6
Continuous
 62
   172
420
      213
 48
2.0
100
AcDbVertex
100
AcDb2dVertex
 10
0.7193703861056768
 20
0.5872882797251862
 30
0.0
  0
VERTEX
  5
BD
330
B5
100
AcDbEntity
  8
1
  6
Continuous
 62
   172
420
      213
 48
2.0
100
AcDbVertex
100
AcDb2dVertex
 10
0.7583405090222435
 20
0.6192994521209414
 30
0.0
  0
VERTEX
  5
BE
330
B5
100
AcDbEntity
  8
1
  6
Continuous
 62
   172
420
      213
 48
2.0
100
AcDbVertex
100
AcDb2dVertex
 10
0.8028777923554706
 20
0.6457434641000503
 30
0.0
  0
VERTEX
  5
BF
330
B5
100
AcDbEntity
  8
1
  6
Continuous
 62
   172
420
      213
 48
2.0
100
AcDbVertex
100
AcDb2dVertex
 10
0.8599411866261697
 20
0.6680121057666639
 30
0.0
  0
VERTEX
  5
C0
330
B5
100
AcDbEntity
  8
1
  6
Continuous
 62
   172
420
      213
 48
2.0
100
AcDbVertex
100
AcDb2dVertex
 10
0.9281389017301898
 20
0.681930006808301
 30
0.0
  0
VERTEX
  5
C1
330
B5
100
AcDbEntity
  8
1
  6
Continuous
 62
   172
420
      213
 48
2.0
100
AcDbVertex
100
AcDb2dVertex
 10
0.9879858762091906
 20
0.6874971672249472
 30
0.0
  0
VERTEX
  5
C2
330
B5
100
AcDbEntity
  8
1
  6
Continuous
 62
   172
420
      213
 48
2.0
100
AcDbVertex
100
AcDb2dVertex
 10
1.053400011104909
 20
0.6805382167041358
 30
0.0
  0
VERTEX
  5
C3
330
B5
100
AcDbEntity
  8
1
  6
Continuous
 62
   172
420
      213
 48
2.0
100
AcDbVertex
100
AcDb2dVertex
 10
1.110463405375608
 20
0.6638367354541685
 30
0.0
  0
VERTEX
  5
C4
330
B5
100
AcDbEntity
  8
1
  6
Continuous
 62
   172
420
      213
 48
2.0
100
AcDbVertex
100
AcDb2dVertex
 10
1.168918589750458
 20
0.6360009333708945
 30
0.0
  0
VERTEX
  5
C5
330
B5
100
AcDbEntity
  8
1
  6
Continuous
 62
   172
420
      213
 48
2.0
100
AcDbVertex
100
AcDb2dVertex
 10
1.221806613708704
 20
0.5970308104543278
 30
0.0
  0
VERTEX
  5
C6
330
B5
100
AcDbEntity
  8
1
  6
Continuous
 62
   172
420
      213
 48
2.0
100
AcDbVertex
100
AcDb2dVertex
 10
1.263560316833573
 20
0.5636278479544075
 30
0.0
  0
VERTEX
  5
C7
330
B5
100
AcDbEntity
  8
1
  6
Continuous
 62
   172
420
      213
 48
2.0
100
AcDbVertex
100
AcDb2dVertex
 10
1.298355069437687
 20
0.5107398239961896
 30
0.0
  0
VERTEX
  5
C8
330
B5
100
AcDbEntity
  8
1
  6
Continuous
 62
   172
420
      213
 48
2.0
100
AcDbVertex
100
AcDb2dVertex
 10
1.324799081416781
 20
0.4550682198296556
 30
0.0
  0
VERTEX
  5
C9
330
B5
100
AcDbEntity
  8
1
  6
Continuous
 62
   172
420
      213
 48
2.0
100
AcDbVertex
100
AcDb2dVertex
 10
1.347067723083423
 20
0.3952212453506263
 30
0.0
  0
VERTEX
  5
CA
330
B5
100
AcDbEntity
  8
1
  6
Continuous
 62
   172
420
      213
 48
2.0
100
AcDbVertex
100
AcDb2dVertex
 10
1.358202043916688
 20
0.3033630984758275
 30
0.0
  0
VERTEX
  5
CB
330
B5
100
AcDbEntity
  8
1
  6
Continuous
 62
   172
420
      213
 48
2.0
100
AcDbVertex
100
AcDb2dVertex
 10
1.355418463708386
 20
0.1961952604552408
 30
0.0
  0
VERTEX
  5
CC
330
B5
100
AcDbEntity
  8
1
  6
Continuous
 62
   172
420
      213
 48
2.0
100
AcDbVertex
100
AcDb2dVertex
 10
1.483463153291407
 20
0.185060939621934
 30
0.0
  0
VERTEX
  5
CD
330
B5
100
AcDbEntity
  8
1
  6
Continuous
 62
   172
420
      213
 48
2.0
100
AcDbVertex
100
AcDb2dVertex
 10
1.983115800686132
 20
0.1864527297260992
 30
0.0
  0
SEQEND
  5
CE
330
B5
100
AcDbEntity
  8
1
  6
Continuous
 62
   172
420
      213
 48
2.0
370
     0
  0
LINE
  5
CF
330
1F
100
AcDbEntity
  8
1
  6
Continuous
 62
   172
420
      213
 48
2.0
370
     0
100
AcDbLine
 10
1.985899380894434
 20
0.2101131614968779
 30
0.0
 11
1.355418463708386
 21
0.211504951601043
 31
0.0
  0
POLYLINE
  5
D0
330
1F
100
AcDbEntity
  8
1
  6
Continuous
 62
   172
420
      213
 48
2.0
370
     0
100
AcDb2dPolyline
 66
     1
 10
0.0
 20
0.0
 30
0.0
 70
   128
  0
VERTEX
  5
D1
330
D0
100
AcDbEntity
  8
1
  6
Continuous
 62
   172
420
      213
 48
2.0
100
AcDbVertex
100
AcDb2dVertex
 10
1.980332220477774
 20
0.2421243338926331
 30
0.0
  0
VERTEX
  5
D2
330
D0
100
AcDbEntity
  8
1
  6
Continuous
 62
   172
420
      213
 48
2.0
100
AcDbVertex
100
AcDb2dVertex
 10
1.500164634541388
 20
0.2435161239967982
 30
0.0
  0
VERTEX
  5
D3
330
D0
100
AcDbEntity
  8
1
  6
Continuous
 62
   172
420
      213
 48
2.0
100
AcDbVertex
100
AcDb2dVertex
 10
1.479287782978954
 20
0.2476914943092936
 30
0.0
  0
VERTEX
  5
D4
330
D0
100
AcDbEntity
  8
1
  6
Continuous
 62
   172
420
      213
 48
2.0
100
AcDbVertex
100
AcDb2dVertex
 10
1.455627351208161
 20
0.2532586547259399
 30
0.0
  0
VERTEX
  5
D5
330
D0
100
AcDbEntity
  8
1
  6
Continuous
 62
   172
420
      213
 48
2.0
100
AcDbVertex
100
AcDb2dVertex
 10
1.44031766006233
 20
0.2657847656634118
 30
0.0
  0
VERTEX
  5
D6
330
D0
100
AcDbEntity
  8
1
  6
Continuous
 62
   172
420
      213
 48
2.0
100
AcDbVertex
100
AcDb2dVertex
 10
1.423616178812406
 20
0.2922287776425208
 30
0.0
  0
VERTEX
  5
D7
330
D0
100
AcDbEntity
  8
1
  6
Continuous
 62
   172
420
      213
 48
2.0
100
AcDbVertex
100
AcDb2dVertex
 10
1.404131117354122
 20
0.3520757521215501
 30
0.0
  0
VERTEX
  5
D8
330
D0
100
AcDbEntity
  8
1
  6
Continuous
 62
   172
420
      213
 48
2.0
100
AcDbVertex
100
AcDb2dVertex
 10
1.379078895479179
 20
0.4439338989963346
 30
0.0
  0
VERTEX
  5
D9
330
D0
100
AcDbEntity
  8
1
  6
Continuous
 62
   172
420
      213
 48
2.0
100
AcDbVertex
100
AcDb2dVertex
 10
1.351243093395876
 20
0.5121316141003547
 30
0.0
  0
VERTEX
  5
DA
330
D0
100
AcDbEntity
  8
1
  6
Continuous
 62
   172
420
      213
 48
2.0
100
AcDbVertex
100
AcDb2dVertex
 10
1.319231921000121
 20
0.5608442677460772
 30
0.0
  0
VERTEX
  5
DB
330
D0
100
AcDbEntity
  8
1
  6
Continuous
 62
   172
420
      213
 48
2.0
100
AcDbVertex
100
AcDb2dVertex
 10
1.274694637666894
 20
0.6220830323292716
 30
0.0
  0
VERTEX
  5
DC
330
D0
100
AcDbEntity
  8
1
  6
Continuous
 62
   172
420
      213
 48
2.0
100
AcDbVertex
100
AcDb2dVertex
 10
1.228765564229516
 20
0.6596613651416874
 30
0.0
  0
VERTEX
  5
DD
330
D0
100
AcDbEntity
  8
1
  6
Continuous
 62
   172
420
      213
 48
2.0
100
AcDbVertex
100
AcDb2dVertex
 10
1.17726933037542
 20
0.6874971672249472
 30
0.0
  0
VERTEX
  5
DE
330
D0
100
AcDbEntity
  8
1
  6
Continuous
 62
   172
420
      213
 48
2.0
100
AcDbVertex
100
AcDb2dVertex
 10
1.136907417354703
 20
0.7083740187873957
 30
0.0
  0
VERTEX
  5
DF
330
D0
100
AcDbEntity
  8
1
  6
Continuous
 62
   172
420
      213
 48
2.0
100
AcDbVertex
100
AcDb2dVertex
 10
1.084019393396513
 20
0.7236837099331979
 30
0.0
  0
VERTEX
  5
E0
330
D0
100
AcDbEntity
  8
1
  6
Continuous
 62
   172
420
      213
 48
2.0
100
AcDbVertex
100
AcDb2dVertex
 10
1.031131369438267
 20
0.7306426604540235
 30
0.0
  0
VERTEX
  5
E1
330
D0
100
AcDbEntity
  8
1
  6
Continuous
 62
   172
420
      213
 48
2.0
100
AcDbVertex
100
AcDb2dVertex
 10
1.007470937667531
 20
0.7320344505581886
 30
0.0
  0
VERTEX
  5
E2
330
D0
100
AcDbEntity
  8
1
  6
Continuous
 62
   172
420
      213
 48
2.0
100
AcDbVertex
100
AcDb2dVertex
 10
0.9462321730843222
 20
0.7278590802456932
 30
0.0
  0
VERTEX
  5
E3
330
D0
100
AcDbEntity
  8
1
  6
Continuous
 62
   172
420
      213
 48
2.0
100
AcDbVertex
100
AcDb2dVertex
 10
0.8808180381886039
 20
0.7195083396207167
 30
0.0
  0
VERTEX
  5
E4
330
D0
100
AcDbEntity
  8
1
  6
Continuous
 62
   172
420
      213
 48
2.0
100
AcDbVertex
100
AcDb2dVertex
 10
0.8251464340221126
 20
0.7028068583707494
 30
0.0
  0
VERTEX
  5
E5
330
D0
100
AcDbEntity
  8
1
  6
Continuous
 62
   172
420
      213
 48
2.0
100
AcDbVertex
100
AcDb2dVertex
 10
0.7694748298555645
 20
0.6777546364958056
 30
0.0
  0
VERTEX
  5
E6
330
D0
100
AcDbEntity
  8
1
  6
Continuous
 62
   172
420
      213
 48
2.0
100
AcDbVertex
100
AcDb2dVertex
 10
0.7193703861056768
 20
0.6429598838917201
 30
0.0
  0
VERTEX
  5
E7
330
D0
100
AcDbEntity
  8
1
  6
Continuous
 62
   172
420
      213
 48
2.0
100
AcDbVertex
100
AcDb2dVertex
 10
0.6706577324599401
 20
0.601206180766809
 30
0.0
  0
VERTEX
  5
E8
330
D0
100
AcDbEntity
  8
1
  6
Continuous
 62
   172
420
      213
 48
2.0
100
AcDbVertex
100
AcDb2dVertex
 10
0.6372547699600339
 20
0.5636278479544075
 30
0.0
  0
VERTEX
  5
E9
330
D0
100
AcDbEntity
  8
1
  6
Continuous
 62
   172
420
      213
 48
2.0
100
AcDbVertex
100
AcDb2dVertex
 10
0.5996764371476182
 20
0.502389083371213
 30
0.0
  0
VERTEX
  5
EA
330
D0
100
AcDbEntity
  8
1
  6
Continuous
 62
   172
420
      213
 48
2.0
100
AcDbVertex
100
AcDb2dVertex
 10
0.5718406350643157
 20
0.4383667385796883
 30
0.0
  0
VERTEX
  5
EB
330
D0
100
AcDbEntity
  8
1
  6
Continuous
 62
   172
420
      213
 48
2.0
100
AcDbVertex
100
AcDb2dVertex
 10
0.5607063142310516
 20
0.3757361838923288
 30
0.0
  0
VERTEX
  5
EC
330
D0
100
AcDbEntity
  8
1
  6
Continuous
 62
   172
420
      213
 48
2.0
100
AcDbVertex
100
AcDb2dVertex
 10
0.5593145241268438
 20
0.2101131614968779
 30
0.0
  0
SEQEND
  5
ED
330
D0
100
AcDbEntity
  8
1
  6
Continuous
 62
   172
420
      213
 48
2.0
370
     0
  0
POLYLINE
  5
EE
330
1F
100
AcDbEntity
  8
1
  6
Continuous
 62
   172
420
      213
 48
2.0
370
     0
100
AcDb2dPolyline
 66
     1
 10
0.0
 20
0.0
 30
0.0
 70
   128
  0
VERTEX
  5
EF
330
EE
100
AcDbEntity
  8
1
  6
Continuous
 62
   172
420
      213
 48
2.0
100
AcDbVertex
100
AcDb2dVertex
 10
0.6887510038140725
 20
0.5566688974335818
 30
0.0
  0
VERTEX
  5
F0
330
EE
100
AcDbEntity
  8
1
  6
Continuous
 62
   172
420
      213
 48
2.0
100
AcDbVertex
100
AcDb2dVertex
 10
0.5078182902728052
 20
0.6652285255583337
 30
0.0
  0
VERTEX
  5
F1
330
EE
100
AcDbEntity
  8
1
  6
Continuous
 62
   172
420
      213
 48
2.0
100
AcDbVertex
100
AcDb2dVertex
 10
0.4827660683978614
 20
0.6513106245166966
 30
0.0
  0
VERTEX
  5
F2
330
EE
100
AcDbEntity
  8
1
  6
Continuous
 62
   172
420
      213
 48
2.0
100
AcDbVertex
100
AcDb2dVertex
 10
0.061053666836326
 20
0.5691950083710537
 30
0.0
  0
SEQEND
  5
F3
330
EE
100
AcDbEntity
  8
1
  6
Continuous
 62
   172
420
      213
 48
2.0
370
     0
  0
POLYLINE
  5
F4
330
1F
100
AcDbEntity
  8
1
  6
Continuous
 62
   172
420
      213
 48
2.0
370
     0
100
AcDb2dPolyline
 66
     1
 10
0.0
 20
0.0
 30
0.0
 70
   128
  0
VERTEX
  5
F5
330
F4
100
AcDbEntity
  8
1
  6
Continuous
 62
   172
420
      213
 48
2.0
100
AcDbVertex
100
AcDb2dVertex
 10
0.5078182902728052
 20
0.6652285255583337
 30
0.0
  0
VERTEX
  5
F6
330
F4
100
AcDbEntity
  8
1
  6
Continuous
 62
   172
420
      213
 48
2.0
100
AcDbVertex
100
AcDb2dVertex
 10
0.5648816845435043
 20
0.7125493890998911
 30
0.0
  0
VERTEX
  5
F7
330
F4
100
AcDbEntity
  8
1
  6
Continuous
 62
   172
420
      213
 48
2.0
100
AcDbVertex
100
AcDb2dVertex
 10
0.5927174866268068
 20
0.7515195120164719
 30
0.0
  0
VERTEX
  5
F8
330
F4
100
AcDbEntity
  8
1
  6
Continuous
 62
   172
420
      213
 48
2.0
100
AcDbVertex
100
AcDb2dVertex
 10
0.5871503262101463
 20
0.7668292031622741
 30
0.0
  0
VERTEX
  5
F9
330
F4
100
AcDbEntity
  8
1
  6
Continuous
 62
   172
420
      213
 48
2.0
100
AcDbVertex
100
AcDb2dVertex
 10
0.5774077954809762
 20
0.7751799437872506
 30
0.0
  0
VERTEX
  5
FA
330
F4
100
AcDbEntity
  8
1
  6
Continuous
 62
   172
420
      213
 48
2.0
100
AcDbVertex
100
AcDb2dVertex
 10
0.5495719933977306
 20
0.779355314099746
 30
0.0
  0
VERTEX
  5
FB
330
F4
100
AcDbEntity
  8
1
  6
Continuous
 62
   172
420
      213
 48
2.0
100
AcDbVertex
100
AcDb2dVertex
 10
0.4424041553771438
 20
0.7723963635789204
 30
0.0
  0
VERTEX
  5
FC
330
F4
100
AcDbEntity
  8
1
  6
Continuous
 62
   172
420
      213
 48
2.0
100
AcDbVertex
100
AcDb2dVertex
 10
0.3449788480856704
 20
0.7570866724331182
 30
0.0
  0
VERTEX
  5
FD
330
F4
100
AcDbEntity
  8
1
  6
Continuous
 62
   172
420
      213
 48
2.0
100
AcDbVertex
100
AcDb2dVertex
 10
0.0805387282946093
 20
0.6861053771207821
 30
0.0
  0
VERTEX
  5
FE
330
F4
100
AcDbEntity
  8
1
  6
Continuous
 62
   172
420
      213
 48
2.0
100
AcDbVertex
100
AcDb2dVertex
 10
0.070796197565496
 20
0.7083740187873957
 30
0.0
  0
VERTEX
  5
FF
330
F4
100
AcDbEntity
  8
1
  6
Continuous
 62
   172
420
      213
 48
2.0
100
AcDbVertex
100
AcDb2dVertex
 10
0.061053666836326
 20
0.7167247594123864
 30
0.0
  0
SEQEND
  5
100
330
F4
100
AcDbEntity
  8
1
  6
Continuous
 62
   172
420
      213
 48
2.0
370
     0
  0
POLYLINE
  5
101
330
1F
100
AcDbEntity
  8
1
  6
Continuous
 62
   172
420
      213
 48
2.0
370
     0
100
AcDb2dPolyline
 66
     1
 10
0.0
 20
0.0
 30
0.0
 70
   128
  0
VERTEX
  5
102
330
101
100
AcDbEntity
  8
1
  6
Continuous
 62
   172
420
      213
 48
2.0
100
AcDbVertex
100
AcDb2dVertex
 10
0.0206917538156084
 20
0.2769190864967186
 30
0.0
  0
VERTEX
  5
103
330
101
100
AcDbEntity
  8
1
  6
Continuous
 62
   172
420
      213
 48
2.0
100
AcDbVertex
100
AcDb2dVertex
 10
0.0192999637114006
 20
0.4536764297254905
 30
0.0
  0
VERTEX
  5
104
330
101
100
AcDbEntity
  8
1
  6
Continuous
 62
   172
420
      213
 48
2.0
100
AcDbVertex
100
AcDb2dVertex
 10
0.0234753340239102
 20
0.4717697010796087
 30
0.0
  0
VERTEX
  5
105
330
101
100
AcDbEntity
  8
1
  6
Continuous
 62
   172
420
      213
 48
2.0
100
AcDbVertex
100
AcDb2dVertex
 10
0.0346096548572312
 20
0.4870793922254109
 30
0.0
  0
VERTEX
  5
106
330
101
100
AcDbEntity
  8
1
  6
Continuous
 62
   172
420
      213
 48
2.0
100
AcDbVertex
100
AcDb2dVertex
 10
0.0666208272529865
 20
0.5009972932670479
 30
0.0
  0
VERTEX
  5
107
330
101
100
AcDbEntity
  8
1
  6
Continuous
 62
   172
420
      213
 48
2.0
100
AcDbVertex
100
AcDb2dVertex
 10
0.1501282335027803
 20
0.5135234042045198
 30
0.0
  0
VERTEX
  5
108
330
101
100
AcDbEntity
  8
1
  6
Continuous
 62
   172
420
      213
 48
2.0
100
AcDbVertex
100
AcDb2dVertex
 10
0.2364192199609327
 20
0.5190905646211661
 30
0.0
  0
VERTEX
  5
109
330
101
100
AcDbEntity
  8
1
  6
Continuous
 62
   172
420
      213
 48
2.0
100
AcDbVertex
100
AcDb2dVertex
 10
0.2670386022525371
 20
0.517698774517001
 30
0.0
  0
VERTEX
  5
10A
330
101
100
AcDbEntity
  8
1
  6
Continuous
 62
   172
420
      213
 48
2.0
100
AcDbVertex
100
AcDb2dVertex
 10
0.2893072439191791
 20
0.5079562437878593
 30
0.0
  0
VERTEX
  5
10B
330
101
100
AcDbEntity
  8
1
  6
Continuous
 62
   172
420
      213
 48
2.0
100
AcDbVertex
100
AcDb2dVertex
 10
0.326885576731538
 20
0.2977959380591813
 30
0.0
  0
VERTEX
  5
10C
330
101
100
AcDbEntity
  8
1
  6
Continuous
 62
   172
420
      213
 48
2.0
100
AcDbVertex
100
AcDb2dVertex
 10
0.3213184163149343
 20
0.2783108766008837
 30
0.0
  0
SEQEND
  5
10D
330
101
100
AcDbEntity
  8
1
  6
Continuous
 62
   172
420
      213
 48
2.0
370
     0
  0
POLYLINE
  5
10E
330
1F
100
AcDbEntity
  8
1
  6
Continuous
 62
   172
420
      213
 48
2.0
370
     0
100
AcDb2dPolyline
 66
     1
 10
0.0
 20
0.0
 30
0.0
 70
   128
  0
VERTEX
  5
10F
330
10E
100
AcDbEntity
  8
1
  6
Continuous
 62
   172
420
      213
 48
2.0
100
AcDbVertex
100
AcDb2dVertex
 10
0.3199266262107265
 20
0.3256317401424411
 30
0.0
  0
VERTEX
  5
110
330
10E
100
AcDbEntity
  8
1
  6
Continuous
 62
   172
420
      213
 48
2.0
100
AcDbVertex
100
AcDb2dVertex
 10
0.3157512558982738
 20
0.3047548885799927
 30
0.0
  0
VERTEX
  5
111
330
10E
100
AcDbEntity
  8
1
  6
Continuous
 62
   172
420
      213
 48
2.0
100
AcDbVertex
100
AcDb2dVertex
 10
0.3060087251691037
 20
0.2922287776425208
 30
0.0
  0
VERTEX
  5
112
330
10E
100
AcDbEntity
  8
1
  6
Continuous
 62
   172
420
      213
 48
2.0
100
AcDbVertex
100
AcDb2dVertex
 10
0.2781729230858581
 20
0.281094456809214
 30
0.0
  0
VERTEX
  5
113
330
10E
100
AcDbEntity
  8
1
  6
Continuous
 62
   172
420
      213
 48
2.0
100
AcDbVertex
100
AcDb2dVertex
 10
0.1111581105862136
 20
0.2783108766008837
 30
0.0
  0
VERTEX
  5
114
330
10E
100
AcDbEntity
  8
1
  6
Continuous
 62
   172
420
      213
 48
2.0
100
AcDbVertex
100
AcDb2dVertex
 10
0.0972402095445908
 20
0.2866616172258745
 30
0.0
  0
VERTEX
  5
115
330
10E
100
AcDbEntity
  8
1
  6
Continuous
 62
   172
420
      213
 48
2.0
100
AcDbVertex
100
AcDb2dVertex
 10
0.0958484194404399
 20
0.3520757521215501
 30
0.0
  0
VERTEX
  5
116
330
10E
100
AcDbEntity
  8
1
  6
Continuous
 62
   172
420
      213
 48
2.0
100
AcDbVertex
100
AcDb2dVertex
 10
0.1028073699612513
 20
0.4592435901421368
 30
0.0
  0
VERTEX
  5
117
330
10E
100
AcDbEntity
  8
1
  6
Continuous
 62
   172
420
      213
 48
2.0
100
AcDbVertex
100
AcDb2dVertex
 10
0.1139416907945723
 20
0.4829040219129155
 30
0.0
  0
VERTEX
  5
118
330
10E
100
AcDbEntity
  8
1
  6
Continuous
 62
   172
420
      213
 48
2.0
100
AcDbVertex
100
AcDb2dVertex
 10
0.129251381940346
 20
0.4954301328503874
 30
0.0
  0
VERTEX
  5
119
330
10E
100
AcDbEntity
  8
1
  6
Continuous
 62
   172
420
      213
 48
2.0
100
AcDbVertex
100
AcDb2dVertex
 10
0.2364192199609327
 20
0.5051726635795291
 30
0.0
  0
VERTEX
  5
11A
330
10E
100
AcDbEntity
  8
1
  6
Continuous
 62
   172
420
      213
 48
2.0
100
AcDbVertex
100
AcDb2dVertex
 10
0.2642550220442352
 20
0.5037808734753639
 30
0.0
  0
VERTEX
  5
11B
330
10E
100
AcDbEntity
  8
1
  6
Continuous
 62
   172
420
      213
 48
2.0
100
AcDbVertex
100
AcDb2dVertex
 10
0.2726057626691976
 20
0.4940383427462223
 30
0.0
  0
VERTEX
  5
11C
330
10E
100
AcDbEntity
  8
1
  6
Continuous
 62
   172
420
      213
 48
2.0
100
AcDbVertex
100
AcDb2dVertex
 10
0.29069903402333
 20
0.4035719859756028
 30
0.0
  0
VERTEX
  5
11D
330
10E
100
AcDbEntity
  8
1
  6
Continuous
 62
   172
420
      213
 48
2.0
100
AcDbVertex
100
AcDb2dVertex
 10
0.2823482933983108
 20
0.3993966156631075
 30
0.0
  0
VERTEX
  5
11E
330
10E
100
AcDbEntity
  8
1
  6
Continuous
 62
   172
420
      213
 48
2.0
100
AcDbVertex
100
AcDb2dVertex
 10
0.0791469381904584
 20
0.3938294552464612
 30
0.0
  0
VERTEX
  5
11F
330
10E
100
AcDbEntity
  8
1
  6
Continuous
 62
   172
420
      213
 48
2.0
100
AcDbVertex
100
AcDb2dVertex
 10
0.0735797777737979
 20
0.3729526036839985
 30
0.0
  0
VERTEX
  5
120
330
10E
100
AcDbEntity
  8
1
  6
Continuous
 62
   172
420
      213
 48
2.0
100
AcDbVertex
100
AcDb2dVertex
 10
0.2016244673568188
 20
0.3687772333715174
 30
0.0
  0
VERTEX
  5
121
330
10E
100
AcDbEntity
  8
1
  6
Continuous
 62
   172
420
      213
 48
2.0
100
AcDbVertex
100
AcDb2dVertex
 10
0.221109528815159
 20
0.3799115542048241
 30
0.0
  0
VERTEX
  5
122
330
10E
100
AcDbEntity
  8
1
  6
Continuous
 62
   172
420
      213
 48
2.0
100
AcDbVertex
100
AcDb2dVertex
 10
0.2712139725650466
 20
0.3896540849339658
 30
0.0
  0
VERTEX
  5
123
330
10E
100
AcDbEntity
  8
1
  6
Continuous
 62
   172
420
      213
 48
2.0
100
AcDbVertex
100
AcDb2dVertex
 10
0.2823482933983108
 20
0.2838780370175442
 30
0.0
  0
SEQEND
  5
124
330
10E
100
AcDbEntity
  8
1
  6
Continuous
 62
   172
420
      213
 48
2.0
370
     0
  0
POLYLINE
  5
125
330
1F
100
AcDbEntity
  8
1
  6
Continuous
 62
   172
420
      213
 48
2.0
370
     0
100
AcDb2dPolyline
 66
     1
 10
0.0
 20
0.0
 30
0.0
 70
   128
  0
VERTEX
  5
126
330
125
100
AcDbEntity
  8
1
  6
Continuous
 62
   172
420
      213
 48
2.0
100
AcDbVertex
100
AcDb2dVertex
 10
0.2837400835024617
 20
0.2991877281633322
 30
0.0
  0
VERTEX
  5
127
330
125
100
AcDbEntity
  8
1
  6
Continuous
 62
   172
420
      213
 48
2.0
100
AcDbVertex
100
AcDb2dVertex
 10
0.3046169350649528
 20
0.3047548885799927
 30
0.0
  0
VERTEX
  5
128
330
125
100
AcDbEntity
  8
1
  6
Continuous
 62
   172
420
      213
 48
2.0
100
AcDbVertex
100
AcDb2dVertex
 10
0.3115758855857642
 20
0.3298071104549365
 30
0.0
  0
VERTEX
  5
129
330
125
100
AcDbEntity
  8
1
  6
Continuous
 62
   172
420
      213
 48
2.0
100
AcDbVertex
100
AcDb2dVertex
 10
0.29069903402333
 20
0.4021801958714377
 30
0.0
  0
SEQEND
  5
12A
330
125
100
AcDbEntity
  8
1
  6
Continuous
 62
   172
420
      213
 48
2.0
370
     0
  0
POLYLINE
  5
12B
330
1F
100
AcDbEntity
  8
1
  6
Continuous
 62
   172
420
      213
 48
2.0
370
     0
100
AcDb2dPolyline
 66
     1
 10
0.0
 20
0.0
 30
0.0
 70
   128
  0
VERTEX
  5
12C
330
12B
100
AcDbEntity
  8
1
  6
Continuous
 62
   172
420
      213
 48
2.0
100
AcDbVertex
100
AcDb2dVertex
 10
0.2252848991276117
 20
0.4007884057672726
 30
0.0
  0
VERTEX
  5
12D
330
12B
100
AcDbEntity
  8
1
  6
Continuous
 62
   172
420
      213
 48
2.0
100
AcDbVertex
100
AcDb2dVertex
 10
0.2225013189193099
 20
0.4773368614962692
 30
0.0
  0
VERTEX
  5
12E
330
12B
100
AcDbEntity
  8
1
  6
Continuous
 62
   172
420
      213
 48
2.0
100
AcDbVertex
100
AcDb2dVertex
 10
0.2739975527733485
 20
0.4773368614962692
 30
0.0
  0
SEQEND
  5
12F
330
12B
100
AcDbEntity
  8
1
  6
Continuous
 62
   172
420
      213
 48
2.0
370
     0
  0
POLYLINE
  5
130
330
1F
100
AcDbEntity
  8
1
  6
Continuous
 62
   172
420
      213
 48
2.0
370
     0
100
AcDb2dPolyline
 66
     1
 10
0.0
 20
0.0
 30
0.0
 70
   128
  0
VERTEX
  5
131
330
130
100
AcDbEntity
  8
1
  6
Continuous
 62
   172
420
      213
 48
2.0
100
AcDbVertex
100
AcDb2dVertex
 10
0.0192999637114006
 20
0.3993966156631075
 30
0.0
  0
VERTEX
  5
132
330
130
100
AcDbEntity
  8
1
  6
Continuous
 62
   172
420
      213
 48
2.0
100
AcDbVertex
100
AcDb2dVertex
 10
-0.0043604680593354
 20
0.404963776079768
 30
0.0
  0
VERTEX
  5
133
330
130
100
AcDbEntity
  8
1
  6
Continuous
 62
   172
420
      213
 48
2.0
100
AcDbVertex
100
AcDb2dVertex
 10
-0.0015768878510336
 20
0.5107398239961896
 30
0.0
  0
VERTEX
  5
134
330
130
100
AcDbEntity
  8
1
  6
Continuous
 62
   172
420
      213
 48
2.0
100
AcDbVertex
100
AcDb2dVertex
 10
0.0290424944405707
 20
0.5246577250378266
 30
0.0
  0
VERTEX
  5
135
330
130
100
AcDbEntity
  8
1
  6
Continuous
 62
   172
420
      213
 48
2.0
100
AcDbVertex
100
AcDb2dVertex
 10
0.037393235065533
 20
0.5831129094126908
 30
0.0
  0
VERTEX
  5
136
330
130
100
AcDbEntity
  8
1
  6
Continuous
 62
   172
420
      213
 48
2.0
100
AcDbVertex
100
AcDb2dVertex
 10
0.0554865064196655
 20
0.6304337729542482
 30
0.0
  0
VERTEX
  5
137
330
130
100
AcDbEntity
  8
1
  6
Continuous
 62
   172
420
      213
 48
2.0
100
AcDbVertex
100
AcDb2dVertex
 10
0.0791469381904584
 20
0.6861053771207821
 30
0.0
  0
SEQEND
  5
138
330
130
100
AcDbEntity
  8
1
  6
Continuous
 62
   172
420
      213
 48
2.0
370
     0
  0
POLYLINE
  5
139
330
1F
100
AcDbEntity
  8
1
  6
Continuous
 62
   172
420
      213
 48
2.0
370
     0
100
AcDb2dPolyline
 66
     1
 10
0.0
 20
0.0
 30
0.0
 70
   128
  0
VERTEX
  5
13A
330
139
100
AcDbEntity
  8
1
  6
Continuous
 62
   172
420
      213
 48
2.0
100
AcDbVertex
100
AcDb2dVertex
 10
0.0318260746489294
 20
0.5427509963919448
 30
0.0
  0
VERTEX
  5
13B
330
139
100
AcDbEntity
  8
1
  6
Continuous
 62
   172
420
      213
 48
2.0
100
AcDbVertex
100
AcDb2dVertex
 10
0.0262589142322689
 20
0.5622360578502423
 30
0.0
  0
VERTEX
  5
13C
330
139
100
AcDbEntity
  8
1
  6
Continuous
 62
   172
420
      213
 48
2.0
100
AcDbVertex
100
AcDb2dVertex
 10
0.0540947163155145
 20
0.6888889573291124
 30
0.0
  0
VERTEX
  5
13D
330
139
100
AcDbEntity
  8
1
  6
Continuous
 62
   172
420
      213
 48
2.0
100
AcDbVertex
100
AcDb2dVertex
 10
0.0360014449613821
 20
0.7014150682665843
 30
0.0
  0
VERTEX
  5
13E
330
139
100
AcDbEntity
  8
1
  6
Continuous
 62
   172
420
      213
 48
2.0
100
AcDbVertex
100
AcDb2dVertex
 10
0.0847140986071189
 20
0.7348180307665046
 30
0.0
  0
VERTEX
  5
13F
330
139
100
AcDbEntity
  8
1
  6
Continuous
 62
   172
420
      213
 48
2.0
100
AcDbVertex
100
AcDb2dVertex
 10
0.1515200236069312
 20
0.782138894308062
 30
0.0
  0
VERTEX
  5
140
330
139
100
AcDbEntity
  8
1
  6
Continuous
 62
   172
420
      213
 48
2.0
100
AcDbVertex
100
AcDb2dVertex
 10
0.2322438496484232
 20
0.8183254370163127
 30
0.0
  0
VERTEX
  5
141
330
139
100
AcDbEntity
  8
1
  6
Continuous
 62
   172
420
      213
 48
2.0
100
AcDbVertex
100
AcDb2dVertex
 10
0.338019897564859
 20
0.8545119797245633
 30
0.0
  0
VERTEX
  5
142
330
139
100
AcDbEntity
  8
1
  6
Continuous
 62
   172
420
      213
 48
2.0
100
AcDbVertex
100
AcDb2dVertex
 10
0.4855496486062201
 20
0.8976574729536395
 30
0.0
  0
VERTEX
  5
143
330
139
100
AcDbEntity
  8
1
  6
Continuous
 62
   172
420
      213
 48
2.0
100
AcDbVertex
100
AcDb2dVertex
 10
0.6595234116266191
 20
0.932452225557725
 30
0.0
  0
VERTEX
  5
144
330
139
100
AcDbEntity
  8
1
  6
Continuous
 62
   172
420
      213
 48
2.0
100
AcDbVertex
100
AcDb2dVertex
 10
0.833497174647075
 20
0.9561126573285037
 30
0.0
  0
VERTEX
  5
145
330
139
100
AcDbEntity
  8
1
  6
Continuous
 62
   172
420
      213
 48
2.0
100
AcDbVertex
100
AcDb2dVertex
 10
1.040873900167437
 20
0.975597718786787
 30
0.0
  0
VERTEX
  5
146
330
139
100
AcDbEntity
  8
1
  6
Continuous
 62
   172
420
      213
 48
2.0
100
AcDbVertex
100
AcDb2dVertex
 10
1.093761924125626
 20
0.9658551880576454
 30
0.0
  0
VERTEX
  5
147
330
139
100
AcDbEntity
  8
1
  6
Continuous
 62
   172
420
      213
 48
2.0
100
AcDbVertex
100
AcDb2dVertex
 10
1.180052910583779
 20
0.9797730890992824
 30
0.0
  0
VERTEX
  5
148
330
139
100
AcDbEntity
  8
1
  6
Continuous
 62
   172
420
      213
 48
2.0
100
AcDbVertex
100
AcDb2dVertex
 10
1.242683465271138
 20
0.9881238297242589
 30
0.0
  0
VERTEX
  5
149
330
139
100
AcDbEntity
  8
1
  6
Continuous
 62
   172
420
      213
 48
2.0
100
AcDbVertex
100
AcDb2dVertex
 10
1.285828958500215
 20
0.9922992000367543
 30
0.0
  0
VERTEX
  5
14A
330
139
100
AcDbEntity
  8
1
  6
Continuous
 62
   172
420
      213
 48
2.0
100
AcDbVertex
100
AcDb2dVertex
 10
1.608724262666126
 20
1.149571481807229
 30
0.0
  0
SEQEND
  5
14B
330
139
100
AcDbEntity
  8
1
  6
Continuous
 62
   172
420
      213
 48
2.0
370
     0
  0
LINE
  5
14C
330
1F
100
AcDbEntity
  8
1
  6
Continuous
 62
   172
420
      213
 48
2.0
370
     0
100
AcDbLine
 10
1.568362349645408
 20
1.169056543265512
 30
0.0
 11
1.223198403812855
 21
0.9881238297242589
 31
0.0
  0
POLYLINE
  5
14D
330
1F
100
AcDbEntity
  8
1
  6
Continuous
 62
   172
420
      213
 48
2.0
370
     0
100
AcDb2dPolyline
 66
     1
 10
0.0
 20
0.0
 30
0.0
 70
   128
  0
VERTEX
  5
14E
330
14D
100
AcDbEntity
  8
1
  6
Continuous
 62
   172
420
      213
 48
2.0
100
AcDbVertex
100
AcDb2dVertex
 10
1.430575129333217
 20
1.061888705244925
 30
0.0
  0
VERTEX
  5
14F
330
14D
100
AcDbEntity
  8
1
  6
Continuous
 62
   172
420
      213
 48
2.0
100
AcDbVertex
100
AcDb2dVertex
 10
1.441709450166481
 20
1.049362594307453
 30
0.0
  0
VERTEX
  5
150
330
14D
100
AcDbEntity
  8
1
  6
Continuous
 62
   172
420
      213
 48
2.0
100
AcDbVertex
100
AcDb2dVertex
 10
1.45423556110401
 20
1.02987753284917
 30
0.0
  0
VERTEX
  5
151
330
14D
100
AcDbEntity
  8
1
  6
Continuous
 62
   172
420
      213
 48
2.0
100
AcDbVertex
100
AcDb2dVertex
 10
1.459802721520614
 20
1.014567841703368
 30
0.0
  0
VERTEX
  5
152
330
14D
100
AcDbEntity
  8
1
  6
Continuous
 62
   172
420
      213
 48
2.0
100
AcDbVertex
100
AcDb2dVertex
 10
1.387429636104141
 20
0.9658551880576454
 30
0.0
  0
VERTEX
  5
153
330
14D
100
AcDbEntity
  8
1
  6
Continuous
 62
   172
420
      213
 48
2.0
100
AcDbVertex
100
AcDb2dVertex
 10
1.367944574645858
 20
0.9491537068076923
 30
0.0
  0
VERTEX
  5
154
330
14D
100
AcDbEntity
  8
1
  6
Continuous
 62
   172
420
      213
 48
2.0
100
AcDbVertex
100
AcDb2dVertex
 10
1.369336364750009
 20
0.9296686453493948
 30
0.0
  0
VERTEX
  5
155
330
14D
100
AcDbEntity
  8
1
  6
Continuous
 62
   172
420
      213
 48
2.0
100
AcDbVertex
100
AcDb2dVertex
 10
1.374903525166669
 20
0.9115753739952765
 30
0.0
  0
VERTEX
  5
156
330
14D
100
AcDbEntity
  8
1
  6
Continuous
 62
   172
420
      213
 48
2.0
100
AcDbVertex
100
AcDb2dVertex
 10
1.384646055895782
 20
0.9101835838911114
 30
0.0
  0
VERTEX
  5
157
330
14D
100
AcDbEntity
  8
1
  6
Continuous
 62
   172
420
      213
 48
2.0
100
AcDbVertex
100
AcDb2dVertex
 10
1.646302595478542
 20
0.9282768552452296
 30
0.0
  0
SEQEND
  5
158
330
14D
100
AcDbEntity
  8
1
  6
Continuous
 62
   172
420
      213
 48
2.0
370
     0
  0
POLYLINE
  5
159
330
1F
100
AcDbEntity
  8
1
  6
Continuous
 62
   172
420
      213
 48
2.0
370
     0
100
AcDb2dPolyline
 66
     1
 10
0.0
 20
0.0
 30
0.0
 70
   128
  0
VERTEX
  5
15A
330
159
100
AcDbEntity
  8
1
  6
Continuous
 62
   172
420
      213
 48
2.0
100
AcDbVertex
100
AcDb2dVertex
 10
1.44449303037484
 20
0.9046164234744509
 30
0.0
  0
VERTEX
  5
15B
330
159
100
AcDbEntity
  8
1
  6
Continuous
 62
   172
420
      213
 48
2.0
100
AcDbVertex
100
AcDb2dVertex
 10
1.363769204333348
 20
0.9004410531619698
 30
0.0
  0
VERTEX
  5
15C
330
159
100
AcDbEntity
  8
1
  6
Continuous
 62
   172
420
      213
 48
2.0
100
AcDbVertex
100
AcDb2dVertex
 10
1.347067723083423
 20
0.9032246333702858
 30
0.0
  0
VERTEX
  5
15D
330
159
100
AcDbEntity
  8
1
  6
Continuous
 62
   172
420
      213
 48
2.0
100
AcDbVertex
100
AcDb2dVertex
 10
1.331758031937593
 20
0.9129671640994417
 30
0.0
  0
VERTEX
  5
15E
330
159
100
AcDbEntity
  8
1
  6
Continuous
 62
   172
420
      213
 48
2.0
100
AcDbVertex
100
AcDb2dVertex
 10
1.331758031937593
 20
0.9296686453493948
 30
0.0
  0
VERTEX
  5
15F
330
159
100
AcDbEntity
  8
1
  6
Continuous
 62
   172
420
      213
 48
2.0
100
AcDbVertex
100
AcDb2dVertex
 10
1.342892352770914
 20
0.9533290771201735
 30
0.0
  0
VERTEX
  5
160
330
159
100
AcDbEntity
  8
1
  6
Continuous
 62
   172
420
      213
 48
2.0
100
AcDbVertex
100
AcDb2dVertex
 10
1.406914697562424
 20
0.9978663604534006
 30
0.0
  0
VERTEX
  5
161
330
159
100
AcDbEntity
  8
1
  6
Continuous
 62
   172
420
      213
 48
2.0
100
AcDbVertex
100
AcDb2dVertex
 10
1.452843770999802
 20
1.02431037243251
 30
0.0
  0
SEQEND
  5
162
330
159
100
AcDbEntity
  8
1
  6
Continuous
 62
   172
420
      213
 48
2.0
370
     0
  0
POLYLINE
  5
163
330
1F
100
AcDbEntity
  8
1
  6
Continuous
 62
   172
420
      213
 48
2.0
370
     0
100
AcDb2dPolyline
 66
     1
 10
0.0
 20
0.0
 30
0.0
 70
   128
  0
VERTEX
  5
164
330
163
100
AcDbEntity
  8
1
  6
Continuous
 62
   172
420
      213
 48
2.0
100
AcDbVertex
100
AcDb2dVertex
 10
0.1612625543361013
 20
0.7849224745163923
 30
0.0
  0
VERTEX
  5
165
330
163
100
AcDbEntity
  8
1
  6
Continuous
 62
   172
420
      213
 48
2.0
100
AcDbVertex
100
AcDb2dVertex
 10
0.2169341585026494
 20
0.7320344505581886
 30
0.0
  0
VERTEX
  5
166
330
163
100
AcDbEntity
  8
1
  6
Continuous
 62
   172
420
      213
 48
2.0
100
AcDbVertex
100
AcDb2dVertex
 10
0.209975207981838
 20
0.7167247594123864
 30
0.0
  0
VERTEX
  5
167
330
163
100
AcDbEntity
  8
1
  6
Continuous
 62
   172
420
      213
 48
2.0
100
AcDbVertex
100
AcDb2dVertex
 10
0.1723968751694223
 20
0.6833217969124661
 30
0.0
  0
VERTEX
  5
168
330
163
100
AcDbEntity
  8
1
  6
Continuous
 62
   172
420
      213
 48
2.0
100
AcDbVertex
100
AcDb2dVertex
 10
0.1584789741277994
 20
0.6513106245166966
 30
0.0
  0
VERTEX
  5
169
330
163
100
AcDbEntity
  8
1
  6
Continuous
 62
   172
420
      213
 48
2.0
100
AcDbVertex
100
AcDb2dVertex
 10
0.1556953939194408
 20
0.6081651312876346
 30
0.0
  0
VERTEX
  5
16A
330
163
100
AcDbEntity
  8
1
  6
Continuous
 62
   172
420
      213
 48
2.0
100
AcDbVertex
100
AcDb2dVertex
 10
0.2378110100650837
 20
0.6192994521209414
 30
0.0
  0
VERTEX
  5
16B
330
163
100
AcDbEntity
  8
1
  6
Continuous
 62
   172
420
      213
 48
2.0
100
AcDbVertex
100
AcDb2dVertex
 10
0.2419863803775932
 20
0.6067733411834695
 30
0.0
  0
SEQEND
  5
16C
330
163
100
AcDbEntity
  8
1
  6
Continuous
 62
   172
420
      213
 48
2.0
370
     0
  0
POLYLINE
  5
16D
330
1F
100
AcDbEntity
  8
1
  6
Continuous
 62
   172
420
      213
 48
2.0
370
     0
100
AcDb2dPolyline
 66
     1
 10
0.0
 20
0.0
 30
0.0
 70
   128
  0
VERTEX
  5
16E
330
16D
100
AcDbEntity
  8
1
  6
Continuous
 62
   172
420
      213
 48
2.0
100
AcDbVertex
100
AcDb2dVertex
 10
0.1556953939194408
 20
0.6095569213917997
 30
0.0
  0
VERTEX
  5
16F
330
16D
100
AcDbEntity
  8
1
  6
Continuous
 62
   172
420
      213
 48
2.0
100
AcDbVertex
100
AcDb2dVertex
 10
0.0944566293362321
 20
0.5956390203501627
 30
0.0
  0
VERTEX
  5
170
330
16D
100
AcDbEntity
  8
1
  6
Continuous
 62
   172
420
      213
 48
2.0
100
AcDbVertex
100
AcDb2dVertex
 10
0.0805387282946093
 20
0.5733703786835491
 30
0.0
  0
SEQEND
  5
171
330
16D
100
AcDbEntity
  8
1
  6
Continuous
 62
   172
420
      213
 48
2.0
370
     0
  0
POLYLINE
  5
172
330
1F
100
AcDbEntity
  8
1
  6
Continuous
 62
   172
420
      213
 48
2.0
370
     0
100
AcDb2dPolyline
 66
     1
 10
0.0
 20
0.0
 30
0.0
 70
   128
  0
VERTEX
  5
173
330
172
100
AcDbEntity
  8
1
  6
Continuous
 62
   172
420
      213
 48
2.0
100
AcDbVertex
100
AcDb2dVertex
 10
0.3087923053774055
 20
0.5218741448294963
 30
0.0
  0
VERTEX
  5
174
330
172
100
AcDbEntity
  8
1
  6
Continuous
 62
   172
420
      213
 48
2.0
100
AcDbVertex
100
AcDb2dVertex
 10
0.3825571808980861
 20
0.558060687537747
 30
0.0
  0
VERTEX
  5
175
330
172
100
AcDbEntity
  8
1
  6
Continuous
 62
   172
420
      213
 48
2.0
100
AcDbVertex
100
AcDb2dVertex
 10
0.4437959454812948
 20
0.6025979708709741
 30
0.0
  0
VERTEX
  5
176
330
172
100
AcDbEntity
  8
1
  6
Continuous
 62
   172
420
      213
 48
2.0
100
AcDbVertex
100
AcDb2dVertex
 10
0.5064265001686543
 20
0.6540942047250269
 30
0.0
  0
SEQEND
  5
177
330
172
100
AcDbEntity
  8
1
  6
Continuous
 62
   172
420
      213
 48
2.0
370
     0
  0
POLYLINE
  5
178
330
1F
100
AcDbEntity
  8
1
  6
Continuous
 62
   172
420
      213
 48
2.0
370
     0
100
AcDb2dPolyline
 66
     1
 10
0.0
 20
0.0
 30
0.0
 70
   128
  0
VERTEX
  5
179
330
178
100
AcDbEntity
  8
1
  6
Continuous
 62
   172
420
      213
 48
2.0
100
AcDbVertex
100
AcDb2dVertex
 10
0.0276507043364198
 20
0.5733703786835491
 30
0.0
  0
VERTEX
  5
17A
330
178
100
AcDbEntity
  8
1
  6
Continuous
 62
   172
420
      213
 48
2.0
100
AcDbVertex
100
AcDb2dVertex
 10
0.0179081736072497
 20
0.5803293292043605
 30
0.0
  0
VERTEX
  5
17B
330
178
100
AcDbEntity
  8
1
  6
Continuous
 62
   172
420
      213
 48
2.0
100
AcDbVertex
100
AcDb2dVertex
 10
0.0151245933989479
 20
0.6346091432667436
 30
0.0
  0
VERTEX
  5
17C
330
178
100
AcDbEntity
  8
1
  6
Continuous
 62
   172
420
      213
 48
2.0
100
AcDbVertex
100
AcDb2dVertex
 10
0.0234753340239102
 20
0.6582695750375223
 30
0.0
  0
VERTEX
  5
17D
330
178
100
AcDbEntity
  8
1
  6
Continuous
 62
   172
420
      213
 48
2.0
100
AcDbVertex
100
AcDb2dVertex
 10
0.0457439756905522
 20
0.6735792661833102
 30
0.0
  0
SEQEND
  5
17E
330
178
100
AcDbEntity
  8
1
  6
Continuous
 62
   172
420
      213
 48
2.0
370
     0
  0
POLYLINE
  5
17F
330
1F
100
AcDbEntity
  8
1
  6
Continuous
 62
   172
420
      213
 48
2.0
370
     0
100
AcDb2dPolyline
 66
     1
 10
0.0
 20
0.0
 30
0.0
 70
   128
  0
VERTEX
  5
180
330
17F
100
AcDbEntity
  8
1
  6
Continuous
 62
   172
420
      213
 48
2.0
100
AcDbVertex
100
AcDb2dVertex
 10
0.5579227340226929
 20
0.779355314099746
 30
0.0
  0
VERTEX
  5
181
330
17F
100
AcDbEntity
  8
1
  6
Continuous
 62
   172
420
      213
 48
2.0
100
AcDbVertex
100
AcDb2dVertex
 10
0.7346800772514506
 20
0.822500807328808
 30
0.0
  0
VERTEX
  5
182
330
17F
100
AcDbEntity
  8
1
  6
Continuous
 62
   172
420
      213
 48
2.0
100
AcDbVertex
100
AcDb2dVertex
 10
0.9058702600635478
 20
0.848944819307917
 30
0.0
  0
VERTEX
  5
183
330
17F
100
AcDbEntity
  8
1
  6
Continuous
 62
   172
420
      213
 48
2.0
100
AcDbVertex
100
AcDb2dVertex
 10
1.052008221000758
 20
0.862862720349554
 30
0.0
  0
VERTEX
  5
184
330
17F
100
AcDbEntity
  8
1
  6
Continuous
 62
   172
420
      213
 48
2.0
100
AcDbVertex
100
AcDb2dVertex
 10
1.173093960062968
 20
0.8642545104537191
 30
0.0
  0
VERTEX
  5
185
330
17F
100
AcDbEntity
  8
1
  6
Continuous
 62
   172
420
      213
 48
2.0
100
AcDbVertex
100
AcDb2dVertex
 10
1.392996796520801
 20
0.8545119797245633
 30
0.0
  0
SEQEND
  5
186
330
17F
100
AcDbEntity
  8
1
  6
Continuous
 62
   172
420
      213
 48
2.0
370
     0
  0
POLYLINE
  5
187
330
1F
100
AcDbEntity
  8
1
  6
Continuous
 62
   172
420
      213
 48
2.0
370
     0
100
AcDb2dPolyline
 66
     1
 10
0.0
 20
0.0
 30
0.0
 70
   128
  0
VERTEX
  5
188
330
187
100
AcDbEntity
  8
1
  6
Continuous
 62
   172
420
      213
 48
2.0
100
AcDbVertex
100
AcDb2dVertex
 10
0.4257026741271623
 20
0.7710045734747553
 30
0.0
  0
VERTEX
  5
189
330
187
100
AcDbEntity
  8
1
  6
Continuous
 62
   172
420
      213
 48
2.0
100
AcDbVertex
100
AcDb2dVertex
 10
0.4507548960021062
 20
0.7849224745163923
 30
0.0
  0
VERTEX
  5
18A
330
187
100
AcDbEntity
  8
1
  6
Continuous
 62
   172
420
      213
 48
2.0
100
AcDbVertex
100
AcDb2dVertex
 10
0.5620981043352025
 20
0.822500807328808
 30
0.0
  0
VERTEX
  5
18B
330
187
100
AcDbEntity
  8
1
  6
Continuous
 62
   172
420
      213
 48
2.0
100
AcDbVertex
100
AcDb2dVertex
 10
0.7625158793347531
 20
0.8712134609745306
 30
0.0
  0
VERTEX
  5
18C
330
187
100
AcDbEntity
  8
1
  6
Continuous
 62
   172
420
      213
 48
2.0
100
AcDbVertex
100
AcDb2dVertex
 10
0.9434485928759635
 20
0.9087917937869463
 30
0.0
  0
VERTEX
  5
18D
330
187
100
AcDbEntity
  8
1
  6
Continuous
 62
   172
420
      213
 48
2.0
100
AcDbVertex
100
AcDb2dVertex
 10
1.007470937667531
 20
0.9199261146202531
 30
0.0
  0
VERTEX
  5
18E
330
187
100
AcDbEntity
  8
1
  6
Continuous
 62
   172
420
      213
 48
2.0
100
AcDbVertex
100
AcDb2dVertex
 10
1.032523159542475
 20
0.9380193859743713
 30
0.0
  0
VERTEX
  5
18F
330
187
100
AcDbEntity
  8
1
  6
Continuous
 62
   172
420
      213
 48
2.0
100
AcDbVertex
100
AcDb2dVertex
 10
1.06453433193823
 20
0.9700305583701407
 30
0.0
  0
SEQEND
  5
190
330
187
100
AcDbEntity
  8
1
  6
Continuous
 62
   172
420
      213
 48
2.0
370
     0
  0
POLYLINE
  5
191
330
1F
100
AcDbEntity
  8
1
  6
Continuous
 62
   172
420
      213
 48
2.0
370
     0
100
AcDb2dPolyline
 66
     1
 10
0.0
 20
0.0
 30
0.0
 70
   128
  0
VERTEX
  5
192
330
191
100
AcDbEntity
  8
1
  6
Continuous
 62
   172
420
      213
 48
2.0
100
AcDbVertex
100
AcDb2dVertex
 10
0.545396623085221
 20
0.9115753739952765
 30
0.0
  0
VERTEX
  5
193
330
191
100
AcDbEntity
  8
1
  6
Continuous
 62
   172
420
      213
 48
2.0
100
AcDbVertex
100
AcDb2dVertex
 10
0.5634898944393534
 20
0.9449783364951969
 30
0.0
  0
VERTEX
  5
194
330
191
100
AcDbEntity
  8
1
  6
Continuous
 62
   172
420
      213
 48
2.0
100
AcDbVertex
100
AcDb2dVertex
 10
0.5815831657934858
 20
0.9533290771201735
 30
0.0
  0
VERTEX
  5
195
330
191
100
AcDbEntity
  8
1
  6
Continuous
 62
   172
420
      213
 48
2.0
100
AcDbVertex
100
AcDb2dVertex
 10
0.8265382241262635
 20
0.9575044474326688
 30
0.0
  0
SEQEND
  5
196
330
191
100
AcDbEntity
  8
1
  6
Continuous
 62
   172
420
      213
 48
2.0
370
     0
  0
POLYLINE
  5
197
330
1F
100
AcDbEntity
  8
1
  6
Continuous
 62
   172
420
      213
 48
2.0
370
     0
100
AcDb2dPolyline
 66
     1
 10
0.0
 20
0.0
 30
0.0
 70
   128
  0
VERTEX
  5
198
330
197
100
AcDbEntity
  8
1
  6
Continuous
 62
   172
420
      213
 48
2.0
100
AcDbVertex
100
AcDb2dVertex
 10
1.762883335555298
 20
0.9300462231122424
 30
0.0
  0
VERTEX
  5
199
330
197
100
AcDbEntity
  8
1
  6
Continuous
 62
   172
420
      213
 48
2.0
100
AcDbVertex
100
AcDb2dVertex
 10
2.251654266689709
 20
0.9643622087896091
 30
0.0
  0
VERTEX
  5
19A
330
197
100
AcDbEntity
  8
1
  6
Continuous
 62
   172
420
      213
 48
2.0
100
AcDbVertex
100
AcDb2dVertex
 10
2.802564955672292
 20
0.9940408991051726
 30
0.0
  0
VERTEX
  5
19B
330
197
100
AcDbEntity
  8
1
  6
Continuous
 62
   172
420
      213
 48
2.0
100
AcDbVertex
100
AcDb2dVertex
 10
3.037212100979698
 20
1.005170407973509
 30
0.0
  0
SEQEND
  5
19C
330
197
100
AcDbEntity
  8
1
  6
Continuous
 62
   172
420
      213
 48
2.0
370
     0
  0
POLYLINE
  5
19D
330
1F
100
AcDbEntity
  8
1
  6
Continuous
 62
   172
420
      213
 48
2.0
370
     0
100
AcDb2dPolyline
 66
     1
 10
0.0
 20
0.0
 30
0.0
 70
   128
  0
VERTEX
  5
19E
330
19D
100
AcDbEntity
  8
1
  6
Continuous
 62
   172
420
      213
 48
2.0
100
AcDbVertex
100
AcDb2dVertex
 10
1.857484160936192
 20
0.9541601589936306
 30
0.0
  0
VERTEX
  5
19F
330
19D
100
AcDbEntity
  8
1
  6
Continuous
 62
   172
420
      213
 48
2.0
100
AcDbVertex
100
AcDb2dVertex
 10
2.6087260095488
 20
1.002388030756421
 30
0.0
  0
VERTEX
  5
1A0
330
19D
100
AcDbEntity
  8
1
  6
Continuous
 62
   172
420
      213
 48
2.0
100
AcDbVertex
100
AcDb2dVertex
 10
3.042776855413845
 20
1.023719589420722
 30
0.0
  0
SEQEND
  5
1A1
330
19D
100
AcDbEntity
  8
1
  6
Continuous
 62
   172
420
      213
 48
2.0
370
     0
  0
POLYLINE
  5
1A2
330
1F
100
AcDbEntity
  8
1
  6
Continuous
 62
   172
420
      213
 48
2.0
370
     0
100
AcDb2dPolyline
 66
     1
 10
0.0
 20
0.0
 30
0.0
 70
   128
  0
VERTEX
  5
1A3
330
1A2
100
AcDbEntity
  8
1
  6
Continuous
 62
   172
420
      213
 48
2.0
100
AcDbVertex
100
AcDb2dVertex
 10
2.539166579121709
 20
0.6824146507917845
 30
0.0
  0
VERTEX
  5
1A4
330
1A2
100
AcDbEntity
  8
1
  6
Continuous
 62
   172
420
      213
 48
2.0
100
AcDbVertex
100
AcDb2dVertex
 10
2.557715760568922
 20
0.8521396610338883
 30
0.0
  0
VERTEX
  5
1A5
330
1A2
100
AcDbEntity
  8
1
  6
Continuous
 62
   172
420
      213
 48
2.0
100
AcDbVertex
100
AcDb2dVertex
 10
2.582757155522668
 20
1.016299916841845
 30
0.0
  0
VERTEX
  5
1A6
330
1A2
100
AcDbEntity
  8
1
  6
Continuous
 62
   172
420
      213
 48
2.0
100
AcDbVertex
100
AcDb2dVertex
 10
2.655098963166861
 20
1.397485595582324
 30
0.0
  0
SEQEND
  5
1A7
330
1A2
100
AcDbEntity
  8
1
  6
Continuous
 62
   172
420
      213
 48
2.0
370
     0
  0
POLYLINE
  5
1A8
330
1F
100
AcDbEntity
  8
1
  6
Continuous
 62
   172
420
      213
 48
2.0
370
     0
100
AcDb2dPolyline
 66
     1
 10
0.0
 20
0.0
 30
0.0
 70
   128
  0
VERTEX
  5
1A9
330
1A8
100
AcDbEntity
  8
1
  6
Continuous
 62
   172
420
      213
 48
2.0
100
AcDbVertex
100
AcDb2dVertex
 10
2.506705511589043
 20
0.996823276322246
 30
0.0
  0
VERTEX
  5
1AA
330
1A8
100
AcDbEntity
  8
1
  6
Continuous
 62
   172
420
      213
 48
2.0
100
AcDbVertex
100
AcDb2dVertex
 10
2.55493338335182
 20
1.228688044412564
 30
0.0
  0
VERTEX
  5
1AB
330
1A8
100
AcDbEntity
  8
1
  6
Continuous
 62
   172
420
      213
 48
2.0
100
AcDbVertex
100
AcDb2dVertex
 10
2.592031746246303
 20
1.367806905266761
 30
0.0
  0
VERTEX
  5
1AC
330
1A8
100
AcDbEntity
  8
1
  6
Continuous
 62
   172
420
      213
 48
2.0
100
AcDbVertex
100
AcDb2dVertex
 10
2.605016173259369
 20
1.382646250424543
 30
0.0
  0
VERTEX
  5
1AD
330
1A8
100
AcDbEntity
  8
1
  6
Continuous
 62
   172
420
      213
 48
2.0
100
AcDbVertex
100
AcDb2dVertex
 10
2.619855518417094
 20
1.390065923003434
 30
0.0
  0
VERTEX
  5
1AE
330
1A8
100
AcDbEntity
  8
1
  6
Continuous
 62
   172
420
      213
 48
2.0
100
AcDbVertex
100
AcDb2dVertex
 10
2.654171504094474
 20
1.396558136509952
 30
0.0
  0
VERTEX
  5
1AF
330
1A8
100
AcDbEntity
  8
1
  6
Continuous
 62
   172
420
      213
 48
2.0
100
AcDbVertex
100
AcDb2dVertex
 10
2.676430521831175
 20
1.392848300220507
 30
0.0
  0
VERTEX
  5
1B0
330
1A8
100
AcDbEntity
  8
1
  6
Continuous
 62
   172
420
      213
 48
2.0
100
AcDbVertex
100
AcDb2dVertex
 10
2.690342407916571
 20
1.382646250424543
 30
0.0
  0
VERTEX
  5
1B1
330
1A8
100
AcDbEntity
  8
1
  6
Continuous
 62
   172
420
      213
 48
2.0
100
AcDbVertex
100
AcDb2dVertex
 10
2.699616998640206
 20
1.365951987122031
 30
0.0
  0
VERTEX
  5
1B2
330
1A8
100
AcDbEntity
  8
1
  6
Continuous
 62
   172
420
      213
 48
2.0
100
AcDbVertex
100
AcDb2dVertex
 10
2.662518635745723
 20
1.007025326118224
 30
0.0
  0
SEQEND
  5
1B3
330
1A8
100
AcDbEntity
  8
1
  6
Continuous
 62
   172
420
      213
 48
2.0
370
     0
  0
POLYLINE
  5
1B4
330
1F
100
AcDbEntity
  8
1
  6
Continuous
 62
   172
420
      213
 48
2.0
370
     0
100
AcDb2dPolyline
 66
     1
 10
0.0
 20
0.0
 30
0.0
 70
   128
  0
VERTEX
  5
1B5
330
1B4
100
AcDbEntity
  8
1
  6
Continuous
 62
   172
420
      213
 48
2.0
100
AcDbVertex
100
AcDb2dVertex
 10
2.591104287173916
 20
1.365951987122031
 30
0.0
  0
VERTEX
  5
1B6
330
1B4
100
AcDbEntity
  8
1
  6
Continuous
 62
   172
420
      213
 48
2.0
100
AcDbVertex
100
AcDb2dVertex
 10
2.458477639826267
 20
1.362242150832586
 30
0.0
  0
VERTEX
  5
1B7
330
1B4
100
AcDbEntity
  8
1
  6
Continuous
 62
   172
420
      213
 48
2.0
100
AcDbVertex
100
AcDb2dVertex
 10
2.386135832182074
 20
1.35853231454314
 30
0.0
  0
VERTEX
  5
1B8
330
1B4
100
AcDbEntity
  8
1
  6
Continuous
 62
   172
420
      213
 48
2.0
100
AcDbVertex
100
AcDb2dVertex
 10
2.294317384018338
 20
1.342765510313001
 30
0.0
  0
VERTEX
  5
1B9
330
1B4
100
AcDbEntity
  8
1
  6
Continuous
 62
   172
420
      213
 48
2.0
100
AcDbVertex
100
AcDb2dVertex
 10
2.190441967913866
 20
1.318651574431613
 30
0.0
  0
VERTEX
  5
1BA
330
1B4
100
AcDbEntity
  8
1
  6
Continuous
 62
   172
420
      213
 48
2.0
100
AcDbVertex
100
AcDb2dVertex
 10
2.065234993145079
 20
1.285263047826604
 30
0.0
  0
VERTEX
  5
1BB
330
1B4
100
AcDbEntity
  8
1
  6
Continuous
 62
   172
420
      213
 48
2.0
100
AcDbVertex
100
AcDb2dVertex
 10
1.789779648653816
 20
1.158201154913115
 30
0.0
  0
VERTEX
  5
1BC
330
1B4
100
AcDbEntity
  8
1
  6
Continuous
 62
   172
420
      213
 48
2.0
100
AcDbVertex
100
AcDb2dVertex
 10
1.54400299447806
 20
1.037631475506146
 30
0.0
  0
VERTEX
  5
1BD
330
1B4
100
AcDbEntity
  8
1
  6
Continuous
 62
   172
420
      213
 48
2.0
100
AcDbVertex
100
AcDb2dVertex
 10
1.518961599524314
 20
0.9337560594016878
 30
0.0
  0
VERTEX
  5
1BE
330
1B4
100
AcDbEntity
  8
1
  6
Continuous
 62
   172
420
      213
 48
2.0
100
AcDbVertex
100
AcDb2dVertex
 10
1.65715300130611
 20
0.9421031910529365
 30
0.0
  0
SEQEND
  5
1BF
330
1B4
100
AcDbEntity
  8
1
  6
Continuous
 62
   172
420
      213
 48
2.0
370
     0
  0
POLYLINE
  5
1C0
330
1F
100
AcDbEntity
  8
1
  6
Continuous
 62
   172
420
      213
 48
2.0
370
     0
100
AcDb2dPolyline
 66
     1
 10
0.0
 20
0.0
 30
0.0
 70
   128
  0
VERTEX
  5
1C1
330
1C0
100
AcDbEntity
  8
1
  6
Continuous
 62
   172
420
      213
 48
2.0
100
AcDbVertex
100
AcDb2dVertex
 10
1.518961599524314
 20
0.9337560594016878
 30
0.0
  0
VERTEX
  5
1C2
330
1C0
100
AcDbEntity
  8
1
  6
Continuous
 62
   172
420
      213
 48
2.0
100
AcDbVertex
100
AcDb2dVertex
 10
1.456821841676085
 20
0.9300462231122424
 30
0.0
  0
VERTEX
  5
1C3
330
1C0
100
AcDbEntity
  8
1
  6
Continuous
 62
   172
420
      213
 48
2.0
100
AcDbVertex
100
AcDb2dVertex
 10
1.438272660228872
 20
0.8632691699022246
 30
0.0
  0
VERTEX
  5
1C4
330
1C0
100
AcDbEntity
  8
1
  6
Continuous
 62
   172
420
      213
 48
2.0
100
AcDbVertex
100
AcDb2dVertex
 10
1.428998069505237
 20
0.7723781808108328
 30
0.0
  0
SEQEND
  5
1C5
330
1C0
100
AcDbEntity
  8
1
  6
Continuous
 62
   172
420
      213
 48
2.0
370
     0
  0
LINE
  5
1C6
330
1F
100
AcDbEntity
  8
1
  6
Continuous
 62
   172
420
      213
 48
2.0
370
     0
100
AcDbLine
 10
1.481863236629888
 20
0.931901141256958
 30
0.0
 11
1.511541926945451
 21
1.042268770867949
 31
0.0
  0
POLYLINE
  5
1C7
330
1F
100
AcDbEntity
  8
1
  6
Continuous
 62
   172
420
      213
 48
2.0
370
     0
100
AcDb2dPolyline
 66
     1
 10
0.0
 20
0.0
 30
0.0
 70
   128
  0
VERTEX
  5
1C8
330
1C7
100
AcDbEntity
  8
1
  6
Continuous
 62
   172
420
      213
 48
2.0
100
AcDbVertex
100
AcDb2dVertex
 10
1.458676759820801
 20
1.015372457769473
 30
0.0
  0
VERTEX
  5
1C9
330
1C7
100
AcDbEntity
  8
1
  6
Continuous
 62
   172
420
      213
 48
2.0
100
AcDbVertex
100
AcDb2dVertex
 10
1.541220617260958
 20
1.060817952315176
 30
0.0
  0
VERTEX
  5
1CA
330
1C7
100
AcDbEntity
  8
1
  6
Continuous
 62
   172
420
      213
 48
2.0
100
AcDbVertex
100
AcDb2dVertex
 10
1.740624317818654
 20
1.163765909347276
 30
0.0
  0
VERTEX
  5
1CB
330
1C7
100
AcDbEntity
  8
1
  6
Continuous
 62
   172
420
      213
 48
2.0
100
AcDbVertex
100
AcDb2dVertex
 10
1.958577199823562
 20
1.267641325451734
 30
0.0
  0
VERTEX
  5
1CC
330
1C7
100
AcDbEntity
  8
1
  6
Continuous
 62
   172
420
      213
 48
2.0
100
AcDbVertex
100
AcDb2dVertex
 10
2.058742779638546
 20
1.310304442780364
 30
0.0
  0
VERTEX
  5
1CD
330
1C7
100
AcDbEntity
  8
1
  6
Continuous
 62
   172
420
      213
 48
2.0
100
AcDbVertex
100
AcDb2dVertex
 10
2.141286637078704
 20
1.33720075587884
 30
0.0
  0
VERTEX
  5
1CE
330
1C7
100
AcDbEntity
  8
1
  6
Continuous
 62
   172
420
      213
 48
2.0
100
AcDbVertex
100
AcDb2dVertex
 10
2.215483362867612
 20
1.354822478253695
 30
0.0
  0
VERTEX
  5
1CF
330
1C7
100
AcDbEntity
  8
1
  6
Continuous
 62
   172
420
      213
 48
2.0
100
AcDbVertex
100
AcDb2dVertex
 10
2.328633369695662
 20
1.378008955062725
 30
0.0
  0
VERTEX
  5
1D0
330
1C7
100
AcDbEntity
  8
1
  6
Continuous
 62
   172
420
      213
 48
2.0
100
AcDbVertex
100
AcDb2dVertex
 10
2.492793625503648
 20
1.390993382075791
 30
0.0
  0
VERTEX
  5
1D1
330
1C7
100
AcDbEntity
  8
1
  6
Continuous
 62
   172
420
      213
 48
2.0
100
AcDbVertex
100
AcDb2dVertex
 10
2.646751831515612
 20
1.398413054654682
 30
0.0
  0
VERTEX
  5
1D2
330
1C7
100
AcDbEntity
  8
1
  6
Continuous
 62
   172
420
      213
 48
2.0
100
AcDbVertex
100
AcDb2dVertex
 10
2.786798151442181
 20
1.397485595582324
 30
0.0
  0
VERTEX
  5
1D3
330
1C7
100
AcDbEntity
  8
1
  6
Continuous
 62
   172
420
      213
 48
2.0
100
AcDbVertex
100
AcDb2dVertex
 10
2.987129311072206
 20
1.390065923003434
 30
0.0
  0
SEQEND
  5
1D4
330
1C7
100
AcDbEntity
  8
1
  6
Continuous
 62
   172
420
      213
 48
2.0
370
     0
  0
LINE
  5
1D5
330
1F
100
AcDbEntity
  8
1
  6
Continuous
 62
   172
420
      213
 48
2.0
370
     0
100
AcDbLine
 10
1.797199321232679
 20
1.087714265413652
 30
0.0
 11
1.801836616594496
 21
1.163765909347276
 31
0.0
  0
LINE
  5
1D6
330
1F
100
AcDbEntity
  8
1
  6
Continuous
 62
   172
420
      213
 48
2.0
370
     0
100
AcDbLine
 10
1.771230467206546
 20
1.092351560775455
 30
0.0
 11
1.774940303496034
 21
1.149854023261867
 31
0.0
  0
POLYLINE
  5
1D7
330
1F
100
AcDbEntity
  8
1
  6
Continuous
 62
   172
420
      213
 48
2.0
370
     0
100
AcDb2dPolyline
 66
     1
 10
0.0
 20
0.0
 30
0.0
 70
   128
  0
VERTEX
  5
1D8
330
1D7
100
AcDbEntity
  8
1
  6
Continuous
 62
   172
420
      213
 48
2.0
100
AcDbVertex
100
AcDb2dVertex
 10
1.569044389431806
 20
1.169330663781452
 30
0.0
  0
VERTEX
  5
1D9
330
1D7
100
AcDbEntity
  8
1
  6
Continuous
 62
   172
420
      213
 48
2.0
100
AcDbVertex
100
AcDb2dVertex
 10
1.726712431733258
 20
1.247237225859791
 30
0.0
  0
VERTEX
  5
1DA
330
1D7
100
AcDbEntity
  8
1
  6
Continuous
 62
   172
420
      213
 48
2.0
100
AcDbVertex
100
AcDb2dVertex
 10
1.919623918784364
 20
1.341838051240643
 30
0.0
  0
VERTEX
  5
1DB
330
1D7
100
AcDbEntity
  8
1
  6
Continuous
 62
   172
420
      213
 48
2.0
100
AcDbVertex
100
AcDb2dVertex
 10
2.013297285092872
 20
1.382646250424543
 30
0.0
  0
VERTEX
  5
1DC
330
1D7
100
AcDbEntity
  8
1
  6
Continuous
 62
   172
420
      213
 48
2.0
100
AcDbVertex
100
AcDb2dVertex
 10
2.105115733256607
 20
1.414179858884822
 30
0.0
  0
VERTEX
  5
1DD
330
1D7
100
AcDbEntity
  8
1
  6
Continuous
 62
   172
420
      213
 48
2.0
100
AcDbVertex
100
AcDb2dVertex
 10
2.1774575409008
 20
1.431801581259691
 30
0.0
  0
VERTEX
  5
1DE
330
1D7
100
AcDbEntity
  8
1
  6
Continuous
 62
   172
420
      213
 48
2.0
100
AcDbVertex
100
AcDb2dVertex
 10
2.29709976123544
 20
1.454988058068722
 30
0.0
  0
VERTEX
  5
1DF
330
1D7
100
AcDbEntity
  8
1
  6
Continuous
 62
   172
420
      213
 48
2.0
100
AcDbVertex
100
AcDb2dVertex
 10
2.42972640858309
 20
1.465190107864686
 30
0.0
  0
VERTEX
  5
1E0
330
1D7
100
AcDbEntity
  8
1
  6
Continuous
 62
   172
420
      213
 48
2.0
100
AcDbVertex
100
AcDb2dVertex
 10
2.924989553223977
 20
1.480029453022468
 30
0.0
  0
SEQEND
  5
1E1
330
1D7
100
AcDbEntity
  8
1
  6
Continuous
 62
   172
420
      213
 48
2.0
370
     0
  0
LINE
  5
1E2
330
1F
100
AcDbEntity
  8
1
  6
Continuous
 62
   172
420
      213
 48
2.0
370
     0
100
AcDbLine
 10
2.035556302829516
 20
1.389138463931062
 30
0.0
 11
2.078219420158145
 21
1.365024528049673
 31
0.0
  0
POLYLINE
  5
1E3
330
1F
100
AcDbEntity
  8
1
  6
Continuous
 62
   172
420
      213
 48
2.0
370
     0
100
AcDb2dPolyline
 66
     1
 10
0.0
 20
0.0
 30
0.0
 70
   128
  0
VERTEX
  5
1E4
330
1E3
100
AcDbEntity
  8
1
  6
Continuous
 62
   172
420
      213
 48
2.0
100
AcDbVertex
100
AcDb2dVertex
 10
1.962287036112993
 20
1.359459773615512
 30
0.0
  0
VERTEX
  5
1E5
330
1E3
100
AcDbEntity
  8
1
  6
Continuous
 62
   172
420
      213
 48
2.0
100
AcDbVertex
100
AcDb2dVertex
 10
2.001240317152192
 20
1.345547887530088
 30
0.0
  0
VERTEX
  5
1E6
330
1E3
100
AcDbEntity
  8
1
  6
Continuous
 62
   172
420
      213
 48
2.0
100
AcDbVertex
100
AcDb2dVertex
 10
2.000312858079806
 20
1.331636001444664
 30
0.0
  0
SEQEND
  5
1E7
330
1E3
100
AcDbEntity
  8
1
  6
Continuous
 62
   172
420
      213
 48
2.0
370
     0
  0
POLYLINE
  5
1E8
330
1F
100
AcDbEntity
  8
1
  6
Continuous
 62
   172
420
      213
 48
2.0
370
     0
100
AcDb2dPolyline
 66
     1
 10
0.0
 20
0.0
 30
0.0
 70
   128
  0
VERTEX
  5
1E9
330
1E8
100
AcDbEntity
  8
1
  6
Continuous
 62
   172
420
      213
 48
2.0
100
AcDbVertex
100
AcDb2dVertex
 10
2.001240317152192
 20
1.377081495990367
 30
0.0
  0
VERTEX
  5
1EA
330
1E8
100
AcDbEntity
  8
1
  6
Continuous
 62
   172
420
      213
 48
2.0
100
AcDbVertex
100
AcDb2dVertex
 10
2.035556302829516
 20
1.35853231454314
 30
0.0
  0
VERTEX
  5
1EB
330
1E8
100
AcDbEntity
  8
1
  6
Continuous
 62
   172
420
      213
 48
2.0
100
AcDbVertex
100
AcDb2dVertex
 10
2.042048516336049
 20
1.348330264747176
 30
0.0
  0
SEQEND
  5
1EC
330
1E8
100
AcDbEntity
  8
1
  6
Continuous
 62
   172
420
      213
 48
2.0
370
     0
  0
POLYLINE
  5
1ED
330
1F
100
AcDbEntity
  8
1
  6
Continuous
 62
   172
420
      213
 48
2.0
370
     0
100
AcDb2dPolyline
 66
     1
 10
0.0
 20
0.0
 30
0.0
 70
   128
  0
VERTEX
  5
1EE
330
1ED
100
AcDbEntity
  8
1
  6
Continuous
 62
   172
420
      213
 48
2.0
100
AcDbVertex
100
AcDb2dVertex
 10
1.856556701863806
 20
0.9532326999212728
 30
0.0
  0
VERTEX
  5
1EF
330
1ED
100
AcDbEntity
  8
1
  6
Continuous
 62
   172
420
      213
 48
2.0
100
AcDbVertex
100
AcDb2dVertex
 10
1.860266538153237
 20
1.068237624894067
 30
0.0
  0
VERTEX
  5
1F0
330
1ED
100
AcDbEntity
  8
1
  6
Continuous
 62
   172
420
      213
 48
2.0
100
AcDbVertex
100
AcDb2dVertex
 10
1.852846865574374
 20
1.075657297472958
 30
0.0
  0
VERTEX
  5
1F1
330
1ED
100
AcDbEntity
  8
1
  6
Continuous
 62
   172
420
      213
 48
2.0
100
AcDbVertex
100
AcDb2dVertex
 10
1.786997271436714
 20
1.088641724486024
 30
0.0
  0
VERTEX
  5
1F2
330
1ED
100
AcDbEntity
  8
1
  6
Continuous
 62
   172
420
      213
 48
2.0
100
AcDbVertex
100
AcDb2dVertex
 10
1.770303008134217
 20
1.09049664263074
 30
0.0
  0
VERTEX
  5
1F3
330
1ED
100
AcDbEntity
  8
1
  6
Continuous
 62
   172
420
      213
 48
2.0
100
AcDbVertex
100
AcDb2dVertex
 10
1.745261613180471
 20
1.087714265413652
 30
0.0
  0
VERTEX
  5
1F4
330
1ED
100
AcDbEntity
  8
1
  6
Continuous
 62
   172
420
      213
 48
2.0
100
AcDbVertex
100
AcDb2dVertex
 10
1.719292759154339
 20
1.075657297472958
 30
0.0
  0
VERTEX
  5
1F5
330
1ED
100
AcDbEntity
  8
1
  6
Continuous
 62
   172
420
      213
 48
2.0
100
AcDbVertex
100
AcDb2dVertex
 10
1.697961200490024
 20
1.058963034170461
 30
0.0
  0
VERTEX
  5
1F6
330
1ED
100
AcDbEntity
  8
1
  6
Continuous
 62
   172
420
      213
 48
2.0
100
AcDbVertex
100
AcDb2dVertex
 10
1.688686609766446
 20
1.037631475506146
 30
0.0
  0
VERTEX
  5
1F7
330
1ED
100
AcDbEntity
  8
1
  6
Continuous
 62
   172
420
      213
 48
2.0
100
AcDbVertex
100
AcDb2dVertex
 10
1.681266937187527
 20
1.004242948901137
 30
0.0
  0
VERTEX
  5
1F8
330
1ED
100
AcDbEntity
  8
1
  6
Continuous
 62
   172
420
      213
 48
2.0
100
AcDbVertex
100
AcDb2dVertex
 10
1.678484559970425
 20
0.9708544222961422
 30
0.0
  0
VERTEX
  5
1F9
330
1ED
100
AcDbEntity
  8
1
  6
Continuous
 62
   172
420
      213
 48
2.0
100
AcDbVertex
100
AcDb2dVertex
 10
1.707235791213659
 20
0.9662171269343247
 30
0.0
  0
VERTEX
  5
1FA
330
1ED
100
AcDbEntity
  8
1
  6
Continuous
 62
   172
420
      213
 48
2.0
100
AcDbVertex
100
AcDb2dVertex
 10
1.718365300082009
 20
0.9458130273423819
 30
0.0
  0
VERTEX
  5
1FB
330
1ED
100
AcDbEntity
  8
1
  6
Continuous
 62
   172
420
      213
 48
2.0
100
AcDbVertex
100
AcDb2dVertex
 10
1.760100958338253
 20
0.9421031910529365
 30
0.0
  0
VERTEX
  5
1FC
330
1ED
100
AcDbEntity
  8
1
  6
Continuous
 62
   172
420
      213
 48
2.0
100
AcDbVertex
100
AcDb2dVertex
 10
1.810183748245745
 20
0.9448855682700241
 30
0.0
  0
VERTEX
  5
1FD
330
1ED
100
AcDbEntity
  8
1
  6
Continuous
 62
   172
420
      213
 48
2.0
100
AcDbVertex
100
AcDb2dVertex
 10
1.85470178371909
 20
0.9532326999212728
 30
0.0
  0
SEQEND
  5
1FE
330
1ED
100
AcDbEntity
  8
1
  6
Continuous
 62
   172
420
      213
 48
2.0
370
     0
  0
POLYLINE
  5
1FF
330
1F
100
AcDbEntity
  8
1
  6
Continuous
 62
   172
420
      213
 48
2.0
370
     0
100
AcDb2dPolyline
 66
     1
 10
0.0
 20
0.0
 30
0.0
 70
   128
  0
VERTEX
  5
200
330
1FF
100
AcDbEntity
  8
1
  6
Continuous
 62
   172
420
      213
 48
2.0
100
AcDbVertex
100
AcDb2dVertex
 10
1.844499733923126
 20
0.9532326999212728
 30
0.0
  0
VERTEX
  5
201
330
1FF
100
AcDbEntity
  8
1
  6
Continuous
 62
   172
420
      213
 48
2.0
100
AcDbVertex
100
AcDb2dVertex
 10
1.841717356706024
 20
1.067310165821709
 30
0.0
  0
VERTEX
  5
202
330
1FF
100
AcDbEntity
  8
1
  6
Continuous
 62
   172
420
      213
 48
2.0
100
AcDbVertex
100
AcDb2dVertex
 10
1.83151530691006
 20
1.0747298384006
 30
0.0
  0
VERTEX
  5
203
330
1FF
100
AcDbEntity
  8
1
  6
Continuous
 62
   172
420
      213
 48
2.0
100
AcDbVertex
100
AcDb2dVertex
 10
1.760100958338253
 20
1.088641724486024
 30
0.0
  0
SEQEND
  5
204
330
1FF
100
AcDbEntity
  8
1
  6
Continuous
 62
   172
420
      213
 48
2.0
370
     0
  0
POLYLINE
  5
205
330
1F
100
AcDbEntity
  8
1
  6
Continuous
 62
   172
420
      213
 48
2.0
370
     0
100
AcDb2dPolyline
 66
     1
 10
0.0
 20
0.0
 30
0.0
 70
   128
  0
VERTEX
  5
206
330
205
100
AcDbEntity
  8
1
  6
Continuous
 62
   172
420
      213
 48
2.0
100
AcDbVertex
100
AcDb2dVertex
 10
1.841717356706024
 20
1.044123689012679
 30
0.0
  0
VERTEX
  5
207
330
205
100
AcDbEntity
  8
1
  6
Continuous
 62
   172
420
      213
 48
2.0
100
AcDbVertex
100
AcDb2dVertex
 10
1.784214894219613
 20
1.040413852723233
 30
0.0
  0
VERTEX
  5
208
330
205
100
AcDbEntity
  8
1
  6
Continuous
 62
   172
420
      213
 48
2.0
100
AcDbVertex
100
AcDb2dVertex
 10
1.768448089989501
 20
1.028356884782539
 30
0.0
  0
VERTEX
  5
209
330
205
100
AcDbEntity
  8
1
  6
Continuous
 62
   172
420
      213
 48
2.0
100
AcDbVertex
100
AcDb2dVertex
 10
1.754536203904049
 20
0.9986781944669758
 30
0.0
  0
SEQEND
  5
20A
330
205
100
AcDbEntity
  8
1
  6
Continuous
 62
   172
420
      213
 48
2.0
370
     0
  0
LINE
  5
20B
330
1F
100
AcDbEntity
  8
1
  6
Continuous
 62
   172
420
      213
 48
2.0
370
     0
100
AcDbLine
 10
1.84264481577841
 20
1.001460571684063
 30
0.0
 11
1.680339478115197
 21
0.9940408991051726
 31
0.0
  0
POLYLINE
  5
20C
330
1F
100
AcDbEntity
  8
1
  6
Continuous
 62
   172
420
      213
 48
2.0
370
     0
100
AcDb2dPolyline
 66
     1
 10
0.0
 20
0.0
 30
0.0
 70
   128
  0
VERTEX
  5
20D
330
20C
100
AcDbEntity
  8
1
  6
Continuous
 62
   172
420
      213
 48
2.0
100
AcDbVertex
100
AcDb2dVertex
 10
1.759173499265867
 20
0.9421031910529365
 30
0.0
  0
VERTEX
  5
20E
330
20C
100
AcDbEntity
  8
1
  6
Continuous
 62
   172
420
      213
 48
2.0
100
AcDbVertex
100
AcDb2dVertex
 10
1.7656657127724
 20
0.913351959809745
 30
0.0
  0
VERTEX
  5
20F
330
20C
100
AcDbEntity
  8
1
  6
Continuous
 62
   172
420
      213
 48
2.0
100
AcDbVertex
100
AcDb2dVertex
 10
1.766593171844786
 20
0.8892380239283426
 30
0.0
  0
VERTEX
  5
210
330
20C
100
AcDbEntity
  8
1
  6
Continuous
 62
   172
420
      213
 48
2.0
100
AcDbVertex
100
AcDb2dVertex
 10
1.760100958338253
 20
0.8660515471193122
 30
0.0
  0
VERTEX
  5
211
330
20C
100
AcDbEntity
  8
1
  6
Continuous
 62
   172
420
      213
 48
2.0
100
AcDbVertex
100
AcDb2dVertex
 10
1.735987022456836
 20
0.8521396610338883
 30
0.0
  0
VERTEX
  5
212
330
20C
100
AcDbEntity
  8
1
  6
Continuous
 62
   172
420
      213
 48
2.0
100
AcDbVertex
100
AcDb2dVertex
 10
1.689614068838775
 20
0.8521396610338883
 30
0.0
  0
VERTEX
  5
213
330
20C
100
AcDbEntity
  8
1
  6
Continuous
 62
   172
420
      213
 48
2.0
100
AcDbVertex
100
AcDb2dVertex
 10
1.653443165016679
 20
0.8567769563957057
 30
0.0
  0
VERTEX
  5
214
330
20C
100
AcDbEntity
  8
1
  6
Continuous
 62
   172
420
      213
 48
2.0
100
AcDbVertex
100
AcDb2dVertex
 10
1.638603819858897
 20
0.8660515471193122
 30
0.0
  0
VERTEX
  5
215
330
20C
100
AcDbEntity
  8
1
  6
Continuous
 62
   172
420
      213
 48
2.0
100
AcDbVertex
100
AcDb2dVertex
 10
1.634893983569466
 20
0.8836732694941816
 30
0.0
  0
VERTEX
  5
216
330
20C
100
AcDbEntity
  8
1
  6
Continuous
 62
   172
420
      213
 48
2.0
100
AcDbVertex
100
AcDb2dVertex
 10
1.639531278931283
 20
0.9040773690861243
 30
0.0
  0
VERTEX
  5
217
330
20C
100
AcDbEntity
  8
1
  6
Continuous
 62
   172
420
      213
 48
2.0
100
AcDbVertex
100
AcDb2dVertex
 10
1.646950951510146
 20
0.9291187640398846
 30
0.0
  0
VERTEX
  5
218
330
20C
100
AcDbEntity
  8
1
  6
Continuous
 62
   172
420
      213
 48
2.0
100
AcDbVertex
100
AcDb2dVertex
 10
1.680339478115197
 20
0.9689995041514123
 30
0.0
  0
SEQEND
  5
219
330
20C
100
AcDbEntity
  8
1
  6
Continuous
 62
   172
420
      213
 48
2.0
370
     0
  0
POLYLINE
  5
21A
330
1F
100
AcDbEntity
  8
1
  6
Continuous
 62
   172
420
      213
 48
2.0
370
     0
100
AcDb2dPolyline
 66
     1
 10
0.0
 20
0.0
 30
0.0
 70
   128
  0
VERTEX
  5
21B
330
21A
100
AcDbEntity
  8
1
  6
Continuous
 62
   172
420
      213
 48
2.0
100
AcDbVertex
100
AcDb2dVertex
 10
2.316576401754983
 20
0.8094765437052729
 30
0.0
  0
VERTEX
  5
21C
330
21A
100
AcDbEntity
  8
1
  6
Continuous
 62
   172
420
      213
 48
2.0
100
AcDbVertex
100
AcDb2dVertex
 10
2.284115334222374
 20
0.8113314618500027
 30
0.0
  0
VERTEX
  5
21D
330
21A
100
AcDbEntity
  8
1
  6
Continuous
 62
   172
420
      213
 48
2.0
100
AcDbVertex
100
AcDb2dVertex
 10
2.284115334222374
 20
0.8178236753565216
 30
0.0
  0
VERTEX
  5
21E
330
21A
100
AcDbEntity
  8
1
  6
Continuous
 62
   172
420
      213
 48
2.0
100
AcDbVertex
100
AcDb2dVertex
 10
2.287825170511805
 20
0.8354453977313909
 30
0.0
  0
VERTEX
  5
21F
330
21A
100
AcDbEntity
  8
1
  6
Continuous
 62
   172
420
      213
 48
2.0
100
AcDbVertex
100
AcDb2dVertex
 10
2.296172302163054
 20
0.8391552340208364
 30
0.0
  0
VERTEX
  5
220
330
21A
100
AcDbEntity
  8
1
  6
Continuous
 62
   172
420
      213
 48
2.0
100
AcDbVertex
100
AcDb2dVertex
 10
2.322141156189186
 20
0.8391552340208364
 30
0.0
  0
VERTEX
  5
221
330
21A
100
AcDbEntity
  8
1
  6
Continuous
 62
   172
420
      213
 48
2.0
100
AcDbVertex
100
AcDb2dVertex
 10
2.349037469287648
 20
0.8437925293826396
 30
0.0
  0
VERTEX
  5
222
330
21A
100
AcDbEntity
  8
1
  6
Continuous
 62
   172
420
      213
 48
2.0
100
AcDbVertex
100
AcDb2dVertex
 10
2.389845668471562
 20
0.848429824744457
 30
0.0
  0
VERTEX
  5
223
330
21A
100
AcDbEntity
  8
1
  6
Continuous
 62
   172
420
      213
 48
2.0
100
AcDbVertex
100
AcDb2dVertex
 10
2.43436370394485
 20
0.848429824744457
 30
0.0
  0
VERTEX
  5
224
330
21A
100
AcDbEntity
  8
1
  6
Continuous
 62
   172
420
      213
 48
2.0
100
AcDbVertex
100
AcDb2dVertex
 10
2.47609936220115
 20
0.8465749065997272
 30
0.0
  0
VERTEX
  5
225
330
21A
100
AcDbEntity
  8
1
  6
Continuous
 62
   172
420
      213
 48
2.0
100
AcDbVertex
100
AcDb2dVertex
 10
2.502995675299612
 20
0.8465749065997272
 30
0.0
  0
VERTEX
  5
226
330
21A
100
AcDbEntity
  8
1
  6
Continuous
 62
   172
420
      213
 48
2.0
100
AcDbVertex
100
AcDb2dVertex
 10
2.506705511589043
 20
0.8363728568037487
 30
0.0
  0
VERTEX
  5
227
330
21A
100
AcDbEntity
  8
1
  6
Continuous
 62
   172
420
      213
 48
2.0
100
AcDbVertex
100
AcDb2dVertex
 10
2.501140757154896
 20
0.8187511344288936
 30
0.0
  0
VERTEX
  5
228
330
21A
100
AcDbEntity
  8
1
  6
Continuous
 62
   172
420
      213
 48
2.0
100
AcDbVertex
100
AcDb2dVertex
 10
2.478881739418195
 20
0.815968757211806
 30
0.0
  0
VERTEX
  5
229
330
21A
100
AcDbEntity
  8
1
  6
Continuous
 62
   172
420
      213
 48
2.0
100
AcDbVertex
100
AcDb2dVertex
 10
2.44178337652377
 20
0.815968757211806
 30
0.0
  0
VERTEX
  5
22A
330
21A
100
AcDbEntity
  8
1
  6
Continuous
 62
   172
420
      213
 48
2.0
100
AcDbVertex
100
AcDb2dVertex
 10
2.416741981570024
 20
0.822460970718339
 30
0.0
  0
VERTEX
  5
22B
330
21A
100
AcDbEntity
  8
1
  6
Continuous
 62
   172
420
      213
 48
2.0
100
AcDbVertex
100
AcDb2dVertex
 10
2.380571077747927
 20
0.8233884297906968
 30
0.0
  0
VERTEX
  5
22C
330
21A
100
AcDbEntity
  8
1
  6
Continuous
 62
   172
420
      213
 48
2.0
100
AcDbVertex
100
AcDb2dVertex
 10
2.34440017392583
 20
0.8196785935012514
 30
0.0
  0
VERTEX
  5
22D
330
21A
100
AcDbEntity
  8
1
  6
Continuous
 62
   172
420
      213
 48
2.0
100
AcDbVertex
100
AcDb2dVertex
 10
2.317503860827369
 20
0.8113314618500027
 30
0.0
  0
SEQEND
  5
22E
330
21A
100
AcDbEntity
  8
1
  6
Continuous
 62
   172
420
      213
 48
2.0
370
     0
  0
POLYLINE
  5
22F
330
1F
100
AcDbEntity
  8
1
  6
Continuous
 62
   172
420
      213
 48
2.0
370
     0
100
AcDb2dPolyline
 66
     1
 10
0.0
 20
0.0
 30
0.0
 70
   128
  0
VERTEX
  5
230
330
22F
100
AcDbEntity
  8
1
  6
Continuous
 62
   172
420
      213
 48
2.0
100
AcDbVertex
100
AcDb2dVertex
 10
2.277623120715841
 20
0.8196785935012514
 30
0.0
  0
VERTEX
  5
231
330
22F
100
AcDbEntity
  8
1
  6
Continuous
 62
   172
420
      213
 48
2.0
100
AcDbVertex
100
AcDb2dVertex
 10
2.283187875149988
 20
0.8391552340208364
 30
0.0
  0
VERTEX
  5
232
330
22F
100
AcDbEntity
  8
1
  6
Continuous
 62
   172
420
      213
 48
2.0
100
AcDbVertex
100
AcDb2dVertex
 10
2.296172302163054
 20
0.8530671201062603
 30
0.0
  0
VERTEX
  5
233
330
22F
100
AcDbEntity
  8
1
  6
Continuous
 62
   172
420
      213
 48
2.0
100
AcDbVertex
100
AcDb2dVertex
 10
2.312866565465551
 20
0.861414251757509
 30
0.0
  0
VERTEX
  5
234
330
22F
100
AcDbEntity
  8
1
  6
Continuous
 62
   172
420
      213
 48
2.0
100
AcDbVertex
100
AcDb2dVertex
 10
2.357384600938897
 20
0.8725437606258453
 30
0.0
  0
VERTEX
  5
235
330
22F
100
AcDbEntity
  8
1
  6
Continuous
 62
   172
420
      213
 48
2.0
100
AcDbVertex
100
AcDb2dVertex
 10
2.403757554556957
 20
0.8762535969152907
 30
0.0
  0
VERTEX
  5
236
330
22F
100
AcDbEntity
  8
1
  6
Continuous
 62
   172
420
      213
 48
2.0
100
AcDbVertex
100
AcDb2dVertex
 10
2.426944031365988
 20
0.8734712196982031
 30
0.0
  0
VERTEX
  5
237
330
22F
100
AcDbEntity
  8
1
  6
Continuous
 62
   172
420
      213
 48
2.0
100
AcDbVertex
100
AcDb2dVertex
 10
2.44178337652377
 20
0.8688339243363998
 30
0.0
  0
VERTEX
  5
238
330
22F
100
AcDbEntity
  8
1
  6
Continuous
 62
   172
420
      213
 48
2.0
100
AcDbVertex
100
AcDb2dVertex
 10
2.451057967247348
 20
0.8567769563957057
 30
0.0
  0
VERTEX
  5
239
330
22F
100
AcDbEntity
  8
1
  6
Continuous
 62
   172
420
      213
 48
2.0
100
AcDbVertex
100
AcDb2dVertex
 10
2.466824771477516
 20
0.8549220382509759
 30
0.0
  0
VERTEX
  5
23A
330
22F
100
AcDbEntity
  8
1
  6
Continuous
 62
   172
420
      213
 48
2.0
100
AcDbVertex
100
AcDb2dVertex
 10
2.505778052516657
 20
0.8512122019615305
 30
0.0
  0
VERTEX
  5
23B
330
22F
100
AcDbEntity
  8
1
  6
Continuous
 62
   172
420
      213
 48
2.0
100
AcDbVertex
100
AcDb2dVertex
 10
2.512270266023247
 20
0.8400826930931942
 30
0.0
  0
VERTEX
  5
23C
330
22F
100
AcDbEntity
  8
1
  6
Continuous
 62
   172
420
      213
 48
2.0
100
AcDbVertex
100
AcDb2dVertex
 10
2.510415347878475
 20
0.822460970718339
 30
0.0
  0
VERTEX
  5
23D
330
22F
100
AcDbEntity
  8
1
  6
Continuous
 62
   172
420
      213
 48
2.0
100
AcDbVertex
100
AcDb2dVertex
 10
2.502995675299612
 20
0.8122589209223605
 30
0.0
  0
VERTEX
  5
23E
330
22F
100
AcDbEntity
  8
1
  6
Continuous
 62
   172
420
      213
 48
2.0
100
AcDbVertex
100
AcDb2dVertex
 10
2.4649698533328
 20
0.8122589209223605
 30
0.0
  0
VERTEX
  5
23F
330
22F
100
AcDbEntity
  8
1
  6
Continuous
 62
   172
420
      213
 48
2.0
100
AcDbVertex
100
AcDb2dVertex
 10
2.444565753740871
 20
0.8076216255605573
 30
0.0
  0
VERTEX
  5
240
330
22F
100
AcDbEntity
  8
1
  6
Continuous
 62
   172
420
      213
 48
2.0
100
AcDbVertex
100
AcDb2dVertex
 10
2.432508785800135
 20
0.7872175259686003
 30
0.0
  0
VERTEX
  5
241
330
22F
100
AcDbEntity
  8
1
  6
Continuous
 62
   172
420
      213
 48
2.0
100
AcDbVertex
100
AcDb2dVertex
 10
2.398192800122811
 20
0.7816527715344392
 30
0.0
  0
VERTEX
  5
242
330
22F
100
AcDbEntity
  8
1
  6
Continuous
 62
   172
420
      213
 48
2.0
100
AcDbVertex
100
AcDb2dVertex
 10
2.359239519083612
 20
0.7807253124620814
 30
0.0
  0
VERTEX
  5
243
330
22F
100
AcDbEntity
  8
1
  6
Continuous
 62
   172
420
      213
 48
2.0
100
AcDbVertex
100
AcDb2dVertex
 10
2.327705910623333
 20
0.7853626078238847
 30
0.0
  0
VERTEX
  5
244
330
22F
100
AcDbEntity
  8
1
  6
Continuous
 62
   172
420
      213
 48
2.0
100
AcDbVertex
100
AcDb2dVertex
 10
2.306374351959018
 20
0.7927822804027755
 30
0.0
  0
VERTEX
  5
245
330
22F
100
AcDbEntity
  8
1
  6
Continuous
 62
   172
420
      213
 48
2.0
100
AcDbVertex
100
AcDb2dVertex
 10
2.285042793294704
 20
0.802984330198754
 30
0.0
  0
VERTEX
  5
246
330
22F
100
AcDbEntity
  8
1
  6
Continuous
 62
   172
420
      213
 48
2.0
100
AcDbVertex
100
AcDb2dVertex
 10
2.277623120715841
 20
0.8187511344288936
 30
0.0
  0
SEQEND
  5
247
330
22F
100
AcDbEntity
  8
1
  6
Continuous
 62
   172
420
      213
 48
2.0
370
     0
  0
POLYLINE
  5
248
330
1F
100
AcDbEntity
  8
1
  6
Continuous
 62
   172
420
      213
 48
2.0
370
     0
100
AcDb2dPolyline
 66
     1
 10
0.0
 20
0.0
 30
0.0
 70
   128
  0
VERTEX
  5
249
330
248
100
AcDbEntity
  8
1
  6
Continuous
 62
   172
420
      213
 48
2.0
100
AcDbVertex
100
AcDb2dVertex
 10
3.033818379217248
 20
1.005156226103892
 30
0.0
  0
VERTEX
  5
24A
330
248
100
AcDbEntity
  8
1
  6
Continuous
 62
   172
420
      213
 48
2.0
100
AcDbVertex
100
AcDb2dVertex
 10
3.574624540531058
 20
1.031389360794492
 30
0.0
  0
VERTEX
  5
24B
330
248
100
AcDbEntity
  8
1
  6
Continuous
 62
   172
420
      213
 48
2.0
100
AcDbVertex
100
AcDb2dVertex
 10
3.8309020871238
 20
1.047532828296397
 30
0.0
  0
VERTEX
  5
24C
330
248
100
AcDbEntity
  8
1
  6
Continuous
 62
   172
420
      213
 48
2.0
100
AcDbVertex
100
AcDb2dVertex
 10
3.948951193231519
 20
1.06569422923603
 30
0.0
  0
VERTEX
  5
24D
330
248
100
AcDbEntity
  8
1
  6
Continuous
 62
   172
420
      213
 48
2.0
100
AcDbVertex
100
AcDb2dVertex
 10
4.063973399182569
 20
1.085873563613418
 30
0.0
  0
VERTEX
  5
24E
330
248
100
AcDbEntity
  8
1
  6
Continuous
 62
   172
420
      213
 48
2.0
100
AcDbVertex
100
AcDb2dVertex
 10
4.081125833403373
 20
1.094954264083242
 30
0.0
  0
VERTEX
  5
24F
330
248
100
AcDbEntity
  8
1
  6
Continuous
 62
   172
420
      213
 48
2.0
100
AcDbVertex
100
AcDb2dVertex
 10
4.084152733559986
 20
1.105043931271936
 30
0.0
  0
VERTEX
  5
250
330
248
100
AcDbEntity
  8
1
  6
Continuous
 62
   172
420
      213
 48
2.0
100
AcDbVertex
100
AcDb2dVertex
 10
4.084152733559986
 20
1.115133598460616
 30
0.0
  0
VERTEX
  5
251
330
248
100
AcDbEntity
  8
1
  6
Continuous
 62
   172
420
      213
 48
2.0
100
AcDbVertex
100
AcDb2dVertex
 10
4.078098933246761
 20
1.127241199087052
 30
0.0
  0
VERTEX
  5
252
330
248
100
AcDbEntity
  8
1
  6
Continuous
 62
   172
420
      213
 48
2.0
100
AcDbVertex
100
AcDb2dVertex
 10
4.000408495893819
 20
1.184752302062591
 30
0.0
  0
VERTEX
  5
253
330
248
100
AcDbEntity
  8
1
  6
Continuous
 62
   172
420
      213
 48
2.0
100
AcDbVertex
100
AcDb2dVertex
 10
3.87428765603519
 20
1.259415839258907
 30
0.0
  0
VERTEX
  5
254
330
248
100
AcDbEntity
  8
1
  6
Continuous
 62
   172
420
      213
 48
2.0
100
AcDbVertex
100
AcDb2dVertex
 10
3.796597218682304
 20
1.293720707700444
 30
0.0
  0
VERTEX
  5
255
330
248
100
AcDbEntity
  8
1
  6
Continuous
 62
   172
420
      213
 48
2.0
100
AcDbVertex
100
AcDb2dVertex
 10
3.694691580076519
 20
1.323989709266527
 30
0.0
  0
VERTEX
  5
256
330
248
100
AcDbEntity
  8
1
  6
Continuous
 62
   172
420
      213
 48
2.0
100
AcDbVertex
100
AcDb2dVertex
 10
3.51307757068005
 20
1.353249744113725
 30
0.0
  0
VERTEX
  5
257
330
248
100
AcDbEntity
  8
1
  6
Continuous
 62
   172
420
      213
 48
2.0
100
AcDbVertex
100
AcDb2dVertex
 10
3.321373894094929
 20
1.371411145053372
 30
0.0
  0
VERTEX
  5
258
330
248
100
AcDbEntity
  8
1
  6
Continuous
 62
   172
420
      213
 48
2.0
100
AcDbVertex
100
AcDb2dVertex
 10
2.987405910149246
 20
1.389572545993019
 30
0.0
  0
SEQEND
  5
259
330
248
100
AcDbEntity
  8
1
  6
Continuous
 62
   172
420
      213
 48
2.0
370
     0
  0
POLYLINE
  5
25A
330
1F
100
AcDbEntity
  8
1
  6
Continuous
 62
   172
420
      213
 48
2.0
370
     0
100
AcDb2dPolyline
 66
     1
 10
0.0
 20
0.0
 30
0.0
 70
   128
  0
VERTEX
  5
25B
330
25A
100
AcDbEntity
  8
1
  6
Continuous
 62
   172
420
      213
 48
2.0
100
AcDbVertex
100
AcDb2dVertex
 10
3.007585244526663
 20
1.36434837802129
 30
0.0
  0
VERTEX
  5
25C
330
25A
100
AcDbEntity
  8
1
  6
Continuous
 62
   172
420
      213
 48
2.0
100
AcDbVertex
100
AcDb2dVertex
 10
3.169019919545715
 20
1.358294577708079
 30
0.0
  0
VERTEX
  5
25D
330
25A
100
AcDbEntity
  8
1
  6
Continuous
 62
   172
420
      213
 48
2.0
100
AcDbVertex
100
AcDb2dVertex
 10
3.31027526018735
 20
1.348204910519385
 30
0.0
  0
VERTEX
  5
25E
330
25A
100
AcDbEntity
  8
1
  6
Continuous
 62
   172
420
      213
 48
2.0
100
AcDbVertex
100
AcDb2dVertex
 10
3.430342299732811
 20
1.338115243330691
 30
0.0
  0
VERTEX
  5
25F
330
25A
100
AcDbEntity
  8
1
  6
Continuous
 62
   172
420
      213
 48
2.0
100
AcDbVertex
100
AcDb2dVertex
 10
3.477763735519627
 20
1.204931636439966
 30
0.0
  0
VERTEX
  5
260
330
25A
100
AcDbEntity
  8
1
  6
Continuous
 62
   172
420
      213
 48
2.0
100
AcDbVertex
100
AcDb2dVertex
 10
3.524176204587629
 20
1.042487994702043
 30
0.0
  0
VERTEX
  5
261
330
25A
100
AcDbEntity
  8
1
  6
Continuous
 62
   172
420
      213
 48
2.0
100
AcDbVertex
100
AcDb2dVertex
 10
3.041890112968158
 20
1.023317627043539
 30
0.0
  0
SEQEND
  5
262
330
25A
100
AcDbEntity
  8
1
  6
Continuous
 62
   172
420
      213
 48
2.0
370
     0
  0
POLYLINE
  5
263
330
1F
100
AcDbEntity
  8
1
  6
Continuous
 62
   172
420
      213
 48
2.0
370
     0
100
AcDb2dPolyline
 66
     1
 10
0.0
 20
0.0
 30
0.0
 70
   128
  0
VERTEX
  5
264
330
263
100
AcDbEntity
  8
1
  6
Continuous
 62
   172
420
      213
 48
2.0
100
AcDbVertex
100
AcDb2dVertex
 10
3.536283805214079
 20
1.030380394075621
 30
0.0
  0
VERTEX
  5
265
330
263
100
AcDbEntity
  8
1
  6
Continuous
 62
   172
420
      213
 48
2.0
100
AcDbVertex
100
AcDb2dVertex
 10
3.496934103178173
 20
1.166590901122945
 30
0.0
  0
VERTEX
  5
266
330
263
100
AcDbEntity
  8
1
  6
Continuous
 62
   172
420
      213
 48
2.0
100
AcDbVertex
100
AcDb2dVertex
 10
3.453548534266783
 20
1.290693807543846
 30
0.0
  0
VERTEX
  5
267
330
263
100
AcDbEntity
  8
1
  6
Continuous
 62
   172
420
      213
 48
2.0
100
AcDbVertex
100
AcDb2dVertex
 10
3.428324366295069
 20
1.360312511145807
 30
0.0
  0
SEQEND
  5
268
330
263
100
AcDbEntity
  8
1
  6
Continuous
 62
   172
420
      213
 48
2.0
370
     0
  0
POLYLINE
  5
269
330
1F
100
AcDbEntity
  8
1
  6
Continuous
 62
   172
420
      213
 48
2.0
370
     0
100
AcDb2dPolyline
 66
     1
 10
0.0
 20
0.0
 30
0.0
 70
   128
  0
VERTEX
  5
26A
330
269
100
AcDbEntity
  8
1
  6
Continuous
 62
   172
420
      213
 48
2.0
100
AcDbVertex
100
AcDb2dVertex
 10
3.489871336146077
 20
1.355267677551467
 30
0.0
  0
VERTEX
  5
26B
330
269
100
AcDbEntity
  8
1
  6
Continuous
 62
   172
420
      213
 48
2.0
100
AcDbVertex
100
AcDb2dVertex
 10
3.594803874908475
 20
1.02937142735675
 30
0.0
  0
VERTEX
  5
26C
330
269
100
AcDbEntity
  8
1
  6
Continuous
 62
   172
420
      213
 48
2.0
100
AcDbVertex
100
AcDb2dVertex
 10
3.603884575378256
 20
0.9930486254774564
 30
0.0
  0
VERTEX
  5
26D
330
269
100
AcDbEntity
  8
1
  6
Continuous
 62
   172
420
      213
 48
2.0
100
AcDbVertex
100
AcDb2dVertex
 10
3.606911475534869
 20
0.9627796239113877
 30
0.0
  0
VERTEX
  5
26E
330
269
100
AcDbEntity
  8
1
  6
Continuous
 62
   172
420
      213
 48
2.0
100
AcDbVertex
100
AcDb2dVertex
 10
3.601866641940514
 20
0.9355375225019174
 30
0.0
  0
VERTEX
  5
26F
330
269
100
AcDbEntity
  8
1
  6
Continuous
 62
   172
420
      213
 48
2.0
100
AcDbVertex
100
AcDb2dVertex
 10
3.58875007459525
 20
0.8951788537471543
 30
0.0
  0
VERTEX
  5
270
330
269
100
AcDbEntity
  8
1
  6
Continuous
 62
   172
420
      213
 48
2.0
100
AcDbVertex
100
AcDb2dVertex
 10
3.559490039748052
 20
0.8386767174904861
 30
0.0
  0
VERTEX
  5
271
330
269
100
AcDbEntity
  8
1
  6
Continuous
 62
   172
420
      213
 48
2.0
100
AcDbVertex
100
AcDb2dVertex
 10
3.506014803647954
 20
0.7397979790413132
 30
0.0
  0
VERTEX
  5
272
330
269
100
AcDbEntity
  8
1
  6
Continuous
 62
   172
420
      213
 48
2.0
100
AcDbVertex
100
AcDb2dVertex
 10
3.486844435989465
 20
0.7226455448205371
 30
0.0
  0
VERTEX
  5
273
330
269
100
AcDbEntity
  8
1
  6
Continuous
 62
   172
420
      213
 48
2.0
100
AcDbVertex
100
AcDb2dVertex
 10
3.459602334580008
 20
0.7075110440375028
 30
0.0
  0
VERTEX
  5
274
330
269
100
AcDbEntity
  8
1
  6
Continuous
 62
   172
420
      213
 48
2.0
100
AcDbVertex
100
AcDb2dVertex
 10
3.421261599262973
 20
0.6933855099733393
 30
0.0
  0
VERTEX
  5
275
330
269
100
AcDbEntity
  8
1
  6
Continuous
 62
   172
420
      213
 48
2.0
100
AcDbVertex
100
AcDb2dVertex
 10
3.398055364729
 20
0.6812779093469032
 30
0.0
  0
VERTEX
  5
276
330
269
100
AcDbEntity
  8
1
  6
Continuous
 62
   172
420
      213
 48
2.0
100
AcDbVertex
100
AcDb2dVertex
 10
3.36576842972519
 20
0.6580716748129163
 30
0.0
  0
SEQEND
  5
277
330
269
100
AcDbEntity
  8
1
  6
Continuous
 62
   172
420
      213
 48
2.0
370
     0
  0
LINE
  5
278
330
1F
100
AcDbEntity
  8
1
  6
Continuous
 62
   172
420
      213
 48
2.0
370
     0
100
AcDbLine
 10
3.299176626279827
 20
1.03441626095109
 30
0.0
 11
3.331463561283638
 21
1.345178010362773
 31
0.0
  0
LINE
  5
279
330
1F
100
AcDbEntity
  8
1
  6
Continuous
 62
   172
420
      213
 48
2.0
370
     0
100
AcDbLine
 10
3.281015225340152
 20
1.033407294232219
 30
0.0
 11
3.315320093781704
 21
1.348204910519385
 31
0.0
  0
POLYLINE
  5
27A
330
1F
100
AcDbEntity
  8
1
  6
Continuous
 62
   172
420
      213
 48
2.0
370
     0
100
AcDb2dPolyline
 66
     1
 10
0.0
 20
0.0
 30
0.0
 70
   128
  0
VERTEX
  5
27B
330
27A
100
AcDbEntity
  8
1
  6
Continuous
 62
   172
420
      213
 48
2.0
100
AcDbVertex
100
AcDb2dVertex
 10
3.031800445779506
 20
1.447083648968558
 30
0.0
  0
VERTEX
  5
27C
330
27A
100
AcDbEntity
  8
1
  6
Continuous
 62
   172
420
      213
 48
2.0
100
AcDbVertex
100
AcDb2dVertex
 10
3.239647589866504
 20
1.444056748811946
 30
0.0
  0
VERTEX
  5
27D
330
27A
100
AcDbEntity
  8
1
  6
Continuous
 62
   172
420
      213
 48
2.0
100
AcDbVertex
100
AcDb2dVertex
 10
3.438414033483777
 20
1.431949148185524
 30
0.0
  0
VERTEX
  5
27E
330
27A
100
AcDbEntity
  8
1
  6
Continuous
 62
   172
420
      213
 48
2.0
100
AcDbVertex
100
AcDb2dVertex
 10
3.680566046012327
 20
1.409751880370393
 30
0.0
  0
VERTEX
  5
27F
330
27A
100
AcDbEntity
  8
1
  6
Continuous
 62
   172
420
      213
 48
2.0
100
AcDbVertex
100
AcDb2dVertex
 10
3.975184327922104
 20
1.380491845523196
 30
0.0
  0
VERTEX
  5
280
330
27A
100
AcDbEntity
  8
1
  6
Continuous
 62
   172
420
      213
 48
2.0
100
AcDbVertex
100
AcDb2dVertex
 10
4.197157006073294
 20
1.349213877238256
 30
0.0
  0
SEQEND
  5
281
330
27A
100
AcDbEntity
  8
1
  6
Continuous
 62
   172
420
      213
 48
2.0
370
     0
  0
LINE
  5
282
330
1F
100
AcDbEntity
  8
1
  6
Continuous
 62
   172
420
      213
 48
2.0
370
     0
100
AcDbLine
 10
4.083143766841115
 20
1.36939321161563
 30
0.0
 11
4.106350001375088
 21
1.393608412868488
 31
0.0
  0
POLYLINE
  5
283
330
1F
100
AcDbEntity
  8
1
  6
Continuous
 62
   172
420
      213
 48
2.0
370
     0
100
AcDb2dPolyline
 66
     1
 10
0.0
 20
0.0
 30
0.0
 70
   128
  0
VERTEX
  5
284
330
283
100
AcDbEntity
  8
1
  6
Continuous
 62
   172
420
      213
 48
2.0
100
AcDbVertex
100
AcDb2dVertex
 10
4.266775709675269
 20
1.109079798147405
 30
0.0
  0
VERTEX
  5
285
330
283
100
AcDbEntity
  8
1
  6
Continuous
 62
   172
420
      213
 48
2.0
100
AcDbVertex
100
AcDb2dVertex
 10
4.075072033090148
 20
1.255379972383423
 30
0.0
  0
VERTEX
  5
286
330
283
100
AcDbEntity
  8
1
  6
Continuous
 62
   172
420
      213
 48
2.0
100
AcDbVertex
100
AcDb2dVertex
 10
3.995363662299464
 20
1.313900042077833
 30
0.0
  0
VERTEX
  5
287
330
283
100
AcDbEntity
  8
1
  6
Continuous
 62
   172
420
      213
 48
2.0
100
AcDbVertex
100
AcDb2dVertex
 10
3.978211228078717
 20
1.335088343174078
 30
0.0
  0
VERTEX
  5
288
330
283
100
AcDbEntity
  8
1
  6
Continuous
 62
   172
420
      213
 48
2.0
100
AcDbVertex
100
AcDb2dVertex
 10
3.969130527608879
 20
1.360312511145807
 30
0.0
  0
VERTEX
  5
289
330
283
100
AcDbEntity
  8
1
  6
Continuous
 62
   172
420
      213
 48
2.0
100
AcDbVertex
100
AcDb2dVertex
 10
3.969130527608879
 20
1.410760847089264
 30
0.0
  0
SEQEND
  5
28A
330
283
100
AcDbEntity
  8
1
  6
Continuous
 62
   172
420
      213
 48
2.0
370
     0
  0
POLYLINE
  5
28B
330
1F
100
AcDbEntity
  8
1
  6
Continuous
 62
   172
420
      213
 48
2.0
370
     0
100
AcDb2dPolyline
 66
     1
 10
0.0
 20
0.0
 30
0.0
 70
   128
  0
VERTEX
  5
28C
330
28B
100
AcDbEntity
  8
1
  6
Continuous
 62
   172
420
      213
 48
2.0
100
AcDbVertex
100
AcDb2dVertex
 10
3.890431123537123
 20
1.417823614121346
 30
0.0
  0
VERTEX
  5
28D
330
28B
100
AcDbEntity
  8
1
  6
Continuous
 62
   172
420
      213
 48
2.0
100
AcDbVertex
100
AcDb2dVertex
 10
3.871260755878577
 20
1.483406450847838
 30
0.0
  0
VERTEX
  5
28E
330
28B
100
AcDbEntity
  8
1
  6
Continuous
 62
   172
420
      213
 48
2.0
100
AcDbVertex
100
AcDb2dVertex
 10
3.850072454782346
 20
1.489460251161063
 30
0.0
  0
VERTEX
  5
28F
330
28B
100
AcDbEntity
  8
1
  6
Continuous
 62
   172
420
      213
 48
2.0
100
AcDbVertex
100
AcDb2dVertex
 10
3.782471684618113
 20
1.489460251161063
 30
0.0
  0
VERTEX
  5
290
330
28B
100
AcDbEntity
  8
1
  6
Continuous
 62
   172
420
      213
 48
2.0
100
AcDbVertex
100
AcDb2dVertex
 10
3.690655713201036
 20
1.439011915217606
 30
0.0
  0
SEQEND
  5
291
330
28B
100
AcDbEntity
  8
1
  6
Continuous
 62
   172
420
      213
 48
2.0
370
     0
  0
POLYLINE
  5
292
330
1F
100
AcDbEntity
  8
1
  6
Continuous
 62
   172
420
      213
 48
2.0
370
     0
100
AcDb2dPolyline
 66
     1
 10
0.0
 20
0.0
 30
0.0
 70
   128
  0
VERTEX
  5
293
330
292
100
AcDbEntity
  8
1
  6
Continuous
 62
   172
420
      213
 48
2.0
100
AcDbVertex
100
AcDb2dVertex
 10
4.205921390610367
 20
1.32968826245525
 30
0.0
  0
VERTEX
  5
294
330
292
100
AcDbEntity
  8
1
  6
Continuous
 62
   172
420
      213
 48
2.0
100
AcDbVertex
100
AcDb2dVertex
 10
4.308602408784704
 20
1.25575792936975
 30
0.0
  0
VERTEX
  5
295
330
292
100
AcDbEntity
  8
1
  6
Continuous
 62
   172
420
      213
 48
2.0
100
AcDbVertex
100
AcDb2dVertex
 10
4.423605149139885
 20
1.159922312407076
 30
0.0
  0
VERTEX
  5
296
330
292
100
AcDbEntity
  8
1
  6
Continuous
 62
   172
420
      213
 48
2.0
100
AcDbVertex
100
AcDb2dVertex
 10
4.549560531433681
 20
1.040812331324886
 30
0.0
  0
VERTEX
  5
297
330
292
100
AcDbEntity
  8
1
  6
Continuous
 62
   172
420
      213
 48
2.0
100
AcDbVertex
100
AcDb2dVertex
 10
4.604323741126645
 20
1.020276127690025
 30
0.0
  0
VERTEX
  5
298
330
292
100
AcDbEntity
  8
1
  6
Continuous
 62
   172
420
      213
 48
2.0
100
AcDbVertex
100
AcDb2dVertex
 10
4.598847420157337
 20
0.9408694736352317
 30
0.0
  0
VERTEX
  5
299
330
292
100
AcDbEntity
  8
1
  6
Continuous
 62
   172
420
      213
 48
2.0
100
AcDbVertex
100
AcDb2dVertex
 10
4.616645463307545
 20
0.9148569490310763
 30
0.0
  0
VERTEX
  5
29A
330
292
100
AcDbEntity
  8
1
  6
Continuous
 62
   172
420
      213
 48
2.0
100
AcDbVertex
100
AcDb2dVertex
 10
4.619383623792228
 20
0.8628318998227655
 30
0.0
  0
VERTEX
  5
29B
330
292
100
AcDbEntity
  8
1
  6
Continuous
 62
   172
420
      213
 48
2.0
100
AcDbVertex
100
AcDb2dVertex
 10
4.494797321740716
 20
0.8628318998227655
 30
0.0
  0
SEQEND
  5
29C
330
292
100
AcDbEntity
  8
1
  6
Continuous
 62
   172
420
      213
 48
2.0
370
     0
  0
POLYLINE
  5
29D
330
1F
100
AcDbEntity
  8
1
  6
Continuous
 62
   172
420
      213
 48
2.0
370
     0
100
AcDb2dPolyline
 66
     1
 10
0.0
 20
0.0
 30
0.0
 70
   128
  0
VERTEX
  5
29E
330
29D
100
AcDbEntity
  8
1
  6
Continuous
 62
   172
420
      213
 48
2.0
100
AcDbVertex
100
AcDb2dVertex
 10
4.550929611676022
 20
1.040812331324886
 30
0.0
  0
VERTEX
  5
29F
330
29D
100
AcDbEntity
  8
1
  6
Continuous
 62
   172
420
      213
 48
2.0
100
AcDbVertex
100
AcDb2dVertex
 10
4.285328044665189
 20
1.094206460775524
 30
0.0
  0
VERTEX
  5
2A0
330
29D
100
AcDbEntity
  8
1
  6
Continuous
 62
   172
420
      213
 48
2.0
100
AcDbVertex
100
AcDb2dVertex
 10
4.267530001514924
 20
1.107897263198765
 30
0.0
  0
SEQEND
  5
2A1
330
29D
100
AcDbEntity
  8
1
  6
Continuous
 62
   172
420
      213
 48
2.0
370
     0
  0
LINE
  5
2A2
330
1F
100
AcDbEntity
  8
1
  6
Continuous
 62
   172
420
      213
 48
2.0
370
     0
100
AcDbLine
 10
4.308602408784704
 20
1.088730139806231
 30
0.0
 11
4.357889297508304
 21
1.014799806720731
 31
0.0
  0
POLYLINE
  5
2A3
330
1F
100
AcDbEntity
  8
1
  6
Continuous
 62
   172
420
      213
 48
2.0
370
     0
100
AcDb2dPolyline
 66
     1
 10
0.0
 20
0.0
 30
0.0
 70
   129
  0
VERTEX
  5
2A4
330
2A3
100
AcDbEntity
  8
1
  6
Continuous
 62
   172
420
      213
 48
2.0
100
AcDbVertex
100
AcDb2dVertex
 10
4.565989494341604
 20
0.8628318998227655
 30
0.0
  0
VERTEX
  5
2A5
330
2A3
100
AcDbEntity
  8
1
  6
Continuous
 62
   172
420
      213
 48
2.0
100
AcDbVertex
100
AcDb2dVertex
 10
4.549560531433681
 20
0.9203332700003699
 30
0.0
  0
VERTEX
  5
2A6
330
2A3
100
AcDbEntity
  8
1
  6
Continuous
 62
   172
420
      213
 48
2.0
100
AcDbVertex
100
AcDb2dVertex
 10
4.526286167314165
 20
0.9600365970277664
 30
0.0
  0
VERTEX
  5
2A7
330
2A3
100
AcDbEntity
  8
1
  6
Continuous
 62
   172
420
      213
 48
2.0
100
AcDbVertex
100
AcDb2dVertex
 10
4.505749963679332
 20
0.9805728006626282
 30
0.0
  0
VERTEX
  5
2A8
330
2A3
100
AcDbEntity
  8
1
  6
Continuous
 62
   172
420
      213
 48
2.0
100
AcDbVertex
100
AcDb2dVertex
 10
4.475630198348167
 20
0.9983708438128502
 30
0.0
  0
VERTEX
  5
2A9
330
2A3
100
AcDbEntity
  8
1
  6
Continuous
 62
   172
420
      213
 48
2.0
100
AcDbVertex
100
AcDb2dVertex
 10
4.423605149139885
 20
1.010692565993764
 30
0.0
  0
VERTEX
  5
2AA
330
2A3
100
AcDbEntity
  8
1
  6
Continuous
 62
   172
420
      213
 48
2.0
100
AcDbVertex
100
AcDb2dVertex
 10
4.355151137023679
 20
1.014799806720731
 30
0.0
  0
VERTEX
  5
2AB
330
2A3
100
AcDbEntity
  8
1
  6
Continuous
 62
   172
420
      213
 48
2.0
100
AcDbVertex
100
AcDb2dVertex
 10
4.249731958364773
 20
1.009323485751437
 30
0.0
  0
VERTEX
  5
2AC
330
2A3
100
AcDbEntity
  8
1
  6
Continuous
 62
   172
420
      213
 48
2.0
100
AcDbVertex
100
AcDb2dVertex
 10
4.190861507944842
 20
0.9983708438128502
 30
0.0
  0
VERTEX
  5
2AD
330
2A3
100
AcDbEntity
  8
1
  6
Continuous
 62
   172
420
      213
 48
2.0
100
AcDbVertex
100
AcDb2dVertex
 10
4.158003582129052
 20
0.9887872821165757
 30
0.0
  0
VERTEX
  5
2AE
330
2A3
100
AcDbEntity
  8
1
  6
Continuous
 62
   172
420
      213
 48
2.0
100
AcDbVertex
100
AcDb2dVertex
 10
4.137467378494161
 20
0.9709892389663679
 30
0.0
  0
VERTEX
  5
2AF
330
2A3
100
AcDbEntity
  8
1
  6
Continuous
 62
   172
420
      213
 48
2.0
100
AcDbVertex
100
AcDb2dVertex
 10
4.214135872064301
 20
0.935393152665938
 30
0.0
  0
VERTEX
  5
2B0
330
2A3
100
AcDbEntity
  8
1
  6
Continuous
 62
   172
420
      213
 48
2.0
100
AcDbVertex
100
AcDb2dVertex
 10
4.25383919909174
 20
0.8956898256385415
 30
0.0
  0
VERTEX
  5
2B1
330
2A3
100
AcDbEntity
  8
1
  6
Continuous
 62
   172
420
      213
 48
2.0
100
AcDbVertex
100
AcDb2dVertex
 10
4.316816890238638
 20
0.8217594925530562
 30
0.0
  0
VERTEX
  5
2B2
330
2A3
100
AcDbEntity
  8
1
  6
Continuous
 62
   172
420
      213
 48
2.0
100
AcDbVertex
100
AcDb2dVertex
 10
4.557775012887614
 20
0.8080686901298151
 30
0.0
  0
VERTEX
  5
2B3
330
2A3
100
AcDbEntity
  8
1
  6
Continuous
 62
   172
420
      213
 48
2.0
100
AcDbVertex
100
AcDb2dVertex
 10
4.565989494341604
 20
0.8628318998227655
 30
0.0
  0
SEQEND
  5
2B4
330
2A3
100
AcDbEntity
  8
1
  6
Continuous
 62
   172
420
      213
 48
2.0
370
     0
  0
POLYLINE
  5
2B5
330
1F
100
AcDbEntity
  8
1
  6
Continuous
 62
   172
420
      213
 48
2.0
370
     0
100
AcDb2dPolyline
 66
     1
 10
0.0
 20
0.0
 30
0.0
 70
   128
  0
VERTEX
  5
2B6
330
2B5
100
AcDbEntity
  8
1
  6
Continuous
 62
   172
420
      213
 48
2.0
100
AcDbVertex
100
AcDb2dVertex
 10
4.575573056037879
 20
0.6916968695322652
 30
0.0
  0
VERTEX
  5
2B7
330
2B5
100
AcDbEntity
  8
1
  6
Continuous
 62
   172
420
      213
 48
2.0
100
AcDbVertex
100
AcDb2dVertex
 10
4.538607889495122
 20
0.7108639929248
 30
0.0
  0
VERTEX
  5
2B8
330
2B5
100
AcDbEntity
  8
1
  6
Continuous
 62
   172
420
      213
 48
2.0
100
AcDbVertex
100
AcDb2dVertex
 10
4.507119043921673
 20
0.7464600792252298
 30
0.0
  0
VERTEX
  5
2B9
330
2B5
100
AcDbEntity
  8
1
  6
Continuous
 62
   172
420
      213
 48
2.0
100
AcDbVertex
100
AcDb2dVertex
 10
4.496166401983057
 20
0.7669962828600916
 30
0.0
  0
VERTEX
  5
2BA
330
2B5
100
AcDbEntity
  8
1
  6
Continuous
 62
   172
420
      213
 48
2.0
100
AcDbVertex
100
AcDb2dVertex
 10
4.490690081013749
 20
0.8614628195804386
 30
0.0
  0
VERTEX
  5
2BB
330
2B5
100
AcDbEntity
  8
1
  6
Continuous
 62
   172
420
      213
 48
2.0
100
AcDbVertex
100
AcDb2dVertex
 10
4.466046636651949
 20
0.938131313150592
 30
0.0
  0
SEQEND
  5
2BC
330
2B5
100
AcDbEntity
  8
1
  6
Continuous
 62
   172
420
      213
 48
2.0
370
     0
  0
POLYLINE
  5
2BD
330
1F
100
AcDbEntity
  8
1
  6
Continuous
 62
   172
420
      213
 48
2.0
370
     0
100
AcDb2dPolyline
 66
     1
 10
0.0
 20
0.0
 30
0.0
 70
   128
  0
VERTEX
  5
2BE
330
2BD
100
AcDbEntity
  8
1
  6
Continuous
 62
   172
420
      213
 48
2.0
100
AcDbVertex
100
AcDb2dVertex
 10
4.535869729010439
 20
0.9395003933929189
 30
0.0
  0
VERTEX
  5
2BF
330
2BD
100
AcDbEntity
  8
1
  6
Continuous
 62
   172
420
      213
 48
2.0
100
AcDbVertex
100
AcDb2dVertex
 10
4.435926871320785
 20
0.9395003933929189
 30
0.0
  0
VERTEX
  5
2C0
330
2BD
100
AcDbEntity
  8
1
  6
Continuous
 62
   172
420
      213
 48
2.0
100
AcDbVertex
100
AcDb2dVertex
 10
4.429081470109193
 20
0.9230714304850238
 30
0.0
  0
VERTEX
  5
2C1
330
2BD
100
AcDbEntity
  8
1
  6
Continuous
 62
   172
420
      213
 48
2.0
100
AcDbVertex
100
AcDb2dVertex
 10
4.433188710836159
 20
0.905273387334816
 30
0.0
  0
VERTEX
  5
2C2
330
2BD
100
AcDbEntity
  8
1
  6
Continuous
 62
   172
420
      213
 48
2.0
100
AcDbVertex
100
AcDb2dVertex
 10
4.455093994713334
 20
0.8600937393381258
 30
0.0
  0
SEQEND
  5
2C3
330
2BD
100
AcDbEntity
  8
1
  6
Continuous
 62
   172
420
      213
 48
2.0
370
     0
  0
LINE
  5
2C4
330
1F
100
AcDbEntity
  8
1
  6
Continuous
 62
   172
420
      213
 48
2.0
370
     0
100
AcDbLine
 10
4.483844679802157
 20
0.9395003933929189
 30
0.0
 11
4.457832155198016
 21
0.999739924055163
 31
0.0
  0
POLYLINE
  5
2C5
330
1F
100
AcDbEntity
  8
1
  6
Continuous
 62
   172
420
      213
 48
2.0
370
     0
100
AcDb2dPolyline
 66
     1
 10
0.0
 20
0.0
 30
0.0
 70
   128
  0
VERTEX
  5
2C6
330
2C5
100
AcDbEntity
  8
1
  6
Continuous
 62
   172
420
      213
 48
2.0
100
AcDbVertex
100
AcDb2dVertex
 10
4.59337109918803
 20
0.8600937393381258
 30
0.0
  0
VERTEX
  5
2C7
330
2C5
100
AcDbEntity
  8
1
  6
Continuous
 62
   172
420
      213
 48
2.0
100
AcDbVertex
100
AcDb2dVertex
 10
4.576942136280163
 20
0.6875896288052985
 30
0.0
  0
VERTEX
  5
2C8
330
2C5
100
AcDbEntity
  8
1
  6
Continuous
 62
   172
420
      213
 48
2.0
100
AcDbVertex
100
AcDb2dVertex
 10
4.578311216522504
 20
0.646517221535575
 30
0.0
  0
VERTEX
  5
2C9
330
2C5
100
AcDbEntity
  8
1
  6
Continuous
 62
   172
420
      213
 48
2.0
100
AcDbVertex
100
AcDb2dVertex
 10
4.579680296764845
 20
0.6095520549928324
 30
0.0
  0
VERTEX
  5
2CA
330
2C5
100
AcDbEntity
  8
1
  6
Continuous
 62
   172
420
      213
 48
2.0
100
AcDbVertex
100
AcDb2dVertex
 10
4.586525697976437
 20
0.584908610631004
 30
0.0
  0
VERTEX
  5
2CB
330
2C5
100
AcDbEntity
  8
1
  6
Continuous
 62
   172
420
      213
 48
2.0
100
AcDbVertex
100
AcDb2dVertex
 10
4.604323741126645
 20
0.5698487279654358
 30
0.0
  0
VERTEX
  5
2CC
330
2C5
100
AcDbEntity
  8
1
  6
Continuous
 62
   172
420
      213
 48
2.0
100
AcDbVertex
100
AcDb2dVertex
 10
4.624859944761536
 20
0.5602651662691613
 30
0.0
  0
VERTEX
  5
2CD
330
2C5
100
AcDbEntity
  8
1
  6
Continuous
 62
   172
420
      213
 48
2.0
100
AcDbVertex
100
AcDb2dVertex
 10
4.685099475423751
 20
0.550681604572901
 30
0.0
  0
SEQEND
  5
2CE
330
2C5
100
AcDbEntity
  8
1
  6
Continuous
 62
   172
420
      213
 48
2.0
370
     0
  0
POLYLINE
  5
2CF
330
1F
100
AcDbEntity
  8
1
  6
Continuous
 62
   172
420
      213
 48
2.0
370
     0
100
AcDb2dPolyline
 66
     1
 10
0.0
 20
0.0
 30
0.0
 70
   128
  0
VERTEX
  5
2D0
330
2CF
100
AcDbEntity
  8
1
  6
Continuous
 62
   172
420
      213
 48
2.0
100
AcDbVertex
100
AcDb2dVertex
 10
4.416759747928236
 20
0.4233571420367639
 30
0.0
  0
VERTEX
  5
2D1
330
2CF
100
AcDbEntity
  8
1
  6
Continuous
 62
   172
420
      213
 48
2.0
100
AcDbVertex
100
AcDb2dVertex
 10
4.463308476167267
 20
0.5999684932965579
 30
0.0
  0
VERTEX
  5
2D2
330
2CF
100
AcDbEntity
  8
1
  6
Continuous
 62
   172
420
      213
 48
2.0
100
AcDbVertex
100
AcDb2dVertex
 10
4.482475599559816
 20
0.6314573388700211
 30
0.0
  0
VERTEX
  5
2D3
330
2CF
100
AcDbEntity
  8
1
  6
Continuous
 62
   172
420
      213
 48
2.0
100
AcDbVertex
100
AcDb2dVertex
 10
4.504380883436991
 20
0.6547317029895225
 30
0.0
  0
VERTEX
  5
2D4
330
2CF
100
AcDbEntity
  8
1
  6
Continuous
 62
   172
420
      213
 48
2.0
100
AcDbVertex
100
AcDb2dVertex
 10
4.526286167314165
 20
0.6588389437164892
 30
0.0
  0
VERTEX
  5
2D5
330
2CF
100
AcDbEntity
  8
1
  6
Continuous
 62
   172
420
      213
 48
2.0
100
AcDbVertex
100
AcDb2dVertex
 10
4.590632938703404
 20
0.6602080239588162
 30
0.0
  0
VERTEX
  5
2D6
330
2CF
100
AcDbEntity
  8
1
  6
Continuous
 62
   172
420
      213
 48
2.0
100
AcDbVertex
100
AcDb2dVertex
 10
4.594740179430371
 20
0.5999684932965579
 30
0.0
  0
VERTEX
  5
2D7
330
2CF
100
AcDbEntity
  8
1
  6
Continuous
 62
   172
420
      213
 48
2.0
100
AcDbVertex
100
AcDb2dVertex
 10
4.605692821368987
 20
0.58217045014635
 30
0.0
  0
VERTEX
  5
2D8
330
2CF
100
AcDbEntity
  8
1
  6
Continuous
 62
   172
420
      213
 48
2.0
100
AcDbVertex
100
AcDb2dVertex
 10
4.639919827427061
 20
0.5643724069961422
 30
0.0
  0
VERTEX
  5
2D9
330
2CF
100
AcDbEntity
  8
1
  6
Continuous
 62
   172
420
      213
 48
2.0
100
AcDbVertex
100
AcDb2dVertex
 10
4.686468555666092
 20
0.552050684815228
 30
0.0
  0
SEQEND
  5
2DA
330
2CF
100
AcDbEntity
  8
1
  6
Continuous
 62
   172
420
      213
 48
2.0
370
     0
  0
POLYLINE
  5
2DB
330
1F
100
AcDbEntity
  8
1
  6
Continuous
 62
   172
420
      213
 48
2.0
370
     0
100
AcDb2dPolyline
 66
     1
 10
0.0
 20
0.0
 30
0.0
 70
   128
  0
VERTEX
  5
2DC
330
2DB
100
AcDbEntity
  8
1
  6
Continuous
 62
   172
420
      213
 48
2.0
100
AcDbVertex
100
AcDb2dVertex
 10
3.815733521548022
 20
0.6341954993546608
 30
0.0
  0
VERTEX
  5
2DD
330
2DB
100
AcDbEntity
  8
1
  6
Continuous
 62
   172
420
      213
 48
2.0
100
AcDbVertex
100
AcDb2dVertex
 10
4.246993797880091
 20
0.7368765175289553
 30
0.0
  0
VERTEX
  5
2DE
330
2DB
100
AcDbEntity
  8
1
  6
Continuous
 62
   172
420
      213
 48
2.0
100
AcDbVertex
100
AcDb2dVertex
 10
4.274375402726573
 20
0.7450909989829029
 30
0.0
  0
VERTEX
  5
2DF
330
2DB
100
AcDbEntity
  8
1
  6
Continuous
 62
   172
420
      213
 48
2.0
100
AcDbVertex
100
AcDb2dVertex
 10
4.292173445876781
 20
0.7574127211638171
 30
0.0
  0
VERTEX
  5
2E0
330
2DB
100
AcDbEntity
  8
1
  6
Continuous
 62
   172
420
      213
 48
2.0
100
AcDbVertex
100
AcDb2dVertex
 10
4.308602408784704
 20
0.7847943260102994
 30
0.0
  0
VERTEX
  5
2E1
330
2DB
100
AcDbEntity
  8
1
  6
Continuous
 62
   172
420
      213
 48
2.0
100
AcDbVertex
100
AcDb2dVertex
 10
4.325031371692571
 20
0.8203904123107293
 30
0.0
  0
SEQEND
  5
2E2
330
2DB
100
AcDbEntity
  8
1
  6
Continuous
 62
   172
420
      213
 48
2.0
370
     0
  0
POLYLINE
  5
2E3
330
1F
100
AcDbEntity
  8
1
  6
Continuous
 62
   172
420
      213
 48
2.0
370
     0
100
AcDb2dPolyline
 66
     1
 10
0.0
 20
0.0
 30
0.0
 70
   128
  0
VERTEX
  5
2E4
330
2E3
100
AcDbEntity
  8
1
  6
Continuous
 62
   172
420
      213
 48
2.0
100
AcDbVertex
100
AcDb2dVertex
 10
4.685099475423751
 20
0.550681604572901
 30
0.0
  0
VERTEX
  5
2E5
330
2E3
100
AcDbEntity
  8
1
  6
Continuous
 62
   172
420
      213
 48
2.0
100
AcDbVertex
100
AcDb2dVertex
 10
4.680992234696784
 20
0.4452624259139526
 30
0.0
  0
VERTEX
  5
2E6
330
2E3
100
AcDbEntity
  8
1
  6
Continuous
 62
   172
420
      213
 48
2.0
100
AcDbVertex
100
AcDb2dVertex
 10
4.583787537491812
 20
0.4329407037330384
 30
0.0
  0
VERTEX
  5
2E7
330
2E3
100
AcDbEntity
  8
1
  6
Continuous
 62
   172
420
      213
 48
2.0
100
AcDbVertex
100
AcDb2dVertex
 10
4.541346049979747
 20
0.4178808210674703
 30
0.0
  0
VERTEX
  5
2E8
330
2E3
100
AcDbEntity
  8
1
  6
Continuous
 62
   172
420
      213
 48
2.0
100
AcDbVertex
100
AcDb2dVertex
 10
4.512595364890981
 20
0.3918682964633149
 30
0.0
  0
VERTEX
  5
2E9
330
2E3
100
AcDbEntity
  8
1
  6
Continuous
 62
   172
420
      213
 48
2.0
100
AcDbVertex
100
AcDb2dVertex
 10
4.405807105989677
 20
0.2809727968350728
 30
0.0
  0
VERTEX
  5
2EA
330
2E3
100
AcDbEntity
  8
1
  6
Continuous
 62
   172
420
      213
 48
2.0
100
AcDbVertex
100
AcDb2dVertex
 10
3.995083033292499
 20
0.2179951056881748
 30
0.0
  0
VERTEX
  5
2EB
330
2E3
100
AcDbEntity
  8
1
  6
Continuous
 62
   172
420
      213
 48
2.0
100
AcDbVertex
100
AcDb2dVertex
 10
3.990975792565532
 20
0.3316287658010566
 30
0.0
  0
VERTEX
  5
2EC
330
2E3
100
AcDbEntity
  8
1
  6
Continuous
 62
   172
420
      213
 48
2.0
100
AcDbVertex
100
AcDb2dVertex
 10
3.984130391353883
 20
0.3959755371902958
 30
0.0
  0
VERTEX
  5
2ED
330
2E3
100
AcDbEntity
  8
1
  6
Continuous
 62
   172
420
      213
 48
2.0
100
AcDbVertex
100
AcDb2dVertex
 10
3.955379706265116
 20
0.4685367900334541
 30
0.0
  0
VERTEX
  5
2EE
330
2E3
100
AcDbEntity
  8
1
  6
Continuous
 62
   172
420
      213
 48
2.0
100
AcDbVertex
100
AcDb2dVertex
 10
3.907461897783744
 20
0.5452052836036074
 30
0.0
  0
VERTEX
  5
2EF
330
2E3
100
AcDbEntity
  8
1
  6
Continuous
 62
   172
420
      213
 48
2.0
100
AcDbVertex
100
AcDb2dVertex
 10
3.860913169544713
 20
0.5958612525695912
 30
0.0
  0
VERTEX
  5
2F0
330
2E3
100
AcDbEntity
  8
1
  6
Continuous
 62
   172
420
      213
 48
2.0
100
AcDbVertex
100
AcDb2dVertex
 10
3.812995361063397
 20
0.6314573388700211
 30
0.0
  0
SEQEND
  5
2F1
330
2E3
100
AcDbEntity
  8
1
  6
Continuous
 62
   172
420
      213
 48
2.0
370
     0
  0
POLYLINE
  5
2F2
330
1F
100
AcDbEntity
  8
1
  6
Continuous
 62
   172
420
      213
 48
2.0
370
     0
100
AcDb2dPolyline
 66
     1
 10
0.0
 20
0.0
 30
0.0
 70
   128
  0
VERTEX
  5
2F3
330
2F2
100
AcDbEntity
  8
1
  6
Continuous
 62
   172
420
      213
 48
2.0
100
AcDbVertex
100
AcDb2dVertex
 10
4.003297514746432
 20
0.2754964758657792
 30
0.0
  0
VERTEX
  5
2F4
330
2F2
100
AcDbEntity
  8
1
  6
Continuous
 62
   172
420
      213
 48
2.0
100
AcDbVertex
100
AcDb2dVertex
 10
4.16895622406761
 20
0.3083544016815551
 30
0.0
  0
VERTEX
  5
2F5
330
2F2
100
AcDbEntity
  8
1
  6
Continuous
 62
   172
420
      213
 48
2.0
100
AcDbVertex
100
AcDb2dVertex
 10
4.330507692661879
 20
0.3425814077396581
 30
0.0
  0
VERTEX
  5
2F6
330
2F2
100
AcDbEntity
  8
1
  6
Continuous
 62
   172
420
      213
 48
2.0
100
AcDbVertex
100
AcDb2dVertex
 10
4.4468795132594
 20
0.3672248521014865
 30
0.0
  0
VERTEX
  5
2F7
330
2F2
100
AcDbEntity
  8
1
  6
Continuous
 62
   172
420
      213
 48
2.0
100
AcDbVertex
100
AcDb2dVertex
 10
4.470153877378916
 20
0.3781774940400737
 30
0.0
  0
VERTEX
  5
2F8
330
2F2
100
AcDbEntity
  8
1
  6
Continuous
 62
   172
420
      213
 48
2.0
100
AcDbVertex
100
AcDb2dVertex
 10
4.489321000771465
 20
0.3973446174326085
 30
0.0
  0
VERTEX
  5
2F9
330
2F2
100
AcDbEntity
  8
1
  6
Continuous
 62
   172
420
      213
 48
2.0
100
AcDbVertex
100
AcDb2dVertex
 10
4.515333525375606
 20
0.4438933456716256
 30
0.0
  0
VERTEX
  5
2FA
330
2F2
100
AcDbEntity
  8
1
  6
Continuous
 62
   172
420
      213
 48
2.0
100
AcDbVertex
100
AcDb2dVertex
 10
4.529024327798847
 20
0.4603223085795207
 30
0.0
  0
VERTEX
  5
2FB
330
2F2
100
AcDbEntity
  8
1
  6
Continuous
 62
   172
420
      213
 48
2.0
100
AcDbVertex
100
AcDb2dVertex
 10
4.55640593264533
 20
0.471274950518108
 30
0.0
  0
VERTEX
  5
2FC
330
2F2
100
AcDbEntity
  8
1
  6
Continuous
 62
   172
420
      213
 48
2.0
100
AcDbVertex
100
AcDb2dVertex
 10
4.664563271788918
 20
0.469905870275781
 30
0.0
  0
SEQEND
  5
2FD
330
2F2
100
AcDbEntity
  8
1
  6
Continuous
 62
   172
420
      213
 48
2.0
370
     0
  0
POLYLINE
  5
2FE
330
1F
100
AcDbEntity
  8
1
  6
Continuous
 62
   172
420
      213
 48
2.0
370
     0
100
AcDb2dPolyline
 66
     1
 10
0.0
 20
0.0
 30
0.0
 70
   128
  0
VERTEX
  5
2FF
330
2FE
100
AcDbEntity
  8
1
  6
Continuous
 62
   172
420
      213
 48
2.0
100
AcDbVertex
100
AcDb2dVertex
 10
3.981392230869258
 20
0.5547888452998677
 30
0.0
  0
VERTEX
  5
300
330
2FE
100
AcDbEntity
  8
1
  6
Continuous
 62
   172
420
      213
 48
2.0
100
AcDbVertex
100
AcDb2dVertex
 10
4.067644286135671
 20
0.5630033267538153
 30
0.0
  0
VERTEX
  5
301
330
2FE
100
AcDbEntity
  8
1
  6
Continuous
 62
   172
420
      213
 48
2.0
100
AcDbVertex
100
AcDb2dVertex
 10
4.403068945505051
 20
0.6177665364467799
 30
0.0
  0
SEQEND
  5
302
330
2FE
100
AcDbEntity
  8
1
  6
Continuous
 62
   172
420
      213
 48
2.0
370
     0
  0
POLYLINE
  5
303
330
1F
100
AcDbEntity
  8
1
  6
Continuous
 62
   172
420
      213
 48
2.0
370
     0
100
AcDb2dPolyline
 66
     1
 10
0.0
 20
0.0
 30
0.0
 70
   128
  0
VERTEX
  5
304
330
303
100
AcDbEntity
  8
1
  6
Continuous
 62
   172
420
      213
 48
2.0
100
AcDbVertex
100
AcDb2dVertex
 10
4.032048199835199
 20
0.2905563585313473
 30
0.0
  0
VERTEX
  5
305
330
303
100
AcDbEntity
  8
1
  6
Continuous
 62
   172
420
      213
 48
2.0
100
AcDbVertex
100
AcDb2dVertex
 10
4.022464638138981
 20
0.4110354198558497
 30
0.0
  0
VERTEX
  5
306
330
303
100
AcDbEntity
  8
1
  6
Continuous
 62
   172
420
      213
 48
2.0
100
AcDbVertex
100
AcDb2dVertex
 10
4.006035675231058
 20
0.4644295493064874
 30
0.0
  0
VERTEX
  5
307
330
303
100
AcDbEntity
  8
1
  6
Continuous
 62
   172
420
      213
 48
2.0
100
AcDbVertex
100
AcDb2dVertex
 10
3.974546829657609
 20
0.5274072404533854
 30
0.0
  0
VERTEX
  5
308
330
303
100
AcDbEntity
  8
1
  6
Continuous
 62
   172
420
      213
 48
2.0
100
AcDbVertex
100
AcDb2dVertex
 10
3.927998101418634
 20
0.5931230920849373
 30
0.0
  0
VERTEX
  5
309
330
303
100
AcDbEntity
  8
1
  6
Continuous
 62
   172
420
      213
 48
2.0
100
AcDbVertex
100
AcDb2dVertex
 10
3.886925694148854
 20
0.6383027400816417
 30
0.0
  0
SEQEND
  5
30A
330
303
100
AcDbEntity
  8
1
  6
Continuous
 62
   172
420
      213
 48
2.0
370
     0
  0
POLYLINE
  5
30B
330
1F
100
AcDbEntity
  8
1
  6
Continuous
 62
   172
420
      213
 48
2.0
370
     0
100
AcDb2dPolyline
 66
     1
 10
0.0
 20
0.0
 30
0.0
 70
   128
  0
VERTEX
  5
30C
330
30B
100
AcDbEntity
  8
1
  6
Continuous
 62
   172
420
      213
 48
2.0
100
AcDbVertex
100
AcDb2dVertex
 10
4.044369922016156
 20
0.2248405068997954
 30
0.0
  0
VERTEX
  5
30D
330
30B
100
AcDbEntity
  8
1
  6
Continuous
 62
   172
420
      213
 48
2.0
100
AcDbVertex
100
AcDb2dVertex
 10
4.542715130222089
 20
0.2645438339271919
 30
0.0
  0
VERTEX
  5
30E
330
30B
100
AcDbEntity
  8
1
  6
Continuous
 62
   172
420
      213
 48
2.0
100
AcDbVertex
100
AcDb2dVertex
 10
4.563251333856922
 20
0.2864491178043664
 30
0.0
  0
VERTEX
  5
30F
330
30B
100
AcDbEntity
  8
1
  6
Continuous
 62
   172
420
      213
 48
2.0
100
AcDbVertex
100
AcDb2dVertex
 10
4.609800062095953
 20
0.2919254387736601
 30
0.0
  0
VERTEX
  5
310
330
30B
100
AcDbEntity
  8
1
  6
Continuous
 62
   172
420
      213
 48
2.0
100
AcDbVertex
100
AcDb2dVertex
 10
4.637181666942435
 20
0.3138307226508488
 30
0.0
  0
VERTEX
  5
311
330
30B
100
AcDbEntity
  8
1
  6
Continuous
 62
   172
420
      213
 48
2.0
100
AcDbVertex
100
AcDb2dVertex
 10
4.65908695081961
 20
0.3453195682242978
 30
0.0
  0
VERTEX
  5
312
330
30B
100
AcDbEntity
  8
1
  6
Continuous
 62
   172
420
      213
 48
2.0
100
AcDbVertex
100
AcDb2dVertex
 10
4.672777753242851
 20
0.4425242654292987
 30
0.0
  0
SEQEND
  5
313
330
30B
100
AcDbEntity
  8
1
  6
Continuous
 62
   172
420
      213
 48
2.0
370
     0
  0
POLYLINE
  5
314
330
1F
100
AcDbEntity
  8
1
  6
Continuous
 62
   172
420
      213
 48
2.0
370
     0
100
AcDb2dPolyline
 66
     1
 10
0.0
 20
0.0
 30
0.0
 70
   128
  0
VERTEX
  5
315
330
314
100
AcDbEntity
  8
1
  6
Continuous
 62
   172
420
      213
 48
2.0
100
AcDbVertex
100
AcDb2dVertex
 10
3.364795149932061
 20
0.6556936278517185
 30
0.0
  0
VERTEX
  5
316
330
314
100
AcDbEntity
  8
1
  6
Continuous
 62
   172
420
      213
 48
2.0
100
AcDbVertex
100
AcDb2dVertex
 10
3.331285126654873
 20
0.6272608808286719
 30
0.0
  0
VERTEX
  5
317
330
314
100
AcDbEntity
  8
1
  6
Continuous
 62
   172
420
      213
 48
2.0
100
AcDbVertex
100
AcDb2dVertex
 10
3.287620550869487
 20
0.5805499392908047
 30
0.0
  0
VERTEX
  5
318
330
314
100
AcDbEntity
  8
1
  6
Continuous
 62
   172
420
      213
 48
2.0
100
AcDbVertex
100
AcDb2dVertex
 10
3.251064161839818
 20
0.5287617214988245
 30
0.0
  0
VERTEX
  5
319
330
314
100
AcDbEntity
  8
1
  6
Continuous
 62
   172
420
      213
 48
2.0
100
AcDbVertex
100
AcDb2dVertex
 10
3.217554138562686
 20
0.4769735037068301
 30
0.0
  0
VERTEX
  5
31A
330
314
100
AcDbEntity
  8
1
  6
Continuous
 62
   172
420
      213
 48
2.0
100
AcDbVertex
100
AcDb2dVertex
 10
3.186075025787172
 20
0.4048761808983841
 30
0.0
  0
VERTEX
  5
31B
330
314
100
AcDbEntity
  8
1
  6
Continuous
 62
   172
420
      213
 48
2.0
100
AcDbVertex
100
AcDb2dVertex
 10
3.166781376021529
 20
0.3652734261162749
 30
0.0
  0
VERTEX
  5
31C
330
314
100
AcDbEntity
  8
1
  6
Continuous
 62
   172
420
      213
 48
2.0
100
AcDbVertex
100
AcDb2dVertex
 10
3.148503181506694
 20
0.3348097685915832
 30
0.0
  0
VERTEX
  5
31D
330
314
100
AcDbEntity
  8
1
  6
Continuous
 62
   172
420
      213
 48
2.0
100
AcDbVertex
100
AcDb2dVertex
 10
3.128194076490242
 20
0.3145006635751173
 30
0.0
  0
VERTEX
  5
31E
330
314
100
AcDbEntity
  8
1
  6
Continuous
 62
   172
420
      213
 48
2.0
100
AcDbVertex
100
AcDb2dVertex
 10
3.108900426724599
 20
0.2992688348127643
 30
0.0
  0
VERTEX
  5
31F
330
314
100
AcDbEntity
  8
1
  6
Continuous
 62
   172
420
      213
 48
2.0
100
AcDbVertex
100
AcDb2dVertex
 10
3.078436769199893
 20
0.2911451928061837
 30
0.0
  0
VERTEX
  5
320
330
314
100
AcDbEntity
  8
1
  6
Continuous
 62
   172
420
      213
 48
2.0
100
AcDbVertex
100
AcDb2dVertex
 10
2.967752146860189
 20
0.2860679165520708
 30
0.0
  0
VERTEX
  5
321
330
314
100
AcDbEntity
  8
1
  6
Continuous
 62
   172
420
      213
 48
2.0
100
AcDbVertex
100
AcDb2dVertex
 10
2.245763463524863
 20
0.2850524613012482
 30
0.0
  0
SEQEND
  5
322
330
314
100
AcDbEntity
  8
1
  6
Continuous
 62
   172
420
      213
 48
2.0
370
     0
  0
POLYLINE
  5
323
330
1F
100
AcDbEntity
  8
1
  6
Continuous
 62
   172
420
      213
 48
2.0
370
     0
100
AcDb2dPolyline
 66
     1
 10
0.0
 20
0.0
 30
0.0
 70
   128
  0
VERTEX
  5
324
330
323
100
AcDbEntity
  8
1
  6
Continuous
 62
   172
420
      213
 48
2.0
100
AcDbVertex
100
AcDb2dVertex
 10
2.568678233286644
 20
0.2850524613012482
 30
0.0
  0
VERTEX
  5
325
330
323
100
AcDbEntity
  8
1
  6
Continuous
 62
   172
420
      213
 48
2.0
100
AcDbVertex
100
AcDb2dVertex
 10
2.553446404524291
 20
0.3784743443769827
 30
0.0
  0
VERTEX
  5
326
330
323
100
AcDbEntity
  8
1
  6
Continuous
 62
   172
420
      213
 48
2.0
100
AcDbVertex
100
AcDb2dVertex
 10
2.543291852016036
 20
0.4739271379543624
 30
0.0
  0
VERTEX
  5
327
330
323
100
AcDbEntity
  8
1
  6
Continuous
 62
   172
420
      213
 48
2.0
100
AcDbVertex
100
AcDb2dVertex
 10
2.539230031012746
 20
0.622183604574559
 30
0.0
  0
VERTEX
  5
328
330
323
100
AcDbEntity
  8
1
  6
Continuous
 62
   172
420
      213
 48
2.0
100
AcDbVertex
100
AcDb2dVertex
 10
2.539230031012746
 20
0.6810800091223115
 30
0.0
  0
SEQEND
  5
329
330
323
100
AcDbEntity
  8
1
  6
Continuous
 62
   172
420
      213
 48
2.0
370
     0
  0
POLYLINE
  5
32A
330
1F
100
AcDbEntity
  8
1
  6
Continuous
 62
   172
420
      213
 48
2.0
370
     0
100
AcDb2dPolyline
 66
     1
 10
0.0
 20
0.0
 30
0.0
 70
   128
  0
VERTEX
  5
32B
330
32A
100
AcDbEntity
  8
1
  6
Continuous
 62
   172
420
      213
 48
2.0
100
AcDbVertex
100
AcDb2dVertex
 10
2.245763463524863
 20
0.2627124457831371
 30
0.0
  0
VERTEX
  5
32C
330
32A
100
AcDbEntity
  8
1
  6
Continuous
 62
   172
420
      213
 48
2.0
100
AcDbVertex
100
AcDb2dVertex
 10
3.010401267394709
 20
0.2657588115356049
 30
0.0
  0
VERTEX
  5
32D
330
32A
100
AcDbEntity
  8
1
  6
Continuous
 62
   172
420
      213
 48
2.0
100
AcDbVertex
100
AcDb2dVertex
 10
3.044926745922705
 20
0.2698206325388952
 30
0.0
  0
VERTEX
  5
32E
330
32A
100
AcDbEntity
  8
1
  6
Continuous
 62
   172
420
      213
 48
2.0
100
AcDbVertex
100
AcDb2dVertex
 10
3.078436769199893
 20
0.2759133640438307
 30
0.0
  0
VERTEX
  5
32F
330
32A
100
AcDbEntity
  8
1
  6
Continuous
 62
   172
420
      213
 48
2.0
100
AcDbVertex
100
AcDb2dVertex
 10
3.100776784718018
 20
0.2850524613012482
 30
0.0
  0
VERTEX
  5
330
330
32A
100
AcDbEntity
  8
1
  6
Continuous
 62
   172
420
      213
 48
2.0
100
AcDbVertex
100
AcDb2dVertex
 10
3.12514771073776
 20
0.2982533795619418
 30
0.0
  0
VERTEX
  5
331
330
32A
100
AcDbEntity
  8
1
  6
Continuous
 62
   172
420
      213
 48
2.0
100
AcDbVertex
100
AcDb2dVertex
 10
3.153580457760793
 20
0.332778858089938
 30
0.0
  0
VERTEX
  5
332
330
32A
100
AcDbEntity
  8
1
  6
Continuous
 62
   172
420
      213
 48
2.0
100
AcDbVertex
100
AcDb2dVertex
 10
3.186075025787172
 20
0.3906598073868537
 30
0.0
  0
VERTEX
  5
333
330
32A
100
AcDbEntity
  8
1
  6
Continuous
 62
   172
420
      213
 48
2.0
100
AcDbVertex
100
AcDb2dVertex
 10
3.218569593813495
 20
0.4769735037068301
 30
0.0
  0
SEQEND
  5
334
330
32A
100
AcDbEntity
  8
1
  6
Continuous
 62
   172
420
      213
 48
2.0
370
     0
  0
POLYLINE
  5
335
330
1F
100
AcDbEntity
  8
1
  6
Continuous
 62
   172
420
      213
 48
2.0
370
     0
100
AcDb2dPolyline
 66
     1
 10
0.0
 20
0.0
 30
0.0
 70
   128
  0
VERTEX
  5
336
330
335
100
AcDbEntity
  8
1
  6
Continuous
 62
   172
420
      213
 48
2.0
100
AcDbVertex
100
AcDb2dVertex
 10
3.396274262707575
 20
0.6770181881190069
 30
0.0
  0
VERTEX
  5
337
330
335
100
AcDbEntity
  8
1
  6
Continuous
 62
   172
420
      213
 48
2.0
100
AcDbVertex
100
AcDb2dVertex
 10
3.431815196486379
 20
0.6912345616305373
 30
0.0
  0
VERTEX
  5
338
330
335
100
AcDbEntity
  8
1
  6
Continuous
 62
   172
420
      213
 48
2.0
100
AcDbVertex
100
AcDb2dVertex
 10
3.510005250799761
 20
0.7145900323994709
 30
0.0
  0
VERTEX
  5
339
330
335
100
AcDbEntity
  8
1
  6
Continuous
 62
   172
420
      213
 48
2.0
100
AcDbVertex
100
AcDb2dVertex
 10
3.560778013340919
 20
0.7267754954093562
 30
0.0
  0
VERTEX
  5
33A
330
335
100
AcDbEntity
  8
1
  6
Continuous
 62
   172
420
      213
 48
2.0
100
AcDbVertex
100
AcDb2dVertex
 10
3.61764350738704
 20
0.7338836821651142
 30
0.0
  0
SEQEND
  5
33B
330
335
100
AcDbEntity
  8
1
  6
Continuous
 62
   172
420
      213
 48
2.0
370
     0
  0
POLYLINE
  5
33C
330
1F
100
AcDbEntity
  8
1
  6
Continuous
 62
   172
420
      213
 48
2.0
370
     0
100
AcDb2dPolyline
 66
     1
 10
0.0
 20
0.0
 30
0.0
 70
   128
  0
VERTEX
  5
33D
330
33C
100
AcDbEntity
  8
1
  6
Continuous
 62
   172
420
      213
 48
2.0
100
AcDbVertex
100
AcDb2dVertex
 10
3.815657281297572
 20
0.6333536123336074
 30
0.0
  0
VERTEX
  5
33E
330
33C
100
AcDbEntity
  8
1
  6
Continuous
 62
   172
420
      213
 48
2.0
100
AcDbVertex
100
AcDb2dVertex
 10
3.776054526515477
 20
0.6485854410959604
 30
0.0
  0
VERTEX
  5
33F
330
33C
100
AcDbEntity
  8
1
  6
Continuous
 62
   172
420
      213
 48
2.0
100
AcDbVertex
100
AcDb2dVertex
 10
3.747621779492388
 20
0.6638172698583134
 30
0.0
  0
VERTEX
  5
340
330
33C
100
AcDbEntity
  8
1
  6
Continuous
 62
   172
420
      213
 48
2.0
100
AcDbVertex
100
AcDb2dVertex
 10
3.705988114208676
 20
0.6739718223665392
 30
0.0
  0
VERTEX
  5
341
330
33C
100
AcDbEntity
  8
1
  6
Continuous
 62
   172
420
      213
 48
2.0
100
AcDbVertex
100
AcDb2dVertex
 10
3.668416269928198
 20
0.6770181881190069
 30
0.0
  0
VERTEX
  5
342
330
33C
100
AcDbEntity
  8
1
  6
Continuous
 62
   172
420
      213
 48
2.0
100
AcDbVertex
100
AcDb2dVertex
 10
3.631859880898528
 20
0.6800645538714747
 30
0.0
  0
VERTEX
  5
343
330
33C
100
AcDbEntity
  8
1
  6
Continuous
 62
   172
420
      213
 48
2.0
100
AcDbVertex
100
AcDb2dVertex
 10
3.582102573608235
 20
0.6770181881190069
 30
0.0
  0
VERTEX
  5
344
330
33C
100
AcDbEntity
  8
1
  6
Continuous
 62
   172
420
      213
 48
2.0
100
AcDbVertex
100
AcDb2dVertex
 10
3.52320616906044
 20
0.6678790908616037
 30
0.0
  0
VERTEX
  5
345
330
33C
100
AcDbEntity
  8
1
  6
Continuous
 62
   172
420
      213
 48
2.0
100
AcDbVertex
100
AcDb2dVertex
 10
3.474464317020956
 20
0.6536627173500733
 30
0.0
  0
VERTEX
  5
346
330
33C
100
AcDbEntity
  8
1
  6
Continuous
 62
   172
420
      213
 48
2.0
100
AcDbVertex
100
AcDb2dVertex
 10
3.432830651737188
 20
0.63436906758443
 30
0.0
  0
VERTEX
  5
347
330
33C
100
AcDbEntity
  8
1
  6
Continuous
 62
   172
420
      213
 48
2.0
100
AcDbVertex
100
AcDb2dVertex
 10
3.386119710199321
 20
0.6018744995580931
 30
0.0
  0
VERTEX
  5
348
330
33C
100
AcDbEntity
  8
1
  6
Continuous
 62
   172
420
      213
 48
2.0
100
AcDbVertex
100
AcDb2dVertex
 10
3.346516955417226
 20
0.5643026552776291
 30
0.0
  0
VERTEX
  5
349
330
33C
100
AcDbEntity
  8
1
  6
Continuous
 62
   172
420
      213
 48
2.0
100
AcDbVertex
100
AcDb2dVertex
 10
3.303867834882649
 20
0.5094680717331812
 30
0.0
  0
VERTEX
  5
34A
330
33C
100
AcDbEntity
  8
1
  6
Continuous
 62
   172
420
      213
 48
2.0
100
AcDbVertex
100
AcDb2dVertex
 10
3.275435087859616
 20
0.4546334881887191
 30
0.0
  0
VERTEX
  5
34B
330
33C
100
AcDbEntity
  8
1
  6
Continuous
 62
   172
420
      213
 48
2.0
100
AcDbVertex
100
AcDb2dVertex
 10
3.25817234859559
 20
0.3916752626376763
 30
0.0
  0
VERTEX
  5
34C
330
33C
100
AcDbEntity
  8
1
  6
Continuous
 62
   172
420
      213
 48
2.0
100
AcDbVertex
100
AcDb2dVertex
 10
3.252079617090683
 20
0.3185624845784076
 30
0.0
  0
VERTEX
  5
34D
330
33C
100
AcDbEntity
  8
1
  6
Continuous
 62
   172
420
      213
 48
2.0
100
AcDbVertex
100
AcDb2dVertex
 10
3.249033251338201
 20
0.1865533019713865
 30
0.0
  0
VERTEX
  5
34E
330
33C
100
AcDbEntity
  8
1
  6
Continuous
 62
   172
420
      213
 48
2.0
100
AcDbVertex
100
AcDb2dVertex
 10
2.262010747538024
 20
0.1845223914697414
 30
0.0
  0
SEQEND
  5
34F
330
33C
100
AcDbEntity
  8
1
  6
Continuous
 62
   172
420
      213
 48
2.0
370
     0
  0
LINE
  5
350
330
1F
100
AcDbEntity
  8
1
  6
Continuous
 62
   172
420
      213
 48
2.0
370
     0
100
AcDbLine
 10
2.264041658039641
 20
0.2109242279911427
 30
0.0
 11
3.249033251338201
 21
0.2139705937436105
 31
0.0
  0
POLYLINE
  5
351
330
1F
100
AcDbEntity
  8
1
  6
Continuous
 62
   172
420
      213
 48
2.0
370
     0
100
AcDb2dPolyline
 66
     1
 10
0.0
 20
0.0
 30
0.0
 70
   128
  0
VERTEX
  5
352
330
351
100
AcDbEntity
  8
1
  6
Continuous
 62
   172
420
      213
 48
2.0
100
AcDbVertex
100
AcDb2dVertex
 10
2.247395329311328
 20
0.2852828041856128
 30
0.0
  0
VERTEX
  5
353
330
351
100
AcDbEntity
  8
1
  6
Continuous
 62
   172
420
      213
 48
2.0
100
AcDbVertex
100
AcDb2dVertex
 10
1.532647847636806
 20
0.2835373890899575
 30
0.0
  0
VERTEX
  5
354
330
351
100
AcDbEntity
  8
1
  6
Continuous
 62
   172
420
      213
 48
2.0
100
AcDbVertex
100
AcDb2dVertex
 10
1.519557234419349
 20
0.2879009268291099
 30
0.0
  0
VERTEX
  5
355
330
351
100
AcDbEntity
  8
1
  6
Continuous
 62
   172
420
      213
 48
2.0
100
AcDbVertex
100
AcDb2dVertex
 10
1.503848498558366
 20
0.3009915400465957
 30
0.0
  0
VERTEX
  5
356
330
351
100
AcDbEntity
  8
1
  6
Continuous
 62
   172
420
      213
 48
2.0
100
AcDbVertex
100
AcDb2dVertex
 10
1.494248715532219
 20
0.3123367381684119
 30
0.0
  0
VERTEX
  5
357
330
351
100
AcDbEntity
  8
1
  6
Continuous
 62
   172
420
      213
 48
2.0
100
AcDbVertex
100
AcDb2dVertex
 10
1.469812904192931
 20
0.411825398621275
 30
0.0
  0
VERTEX
  5
358
330
351
100
AcDbEntity
  8
1
  6
Continuous
 62
   172
420
      213
 48
2.0
100
AcDbVertex
100
AcDb2dVertex
 10
1.451486045688423
 20
0.4877509552826638
 30
0.0
  0
VERTEX
  5
359
330
351
100
AcDbEntity
  8
1
  6
Continuous
 62
   172
420
      213
 48
2.0
100
AcDbVertex
100
AcDb2dVertex
 10
1.439268140018807
 20
0.5872396157355269
 30
0.0
  0
VERTEX
  5
35A
330
351
100
AcDbEntity
  8
1
  6
Continuous
 62
   172
420
      213
 48
2.0
100
AcDbVertex
100
AcDb2dVertex
 10
1.429668356992604
 20
0.7120367950755195
 30
0.0
  0
VERTEX
  5
35B
330
351
100
AcDbEntity
  8
1
  6
Continuous
 62
   172
420
      213
 48
2.0
100
AcDbVertex
100
AcDb2dVertex
 10
1.429668356992604
 20
0.7774898611629197
 30
0.0
  0
SEQEND
  5
35C
330
351
100
AcDbEntity
  8
1
  6
Continuous
 62
   172
420
      213
 48
2.0
370
     0
  0
LINE
  5
35D
330
1F
100
AcDbEntity
  8
1
  6
Continuous
 62
   172
420
      213
 48
2.0
370
     0
100
AcDbLine
 10
2.250013451954796
 20
0.2625924079419804
 30
0.0
 11
1.440140847566592
 21
0.2704467758724718
 31
0.0
  0
LINE
  5
35E
330
1F
100
AcDbEntity
  8
1
  6
Continuous
 62
   172
420
      213
 48
2.0
370
     0
100
AcDbLine
 10
1.979474112126834
 20
0.2425201343418451
 30
0.0
 11
2.63749560319226
 21
0.248629087176667
 31
0.0
  0
LINE
  5
35F
330
1F
100
AcDbEntity
  8
1
  6
Continuous
 62
   172
420
      213
 48
2.0
370
     0
100
AcDbLine
 10
2.267467602911463
 20
0.2111026626198793
 30
0.0
 11
1.983837649865986
 21
0.2102299550720517
 31
0.0
  0
LINE
  5
360
330
1F
100
AcDbEntity
  8
1
  6
Continuous
 62
   172
420
      213
 48
2.0
370
     0
100
AcDbLine
 10
1.978601404579049
 20
0.1866668512805916
 30
0.0
 11
2.266594895363621
 21
0.1849214361849221
 31
0.0
  0
LINE
  5
361
330
1F
100
AcDbEntity
  8
1
  6
Continuous
 62
   172
420
      213
 48
2.0
370
     0
100
AcDbLine
 10
2.630329019648936
 20
0.2489032276517236
 30
0.0
 11
3.249467982979152
 21
0.2613482319397775
 31
0.0
  0
POLYLINE
  5
362
330
1F
100
AcDbEntity
  8
1
  6
Continuous
 62
   172
420
      213
 48
2.0
370
     0
100
AcDb2dPolyline
 66
     1
 10
0.0
 20
0.0
 30
0.0
 70
   128
  0
VERTEX
  5
363
330
362
100
AcDbEntity
  8
1
  6
Continuous
 62
   172
420
      213
 48
2.0
100
AcDbVertex
100
AcDb2dVertex
 10
3.295064863902521
 20
0.8592565608574603
 30
0.0
  0
VERTEX
  5
364
330
362
100
AcDbEntity
  8
1
  6
Continuous
 62
   172
420
      213
 48
2.0
100
AcDbVertex
100
AcDb2dVertex
 10
3.262603796369856
 20
0.8611114790021759
 30
0.0
  0
VERTEX
  5
365
330
362
100
AcDbEntity
  8
1
  6
Continuous
 62
   172
420
      213
 48
2.0
100
AcDbVertex
100
AcDb2dVertex
 10
3.262603796369856
 20
0.867603692508709
 30
0.0
  0
VERTEX
  5
366
330
362
100
AcDbEntity
  8
1
  6
Continuous
 62
   172
420
      213
 48
2.0
100
AcDbVertex
100
AcDb2dVertex
 10
3.266313632659287
 20
0.8852254148835783
 30
0.0
  0
VERTEX
  5
367
330
362
100
AcDbEntity
  8
1
  6
Continuous
 62
   172
420
      213
 48
2.0
100
AcDbVertex
100
AcDb2dVertex
 10
3.274660764310536
 20
0.8889352511730095
 30
0.0
  0
VERTEX
  5
368
330
362
100
AcDbEntity
  8
1
  6
Continuous
 62
   172
420
      213
 48
2.0
100
AcDbVertex
100
AcDb2dVertex
 10
3.300629618336668
 20
0.8889352511730095
 30
0.0
  0
VERTEX
  5
369
330
362
100
AcDbEntity
  8
1
  6
Continuous
 62
   172
420
      213
 48
2.0
100
AcDbVertex
100
AcDb2dVertex
 10
3.32752593143513
 20
0.893572546534827
 30
0.0
  0
VERTEX
  5
36A
330
362
100
AcDbEntity
  8
1
  6
Continuous
 62
   172
420
      213
 48
2.0
100
AcDbVertex
100
AcDb2dVertex
 10
3.368334130619044
 20
0.8982098418966302
 30
0.0
  0
VERTEX
  5
36B
330
362
100
AcDbEntity
  8
1
  6
Continuous
 62
   172
420
      213
 48
2.0
100
AcDbVertex
100
AcDb2dVertex
 10
3.412852166092389
 20
0.8982098418966302
 30
0.0
  0
VERTEX
  5
36C
330
362
100
AcDbEntity
  8
1
  6
Continuous
 62
   172
420
      213
 48
2.0
100
AcDbVertex
100
AcDb2dVertex
 10
3.454587824348632
 20
0.8963549237519004
 30
0.0
  0
VERTEX
  5
36D
330
362
100
AcDbEntity
  8
1
  6
Continuous
 62
   172
420
      213
 48
2.0
100
AcDbVertex
100
AcDb2dVertex
 10
3.481484137447094
 20
0.8963549237519004
 30
0.0
  0
VERTEX
  5
36E
330
362
100
AcDbEntity
  8
1
  6
Continuous
 62
   172
420
      213
 48
2.0
100
AcDbVertex
100
AcDb2dVertex
 10
3.485193973736582
 20
0.8861528739559361
 30
0.0
  0
VERTEX
  5
36F
330
362
100
AcDbEntity
  8
1
  6
Continuous
 62
   172
420
      213
 48
2.0
100
AcDbVertex
100
AcDb2dVertex
 10
3.479629219302378
 20
0.8685311515810668
 30
0.0
  0
VERTEX
  5
370
330
362
100
AcDbEntity
  8
1
  6
Continuous
 62
   172
420
      213
 48
2.0
100
AcDbVertex
100
AcDb2dVertex
 10
3.457370201565734
 20
0.8657487743639791
 30
0.0
  0
VERTEX
  5
371
330
362
100
AcDbEntity
  8
1
  6
Continuous
 62
   172
420
      213
 48
2.0
100
AcDbVertex
100
AcDb2dVertex
 10
3.420271838671251
 20
0.8657487743639791
 30
0.0
  0
VERTEX
  5
372
330
362
100
AcDbEntity
  8
1
  6
Continuous
 62
   172
420
      213
 48
2.0
100
AcDbVertex
100
AcDb2dVertex
 10
3.395230443717505
 20
0.8722409878705122
 30
0.0
  0
VERTEX
  5
373
330
362
100
AcDbEntity
  8
1
  6
Continuous
 62
   172
420
      213
 48
2.0
100
AcDbVertex
100
AcDb2dVertex
 10
3.359059539895409
 20
0.87316844694287
 30
0.0
  0
VERTEX
  5
374
330
362
100
AcDbEntity
  8
1
  6
Continuous
 62
   172
420
      213
 48
2.0
100
AcDbVertex
100
AcDb2dVertex
 10
3.322888636073312
 20
0.8694586106534246
 30
0.0
  0
VERTEX
  5
375
330
362
100
AcDbEntity
  8
1
  6
Continuous
 62
   172
420
      213
 48
2.0
100
AcDbVertex
100
AcDb2dVertex
 10
3.29599232297485
 20
0.8611114790021759
 30
0.0
  0
SEQEND
  5
376
330
362
100
AcDbEntity
  8
1
  6
Continuous
 62
   172
420
      213
 48
2.0
370
     0
  0
POLYLINE
  5
377
330
1F
100
AcDbEntity
  8
1
  6
Continuous
 62
   172
420
      213
 48
2.0
370
     0
100
AcDb2dPolyline
 66
     1
 10
0.0
 20
0.0
 30
0.0
 70
   128
  0
VERTEX
  5
378
330
377
100
AcDbEntity
  8
1
  6
Continuous
 62
   172
420
      213
 48
2.0
100
AcDbVertex
100
AcDb2dVertex
 10
3.256111582863323
 20
0.8694586106534246
 30
0.0
  0
VERTEX
  5
379
330
377
100
AcDbEntity
  8
1
  6
Continuous
 62
   172
420
      213
 48
2.0
100
AcDbVertex
100
AcDb2dVertex
 10
3.261676337297526
 20
0.8889352511730095
 30
0.0
  0
VERTEX
  5
37A
330
377
100
AcDbEntity
  8
1
  6
Continuous
 62
   172
420
      213
 48
2.0
100
AcDbVertex
100
AcDb2dVertex
 10
3.274660764310536
 20
0.9028471372584335
 30
0.0
  0
VERTEX
  5
37B
330
377
100
AcDbEntity
  8
1
  6
Continuous
 62
   172
420
      213
 48
2.0
100
AcDbVertex
100
AcDb2dVertex
 10
3.291355027613033
 20
0.9111942689096821
 30
0.0
  0
VERTEX
  5
37C
330
377
100
AcDbEntity
  8
1
  6
Continuous
 62
   172
420
      213
 48
2.0
100
AcDbVertex
100
AcDb2dVertex
 10
3.335873063086378
 20
0.9223237777780184
 30
0.0
  0
VERTEX
  5
37D
330
377
100
AcDbEntity
  8
1
  6
Continuous
 62
   172
420
      213
 48
2.0
100
AcDbVertex
100
AcDb2dVertex
 10
3.382246016704439
 20
0.9260336140674639
 30
0.0
  0
VERTEX
  5
37E
330
377
100
AcDbEntity
  8
1
  6
Continuous
 62
   172
420
      213
 48
2.0
100
AcDbVertex
100
AcDb2dVertex
 10
3.405432493513469
 20
0.9232512368503762
 30
0.0
  0
VERTEX
  5
37F
330
377
100
AcDbEntity
  8
1
  6
Continuous
 62
   172
420
      213
 48
2.0
100
AcDbVertex
100
AcDb2dVertex
 10
3.420271838671251
 20
0.918613941488573
 30
0.0
  0
VERTEX
  5
380
330
377
100
AcDbEntity
  8
1
  6
Continuous
 62
   172
420
      213
 48
2.0
100
AcDbVertex
100
AcDb2dVertex
 10
3.429546429394886
 20
0.9065569735478789
 30
0.0
  0
VERTEX
  5
381
330
377
100
AcDbEntity
  8
1
  6
Continuous
 62
   172
420
      213
 48
2.0
100
AcDbVertex
100
AcDb2dVertex
 10
3.445313233624997
 20
0.9047020554031633
 30
0.0
  0
VERTEX
  5
382
330
377
100
AcDbEntity
  8
1
  6
Continuous
 62
   172
420
      213
 48
2.0
100
AcDbVertex
100
AcDb2dVertex
 10
3.484266514664196
 20
0.9009922191137179
 30
0.0
  0
VERTEX
  5
383
330
377
100
AcDbEntity
  8
1
  6
Continuous
 62
   172
420
      213
 48
2.0
100
AcDbVertex
100
AcDb2dVertex
 10
3.490758728170729
 20
0.8898627102453815
 30
0.0
  0
VERTEX
  5
384
330
377
100
AcDbEntity
  8
1
  6
Continuous
 62
   172
420
      213
 48
2.0
100
AcDbVertex
100
AcDb2dVertex
 10
3.488903810026013
 20
0.8722409878705122
 30
0.0
  0
VERTEX
  5
385
330
377
100
AcDbEntity
  8
1
  6
Continuous
 62
   172
420
      213
 48
2.0
100
AcDbVertex
100
AcDb2dVertex
 10
3.481484137447094
 20
0.8620389380745337
 30
0.0
  0
VERTEX
  5
386
330
377
100
AcDbEntity
  8
1
  6
Continuous
 62
   172
420
      213
 48
2.0
100
AcDbVertex
100
AcDb2dVertex
 10
3.443458315480282
 20
0.8620389380745337
 30
0.0
  0
VERTEX
  5
387
330
377
100
AcDbEntity
  8
1
  6
Continuous
 62
   172
420
      213
 48
2.0
100
AcDbVertex
100
AcDb2dVertex
 10
3.423054215888353
 20
0.8574016427127304
 30
0.0
  0
VERTEX
  5
388
330
377
100
AcDbEntity
  8
1
  6
Continuous
 62
   172
420
      213
 48
2.0
100
AcDbVertex
100
AcDb2dVertex
 10
3.410997247947673
 20
0.8369975431207877
 30
0.0
  0
VERTEX
  5
389
330
377
100
AcDbEntity
  8
1
  6
Continuous
 62
   172
420
      213
 48
2.0
100
AcDbVertex
100
AcDb2dVertex
 10
3.376681262270292
 20
0.8314327886866124
 30
0.0
  0
VERTEX
  5
38A
330
377
100
AcDbEntity
  8
1
  6
Continuous
 62
   172
420
      213
 48
2.0
100
AcDbVertex
100
AcDb2dVertex
 10
3.337727981231151
 20
0.8305053296142546
 30
0.0
  0
VERTEX
  5
38B
330
377
100
AcDbEntity
  8
1
  6
Continuous
 62
   172
420
      213
 48
2.0
100
AcDbVertex
100
AcDb2dVertex
 10
3.306194372770815
 20
0.8351426249760578
 30
0.0
  0
VERTEX
  5
38C
330
377
100
AcDbEntity
  8
1
  6
Continuous
 62
   172
420
      213
 48
2.0
100
AcDbVertex
100
AcDb2dVertex
 10
3.2848628141065
 20
0.8425622975549487
 30
0.0
  0
VERTEX
  5
38D
330
377
100
AcDbEntity
  8
1
  6
Continuous
 62
   172
420
      213
 48
2.0
100
AcDbVertex
100
AcDb2dVertex
 10
3.263531255442185
 20
0.8527643473509272
 30
0.0
  0
VERTEX
  5
38E
330
377
100
AcDbEntity
  8
1
  6
Continuous
 62
   172
420
      213
 48
2.0
100
AcDbVertex
100
AcDb2dVertex
 10
3.256111582863323
 20
0.8685311515810668
 30
0.0
  0
SEQEND
  5
38F
330
377
100
AcDbEntity
  8
1
  6
Continuous
 62
   172
420
      213
 48
2.0
370
     0
  0
CIRCLE
  5
390
330
1F
100
AcDbEntity
  8
1
  6
Continuous
 62
   172
420
      213
 48
2.0
370
     0
100
AcDbCircle
 10
0.9820326481413097
 20
0.31724206832574
 30
0.0
 40
0.3175562126596329
  0
CIRCLE
  5
391
330
1F
100
AcDbEntity
  8
1
  6
Continuous
 62
   172
420
      213
 48
2.0
370
     0
100
AcDbCircle
 10
0.9820326481413097
 20
0.3181796611931134
 30
0.0
 40
0.2271007862263112
  0
CIRCLE
  5
392
330
1F
100
AcDbEntity
  8
1
  6
Continuous
 62
   172
420
      213
 48
2.0
370
     0
100
AcDbCircle
 10
3.631238603963961
 20
0.3185154427217469
 30
0.0
 40
0.3190922338569858
  0
CIRCLE
  5
393
330
1F
100
AcDbEntity
  8
1
  6
Continuous
 62
   172
420
      213
 48
2.0
370
     0
100
AcDbCircle
 10
3.629356929697249
 20
0.3203971169884454
 30
0.0
 40
0.2231668853449155
  0
LINE
  5
394
330
1F
100
AcDbEntity
  8
1
  6
Continuous
 62
   172
420
      213
 48
2.0
370
     0
100
AcDbLine
 10
0.04658748484459
 20
0.6736506400348077
 30
0.0
 11
0.0497603769701662
 21
0.6741794553890799
 31
0.0
  0
LINE
  5
395
330
1F
100
AcDbEntity
  8
1
  6
Continuous
 62
   172
420
      213
 48
2.0
370
     0
100
AcDbLine
 10
1.222213769088821
 20
0.9883849931354263
 30
0.0
 11
1.180044799918814
 21
0.9802029543412516
 31
0.0
  0
POLYLINE
  5
396
330
1F
100
AcDbEntity
  8
1
  6
Continuous
 62
   172
420
      213
 48
2.0
370
     0
100
AcDb2dPolyline
 66
     1
 10
0.0
 20
0.0
 30
0.0
 70
   128
  0
VERTEX
  5
397
330
396
100
AcDbEntity
  8
1
  6
Continuous
 62
   172
420
      213
 48
2.0
100
AcDbVertex
100
AcDb2dVertex
 10
1.365088089744486
 20
0.9694545826218928
 30
0.0
  0
VERTEX
  5
398
330
396
100
AcDbEntity
  8
1
  6
Continuous
 62
   172
420
      213
 48
2.0
100
AcDbVertex
100
AcDb2dVertex
 10
1.210672292875383
 20
0.958896237536834
 30
0.0
  0
VERTEX
  5
399
330
396
100
AcDbEntity
  8
1
  6
Continuous
 62
   172
420
      213
 48
2.0
100
AcDbVertex
100
AcDb2dVertex
 10
1.058967171521569
 20
0.9477619167035272
 30
0.0
  0
VERTEX
  5
39A
330
396
100
AcDbEntity
  8
1
  6
Continuous
 62
   172
420
      213
 48
2.0
100
AcDbVertex
100
AcDb2dVertex
 10
0.7652994595430549
 20
0.9101835838911114
 30
0.0
  0
VERTEX
  5
39B
330
396
100
AcDbEntity
  8
1
  6
Continuous
 62
   172
420
      213
 48
2.0
100
AcDbVertex
100
AcDb2dVertex
 10
0.5579227340226929
 20
0.8753888312870259
 30
0.0
  0
VERTEX
  5
39C
330
396
100
AcDbEntity
  8
1
  6
Continuous
 62
   172
420
      213
 48
2.0
100
AcDbVertex
100
AcDb2dVertex
 10
0.3825571808980861
 20
0.8266761776413034
 30
0.0
  0
VERTEX
  5
39D
330
396
100
AcDbEntity
  8
1
  6
Continuous
 62
   172
420
      213
 48
2.0
100
AcDbVertex
100
AcDb2dVertex
 10
0.2656468121483861
 20
0.7904896349330528
 30
0.0
  0
VERTEX
  5
39E
330
396
100
AcDbEntity
  8
1
  6
Continuous
 62
   172
420
      213
 48
2.0
100
AcDbVertex
100
AcDb2dVertex
 10
0.2225013189193099
 20
0.7849224745163923
 30
0.0
  0
VERTEX
  5
39F
330
396
100
AcDbEntity
  8
1
  6
Continuous
 62
   172
420
      213
 48
2.0
100
AcDbVertex
100
AcDb2dVertex
 10
0.1974490970443661
 20
0.7849224745163923
 30
0.0
  0
SEQEND
  5
3A0
330
396
100
AcDbEntity
  8
1
  6
Continuous
 62
   172
420
      213
 48
2.0
370
     0
  0
POLYLINE
  5
3A1
330
1F
100
AcDbEntity
  8
1
  6
Continuous
 62
   172
420
      213
 48
2.0
370
     0
100
AcDb2dPolyline
 66
     1
 10
0.0
 20
0.0
 30
0.0
 70
   128
  0
VERTEX
  5
3A2
330
3A1
100
AcDbEntity
  8
1
  6
Continuous
 62
   172
420
      213
 48
2.0
100
AcDbVertex
100
AcDb2dVertex
 10
1.608925129543334
 20
1.150781482334224
 30
0.0
  0
VERTEX
  5
3A3
330
3A1
100
AcDbEntity
  8
1
  6
Continuous
 62
   172
420
      213
 48
2.0
100
AcDbVertex
100
AcDb2dVertex
 10
1.885307933106983
 20
1.284335588754246
 30
0.0
  0
VERTEX
  5
3A4
330
3A1
100
AcDbEntity
  8
1
  6
Continuous
 62
   172
420
      213
 48
2.0
100
AcDbVertex
100
AcDb2dVertex
 10
2.007732530658668
 20
1.333490919589394
 30
0.0
  0
VERTEX
  5
3A5
330
3A1
100
AcDbEntity
  8
1
  6
Continuous
 62
   172
420
      213
 48
2.0
100
AcDbVertex
100
AcDb2dVertex
 10
2.09955097882246
 20
1.368734364339119
 30
0.0
  0
VERTEX
  5
3A6
330
3A1
100
AcDbEntity
  8
1
  6
Continuous
 62
   172
420
      213
 48
2.0
100
AcDbVertex
100
AcDb2dVertex
 10
2.185804672552049
 20
1.391920841148149
 30
0.0
  0
VERTEX
  5
3A7
330
3A1
100
AcDbEntity
  8
1
  6
Continuous
 62
   172
420
      213
 48
2.0
100
AcDbVertex
100
AcDb2dVertex
 10
2.271130907209308
 20
1.410470022595376
 30
0.0
  0
VERTEX
  5
3A8
330
3A1
100
AcDbEntity
  8
1
  6
Continuous
 62
   172
420
      213
 48
2.0
100
AcDbVertex
100
AcDb2dVertex
 10
2.386135832182074
 20
1.429019204042604
 30
0.0
  0
VERTEX
  5
3A9
330
3A1
100
AcDbEntity
  8
1
  6
Continuous
 62
   172
420
      213
 48
2.0
100
AcDbVertex
100
AcDb2dVertex
 10
2.551223547062389
 20
1.443858549200385
 30
0.0
  0
VERTEX
  5
3AA
330
3A1
100
AcDbEntity
  8
1
  6
Continuous
 62
   172
420
      213
 48
2.0
100
AcDbVertex
100
AcDb2dVertex
 10
2.784015774225079
 20
1.448495844562188
 30
0.0
  0
VERTEX
  5
3AB
330
3A1
100
AcDbEntity
  8
1
  6
Continuous
 62
   172
420
      213
 48
2.0
100
AcDbVertex
100
AcDb2dVertex
 10
2.949549803774143
 20
1.447896083585562
 30
0.0
  0
SEQEND
  5
3AC
330
3A1
100
AcDbEntity
  8
1
  6
Continuous
 62
   172
420
      213
 48
2.0
370
     0
  0
POLYLINE
  5
3AD
330
1F
100
AcDbEntity
  8
1
  6
Continuous
 62
   172
420
      213
 48
2.0
370
     0
100
AcDb2dPolyline
 66
     1
 10
0.0
 20
0.0
 30
0.0
 70
   128
  0
VERTEX
  5
3AE
330
3AD
100
AcDbEntity
  8
1
  6
Continuous
 62
   172
420
      213
 48
2.0
100
AcDbVertex
100
AcDb2dVertex
 10
3.018566975895308
 20
1.478464851976156
 30
0.0
  0
VERTEX
  5
3AF
330
3AD
100
AcDbEntity
  8
1
  6
Continuous
 62
   172
420
      213
 48
2.0
100
AcDbVertex
100
AcDb2dVertex
 10
3.124625383915454
 20
1.476343683815756
 30
0.0
  0
VERTEX
  5
3B0
330
3AD
100
AcDbEntity
  8
1
  6
Continuous
 62
   172
420
      213
 48
2.0
100
AcDbVertex
100
AcDb2dVertex
 10
3.367786363162931
 20
1.466254016627062
 30
0.0
  0
VERTEX
  5
3B1
330
3AD
100
AcDbEntity
  8
1
  6
Continuous
 62
   172
420
      213
 48
2.0
100
AcDbVertex
100
AcDb2dVertex
 10
3.570588673655575
 20
1.449101582406286
 30
0.0
  0
VERTEX
  5
3B2
330
3AD
100
AcDbEntity
  8
1
  6
Continuous
 62
   172
420
      213
 48
2.0
100
AcDbVertex
100
AcDb2dVertex
 10
4.015542996676881
 20
1.405716013494924
 30
0.0
  0
VERTEX
  5
3B3
330
3AD
100
AcDbEntity
  8
1
  6
Continuous
 62
   172
420
      213
 48
2.0
100
AcDbVertex
100
AcDb2dVertex
 10
4.290990910928112
 20
1.372420111772243
 30
0.0
  0
VERTEX
  5
3B4
330
3AD
100
AcDbEntity
  8
1
  6
Continuous
 62
   172
420
      213
 48
2.0
100
AcDbVertex
100
AcDb2dVertex
 10
4.297044711241337
 20
1.365357344740161
 30
0.0
  0
VERTEX
  5
3B5
330
3AD
100
AcDbEntity
  8
1
  6
Continuous
 62
   172
420
      213
 48
2.0
100
AcDbVertex
100
AcDb2dVertex
 10
4.30007161139795
 20
1.348204910519385
 30
0.0
  0
VERTEX
  5
3B6
330
3AD
100
AcDbEntity
  8
1
  6
Continuous
 62
   172
420
      213
 48
2.0
100
AcDbVertex
100
AcDb2dVertex
 10
4.208255639980873
 20
1.330043509579738
 30
0.0
  0
VERTEX
  5
3B7
330
3AD
100
AcDbEntity
  8
1
  6
Continuous
 62
   172
420
      213
 48
2.0
100
AcDbVertex
100
AcDb2dVertex
 10
4.159825237475129
 20
1.318944875672173
 30
0.0
  0
VERTEX
  5
3B8
330
3AD
100
AcDbEntity
  8
1
  6
Continuous
 62
   172
420
      213
 48
2.0
100
AcDbVertex
100
AcDb2dVertex
 10
4.110385868250571
 20
1.296747607857057
 30
0.0
  0
VERTEX
  5
3B9
330
3AD
100
AcDbEntity
  8
1
  6
Continuous
 62
   172
420
      213
 48
2.0
100
AcDbVertex
100
AcDb2dVertex
 10
4.060946499026013
 20
1.26849653972873
 30
0.0
  0
SEQEND
  5
3BA
330
3AD
100
AcDbEntity
  8
1
  6
Continuous
 62
   172
420
      213
 48
2.0
370
     0
  0
POLYLINE
  5
3BB
330
1F
100
AcDbEntity
  8
1
  6
Continuous
 62
   172
420
      213
 48
2.0
370
     0
100
AcDb2dPolyline
 66
     1
 10
0.0
 20
0.0
 30
0.0
 70
   128
  0
VERTEX
  5
3BC
330
3BB
100
AcDbEntity
  8
1
  6
Continuous
 62
   172
420
      213
 48
2.0
100
AcDbVertex
100
AcDb2dVertex
 10
2.700544457712535
 20
1.367806905266761
 30
0.0
  0
VERTEX
  5
3BD
330
3BB
100
AcDbEntity
  8
1
  6
Continuous
 62
   172
420
      213
 48
2.0
100
AcDbVertex
100
AcDb2dVertex
 10
2.891601026618982
 20
1.366879446194403
 30
0.0
  0
VERTEX
  5
3BE
330
3BB
100
AcDbEntity
  8
1
  6
Continuous
 62
   172
420
      213
 48
2.0
100
AcDbVertex
100
AcDb2dVertex
 10
2.925500902871843
 20
1.366072306283613
 30
0.0
  0
SEQEND
  5
3BF
330
3BB
100
AcDbEntity
  8
1
  6
Continuous
 62
   172
420
      213
 48
2.0
370
     0
  0
LINE
  5
3C0
330
1F
100
AcDbEntity
  8
1
  6
Continuous
 62
   172
420
      213
 48
2.0
370
     0
100
AcDbLine
 10
2.925041385272007
 20
1.479991860906978
 30
0.0
 11
3.019391128417194
 21
1.478551406813153
 31
0.0
  0
LINE
  5
3C1
330
1F
100
AcDbEntity
  8
1
  6
Continuous
 62
   172
420
      213
 48
2.0
370
     0
100
AcDbLine
 10
2.948808877820024
 20
1.447821719478341
 30
0.0
 11
3.033795669355381
 21
1.447101492431429
 31
0.0
  0
LINE
  5
3C2
330
1F
100
AcDbEntity
  8
1
  6
Continuous
 62
   172
420
      213
 48
2.0
370
     0
100
AcDbLine
 10
2.924321158225123
 20
1.365955911812932
 30
0.0
 11
3.008587722713539
 21
1.364275382036809
 31
0.0
  0
LINE
  5
3C3
330
1F
100
AcDbEntity
  8
1
  6
Continuous
 62
   172
420
      213
 48
2.0
370
     0
100
AcDbLine
 10
4.686340407160028
 20
0.5520295970863742
 30
0.0
 11
4.683284308609611
 21
0.4995665719711582
 31
0.0
  0
LINE
  5
3C4
330
1F
100
AcDbEntity
  8
1
  6
Continuous
 62
   172
420
      213
 48
2.0
370
     0
100
AcDbLine
 10
3.366065280062084
 20
0.6581576478613158
 30
0.0
 11
3.365189328248245
 21
0.656113760295753
 31
0.0
  0
ENDSEC
  0
SECTION
  2
OBJECTS
  0
DICTIONARY
  5
C
330
0
100
AcDbDictionary
281
     1
  3
ACAD_DETAILVIEWSTYLE
350
401
  3
ACAD_GROUP
350
D
  3
ACAD_IMAGE_VARS
350
95
  3
ACAD_LAYOUT
350
1A
  3
ACAD_MATERIAL
350
91
  3
ACAD_MLEADERSTYLE
350
3FF
  3
ACAD_MLINESTYLE
350
17
  3
ACAD_PLOTSETTINGS
350
19
  3
ACAD_PLOTSTYLENAME
350
E
  3
ACAD_SCALELIST
350
6F
  3
ACAD_SECTIONVIEWSTYLE
350
402
  3
ACAD_TABLESTYLE
350
3FE
  3
ACAD_VISUALSTYLE
350
56
  3
AcDbVariableDictionary
350
4E
  0
DICTIONARY
  5
3C5
330
8
100
AcDbDictionary
280
     1
281
     1
  3
ACAD_XREC_ROUNDTRIP
360
3C6
  0
DICTIONARY
  5
401
102
{ACAD_REACTORS
330
C
102
}
330
C
100
AcDbDictionary
281
     1
  0
DICTIONARY
  5
D
102
{ACAD_REACTORS
330
C
102
}
330
C
100
AcDbDictionary
281
     1
  0
RASTERVARIABLES
  5
95
102
{ACAD_REACTORS
330
C
102
}
330
C
100
AcDbRasterVariables
 90
        0
 70
     0
 71
     1
 72
     5
  0
DICTIONARY
  5
1A
102
{ACAD_REACTORS
330
C
102
}
330
C
100
AcDbDictionary
281
     1
  3
Layout1
350
1E
  3
Model
350
22
  0
DICTIONARY
  5
91
102
{ACAD_REACTORS
330
C
102
}
330
C
100
AcDbDictionary
281
     1
  3
ByBlock
350
93
  3
ByLayer
350
92
  3
Global
350
94
  0
DICTIONARY
  5
3FF
102
{ACAD_REACTORS
330
C
102
}
330
C
100
AcDbDictionary
281
     1
  0
DICTIONARY
  5
17
102
{ACAD_REACTORS
330
C
102
}
330
C
100
AcDbDictionary
281
     1
  3
Standard
350
18
  0
DICTIONARY
  5
19
102
{ACAD_REACTORS
330
C
102
}
330
C
100
AcDbDictionary
281
     1
  0
ACDBDICTIONARYWDFLT
  5
E
102
{ACAD_REACTORS
330
C
102
}
330
C
100
AcDbDictionary
281
     1
  3
Normal
350
F
100
AcDbDictionaryWithDefault
340
F
  0
DICTIONARY
  5
6F
102
{ACAD_REACTORS
330
C
102
}
330
C
100
AcDbDictionary
281
     1
  3
A0
350
70
  3
A1
350
71
  3
A2
350
72
  3
A3
350
73
  3
A4
350
74
  3
A5
350
75
  3
A6
350
76
  3
A7
350
77
  3
A8
350
78
  3
A9
350
79
  3
B0
350
7A
  3
B1
350
7B
  3
B2
350
7C
  3
B3
350
7D
  3
B4
350
7E
  3
B5
350
7F
  3
B6
350
80
  3
B7
350
81
  3
B8
350
82
  3
B9
350
83
  3
C0
350
84
  3
C1
350
85
  3
C2
350
86
  3
C3
350
87
  3
C4
350
88
  3
C5
350
89
  3
C6
350
8A
  3
C7
350
8B
  3
C8
350
8C
  3
C9
350
8D
  3
D0
350
8E
  3
D1
350
8F
  3
D2
350
90
  0
DICTIONARY
  5
402
102
{ACAD_REACTORS
330
C
102
}
330
C
100
AcDbDictionary
281
     1
  0
DICTIONARY
  5
3FE
102
{ACAD_REACTORS
330
C
102
}
330
C
100
AcDbDictionary
281
     1
  0
DICTIONARY
  5
56
102
{ACAD_REACTORS
330
C
102
}
330
C
100
AcDbDictionary
281
     1
  3
2dWireframe
350
5B
  3
Basic
350
5E
  3
Brighten
350
62
  3
ColorChange
350
66
  3
Conceptual
350
60
  3
Dim
350
61
  3
EdgeColorOff
350
69
  3
Facepattern
350
65
  3
Flat
350
57
  3
FlatWithEdges
350
58
  3
Gouraud
350
59
  3
GouraudWithEdges
350
5A
  3
Hidden
350
5D
  3
JitterOff
350
67
  3
Linepattern
350
64
  3
OverhangOff
350
68
  3
Realistic
350
5F
  3
Shaded
350
6E
  3
Shaded with edges
350
6D
  3
Shades of Gray
350
6A
  3
Sketchy
350
6B
  3
Thicken
350
63
  3
Wireframe
350
5C
  3
X-Ray
350
6C
  0
DICTIONARY
  5
4E
102
{ACAD_REACTORS
330
C
102
}
330
C
100
AcDbDictionary
281
     1
  3
CANNOSCALE
350
3C7
  3
DIMASSOC
350
4F
  3
MSLTSCALE
350
400
  0
XRECORD
  5
3C6
102
{ACAD_REACTORS
330
3C5
102
}
330
3C5
100
AcDbXrecord
280
     1
102
VTR_0.000_0.000_1.000_1.000_VISUALSTYLE
340
5B
102
VTR_0.000_0.000_1.000_1.000_GRIDDISPLAY
 70
     3
102
VTR_0.000_0.000_1.000_1.000_GRIDMAJOR
 70
     5
102
VTR_0.000_0.000_1.000_1.000_DEFAULTLIGHTING
280
     1
102
VTR_0.000_0.000_1.000_1.000_DEFAULTLIGHTINGTYPE
 70
     1
102
VTR_0.000_0.000_1.000_1.000_BRIGHTNESS
141
0.0
102
VTR_0.000_0.000_1.000_1.000_CONTRAST
142
0.0
  0
LAYOUT
  5
1E
102
{ACAD_REACTORS
330
1A
102
}
330
1A
100
AcDbPlotSettings
  1

  2
HP DeskJet 720C v10.3
  4

  6

 40
0.0
 41
0.0
 42
0.0
 43
0.0
 44
0.0
 45
0.0
 46
0.0
 47
0.0
 48
0.0
 49
0.0
140
0.0
141
0.0
142
1.0
143
1.0
 70
   688
 72
     0
 73
     0
 74
     5
  7

 75
    16
 76
     0
 77
     2
 78
   300
147
1.0
148
0.0
149
0.0
100
AcDbLayout
  1
Layout1
 70
     1
 71
     1
 10
0.0
 20
0.0
 11
12.0
 21
9.0
 12
0.0
 22
0.0
 32
0.0
 14
1.000000000000000E+20
 24
1.000000000000000E+20
 34
1.000000000000000E+20
 15
-1.000000000000000E+20
 25
-1.000000000000000E+20
 35
-1.000000000000000E+20
146
0.0
 13
0.0
 23
0.0
 33
0.0
 16
1.0
 26
0.0
 36
0.0
 17
0.0
 27
1.0
 37
0.0
 76
     0
330
1B
  0
LAYOUT
  5
22
102
{ACAD_REACTORS
330
1A
102
}
330
1A
100
AcDbPlotSettings
  1

  2
None
  4
Custom Paper
  6

 40
0.5
 41
0.5
 42
0.5
 43
0.5
 44
296.926
 45
209.9733333333333
 46
0.0
 47
56.52939863573069
 48
0.0
 49
0.0
140
0.0
141
0.0
142
1.0
143
0.017902578095269
 70
  5796
 72
     2
 73
     0
 74
     0
  7

 75
     0
 76
     0
 77
     2
 78
   300
147
55.85787670795115
148
2.64891916271028
149
0.8585587361595765
100
AcDbLayout
  1
Model
 70
     1
 71
     0
 10
0.0
 20
0.0
 11
12.0
 21
9.0
 12
0.0
 22
0.0
 32
0.0
 14
-0.0702369108567247
 24
-0.0715556327654241
 34
0.0
 15
4.745979748616517
 25
1.489460251161063
 35
0.0
146
0.0
 13
0.0
 23
0.0
 33
0.0
 16
1.0
 26
0.0
 36
0.0
 17
0.0
 27
1.0
 37
0.0
 76
     0
330
1F
331
55
  0
MATERIAL
  5
93
102
{ACAD_REACTORS
330
91
102
}
102
{ACAD_XDICTIONARY
360
3FA
102
}
330
91
100
AcDbMaterial
  1
ByBlock
  0
MATERIAL
  5
92
102
{ACAD_REACTORS
330
91
102
}
102
{ACAD_XDICTIONARY
360
3F8
102
}
330
91
100
AcDbMaterial
  1
ByLayer
  0
MATERIAL
  5
94
102
{ACAD_REACTORS
330
91
102
}
102
{ACAD_XDICTIONARY
360
3FC
102
}
330
91
100
AcDbMaterial
  1
Global
  0
MLINESTYLE
  5
18
102
{ACAD_REACTORS
330
17
102
}
330
17
100
AcDbMlineStyle
  2
STANDARD
 70
     0
  3

 62
   256
 51
90.0
 52
90.0
 71
     2
 49
0.5
 62
   256
  6
BYLAYER
 49
-0.5
 62
   256
  6
BYLAYER
  0
ACDBPLACEHOLDER
  5
F
102
{ACAD_REACTORS
330
E
102
}
330
E
  0
SCALE
  5
70
102
{ACAD_REACTORS
330
6F
102
}
330
6F
100
AcDbScale
 70
     0
300
1:1
140
1.0
141
1.0
290
     1
  0
SCALE
  5
71
102
{ACAD_REACTORS
330
6F
102
}
330
6F
100
AcDbScale
 70
     0
300
1:2
140
1.0
141
2.0
290
     0
  0
SCALE
  5
72
102
{ACAD_REACTORS
330
6F
102
}
330
6F
100
AcDbScale
 70
     0
300
1:4
140
1.0
141
4.0
290
     0
  0
SCALE
  5
73
102
{ACAD_REACTORS
330
6F
102
}
330
6F
100
AcDbScale
 70
     0
300
1:5
140
1.0
141
5.0
290
     0
  0
SCALE
  5
74
102
{ACAD_REACTORS
330
6F
102
}
330
6F
100
AcDbScale
 70
     0
300
1:8
140
1.0
141
8.0
290
     0
  0
SCALE
  5
75
102
{ACAD_REACTORS
330
6F
102
}
330
6F
100
AcDbScale
 70
     0
300
1:10
140
1.0
141
10.0
290
     0
  0
SCALE
  5
76
102
{ACAD_REACTORS
330
6F
102
}
330
6F
100
AcDbScale
 70
     0
300
1:16
140
1.0
141
16.0
290
     0
  0
SCALE
  5
77
102
{ACAD_REACTORS
330
6F
102
}
330
6F
100
AcDbScale
 70
     0
300
1:20
140
1.0
141
20.0
290
     0
  0
SCALE
  5
78
102
{ACAD_REACTORS
330
6F
102
}
330
6F
100
AcDbScale
 70
     0
300
1:30
140
1.0
141
30.0
290
     0
  0
SCALE
  5
79
102
{ACAD_REACTORS
330
6F
102
}
330
6F
100
AcDbScale
 70
     0
300
1:40
140
1.0
141
40.0
290
     0
  0
SCALE
  5
7A
102
{ACAD_REACTORS
330
6F
102
}
330
6F
100
AcDbScale
 70
     0
300
1:50
140
1.0
141
50.0
290
     0
  0
SCALE
  5
7B
102
{ACAD_REACTORS
330
6F
102
}
330
6F
100
AcDbScale
 70
     0
300
1:100
140
1.0
141
100.0
290
     0
  0
SCALE
  5
7C
102
{ACAD_REACTORS
330
6F
102
}
330
6F
100
AcDbScale
 70
     0
300
2:1
140
2.0
141
1.0
290
     0
  0
SCALE
  5
7D
102
{ACAD_REACTORS
330
6F
102
}
330
6F
100
AcDbScale
 70
     0
300
4:1
140
4.0
141
1.0
290
     0
  0
SCALE
  5
7E
102
{ACAD_REACTORS
330
6F
102
}
330
6F
100
AcDbScale
 70
     0
300
8:1
140
8.0
141
1.0
290
     0
  0
SCALE
  5
7F
102
{ACAD_REACTORS
330
6F
102
}
330
6F
100
AcDbScale
 70
     0
300
10:1
140
10.0
141
1.0
290
     0
  0
SCALE
  5
80
102
{ACAD_REACTORS
330
6F
102
}
330
6F
100
AcDbScale
 70
     0
300
100:1
140
100.0
141
1.0
290
     0
  0
SCALE
  5
81
102
{ACAD_REACTORS
330
6F
102
}
330
6F
100
AcDbScale
 70
     0
300
1/128" = 1'-0"
140
0.0078125
141
12.0
290
     0
  0
SCALE
  5
82
102
{ACAD_REACTORS
330
6F
102
}
330
6F
100
AcDbScale
 70
     0
300
1/64" = 1'-0"
140
0.015625
141
12.0
290
     0
  0
SCALE
  5
83
102
{ACAD_REACTORS
330
6F
102
}
330
6F
100
AcDbScale
 70
     0
300
1/32" = 1'-0"
140
0.03125
141
12.0
290
     0
  0
SCALE
  5
84
102
{ACAD_REACTORS
330
6F
102
}
330
6F
100
AcDbScale
 70
     0
300
1/16" = 1'-0"
140
0.0625
141
12.0
290
     0
  0
SCALE
  5
85
102
{ACAD_REACTORS
330
6F
102
}
330
6F
100
AcDbScale
 70
     0
300
3/32" = 1'-0"
140
0.09375
141
12.0
290
     0
  0
SCALE
  5
86
102
{ACAD_REACTORS
330
6F
102
}
330
6F
100
AcDbScale
 70
     0
300
1/8" = 1'-0"
140
0.125
141
12.0
290
     0
  0
SCALE
  5
87
102
{ACAD_REACTORS
330
6F
102
}
330
6F
100
AcDbScale
 70
     0
300
3/16" = 1'-0"
140
0.1875
141
12.0
290
     0
  0
SCALE
  5
88
102
{ACAD_REACTORS
330
6F
102
}
330
6F
100
AcDbScale
 70
     0
300
1/4" = 1'-0"
140
0.25
141
12.0
290
     0
  0
SCALE
  5
89
102
{ACAD_REACTORS
330
6F
102
}
330
6F
100
AcDbScale
 70
     0
300
3/8" = 1'-0"
140
0.375
141
12.0
290
     0
  0
SCALE
  5
8A
102
{ACAD_REACTORS
330
6F
102
}
330
6F
100
AcDbScale
 70
     0
300
1/2" = 1'-0"
140
0.5
141
12.0
290
     0
  0
SCALE
  5
8B
102
{ACAD_REACTORS
330
6F
102
}
330
6F
100
AcDbScale
 70
     0
300
3/4" = 1'-0"
140
0.75
141
12.0
290
     0
  0
SCALE
  5
8C
102
{ACAD_REACTORS
330
6F
102
}
330
6F
100
AcDbScale
 70
     0
300
1" = 1'-0"
140
1.0
141
12.0
290
     0
  0
SCALE
  5
8D
102
{ACAD_REACTORS
330
6F
102
}
330
6F
100
AcDbScale
 70
     0
300
1-1/2" = 1'-0"
140
1.5
141
12.0
290
     0
  0
SCALE
  5
8E
102
{ACAD_REACTORS
330
6F
102
}
330
6F
100
AcDbScale
 70
     0
300
3" = 1'-0"
140
3.0
141
12.0
290
     0
  0
SCALE
  5
8F
102
{ACAD_REACTORS
330
6F
102
}
330
6F
100
AcDbScale
 70
     0
300
6" = 1'-0"
140
6.0
141
12.0
290
     0
  0
SCALE
  5
90
102
{ACAD_REACTORS
330
6F
102
}
330
6F
100
AcDbScale
 70
     0
300
1'-0" = 1'-0"
140
12.0
141
12.0
290
     0
  0
VISUALSTYLE
  5
5B
102
{ACAD_REACTORS
330
56
102
}
102
{ACAD_XDICTIONARY
360
3D0
102
}
330
56
100
AcDbVisualStyle
  2
2dWireframe
 70
     4
 71
     0
 72
     2
 73
     0
 90
        0
 40
0.6
 41
30.0
 62
     5
 63
     7
421
 16777215
 74
     1
 91
        4
 64
     7
 65
   257
 75
     1
175
     1
 42
1.0
 92
        0
 66
   257
 43
1.0
 76
     1
 77
     6
 78
     2
 67
     7
 79
     5
170
     0
171
     0
290
     0
174
     0
 93
        1
 44
0.0
173
     0
291
     0
 45
0.0
1001
ACAD
1000
AcDbSavedByObjectVersion
1070
     0
  0
VISUALSTYLE
  5
5E
102
{ACAD_REACTORS
330
56
102
}
102
{ACAD_XDICTIONARY
360
3D6
102
}
330
56
100
AcDbVisualStyle
  2
Basic
 70
     7
 71
     1
 72
     0
 73
     1
 90
        0
 40
0.6
 41
30.0
 62
     5
 63
     7
421
 16777215
 74
     0
 91
        4
 64
     7
 65
   257
 75
     1
175
     1
 42
1.0
 92
        8
 66
     7
 43
1.0
 76
     1
 77
     6
 78
     2
 67
     7
 79
     5
170
     0
171
     0
290
     0
174
     0
 93
        1
 44
0.0
173
     0
291
     1
 45
0.0
1001
ACAD
1000
AcDbSavedByObjectVersion
1070
     0
  0
VISUALSTYLE
  5
62
102
{ACAD_REACTORS
330
56
102
}
102
{ACAD_XDICTIONARY
360
3DE
102
}
330
56
100
AcDbVisualStyle
  2
Brighten
 70
    12
 71
     2
 72
     2
 73
     0
 90
        0
 40
0.6
 41
30.0
 62
     5
 63
     7
421
 16777215
 74
     1
 91
        4
 64
     7
 65
   257
 75
     1
175
     1
 42
1.0
 92
        8
 66
     7
 43
1.0
 76
     1
 77
     6
 78
     2
 67
     7
 79
     5
170
     0
171
     0
290
     0
174
     0
 93
        1
 44
50.0
173
     0
291
     1
 45
0.0
1001
ACAD
1000
AcDbSavedByObjectVersion
1070
     0
  0
VISUALSTYLE
  5
66
102
{ACAD_REACTORS
330
56
102
}
102
{ACAD_XDICTIONARY
360
3E6
102
}
330
56
100
AcDbVisualStyle
  2
ColorChange
 70
    16
 71
     2
 72
     2
 73
     3
 90
        0
 40
0.6
 41
30.0
 62
     5
 63
     8
421
  8421504
 74
     1
 91
        4
 64
     7
 65
   257
 75
     1
175
     1
 42
1.0
 92
        8
 66
     8
424
  8421504
 43
1.0
 76
     1
 77
     6
 78
     2
 67
     7
 79
     5
170
     0
171
     0
290
     0
174
     0
 93
        1
 44
0.0
173
     0
291
     1
 45
0.0
1001
ACAD
1000
AcDbSavedByObjectVersion
1070
     0
  0
VISUALSTYLE
  5
60
102
{ACAD_REACTORS
330
56
102
}
102
{ACAD_XDICTIONARY
360
3DA
102
}
330
56
100
AcDbVisualStyle
  2
Conceptual
 70
     9
 71
     3
 72
     2
 73
     0
 90
        0
 40
0.6
 41
30.0
 62
     5
 63
     7
421
 16777215
 74
     2
 91
        2
 64
     7
 65
   257
 75
     1
175
     1
 42
179.0
 92
        8
 66
     7
 43
1.0
 76
     1
 77
     6
 78
     2
 67
     7
 79
     3
170
     0
171
     0
290
     0
174
     0
 93
        1
 44
0.0
173
     0
291
     0
 45
0.0
1001
ACAD
1000
AcDbSavedByObjectVersion
1070
     0
  0
VISUALSTYLE
  5
61
102
{ACAD_REACTORS
330
56
102
}
102
{ACAD_XDICTIONARY
360
3DC
102
}
330
56
100
AcDbVisualStyle
  2
Dim
 70
    11
 71
     2
 72
     2
 73
     0
 90
        0
 40
0.6
 41
30.0
 62
     5
 63
     7
421
 16777215
 74
     1
 91
        4
 64
     7
 65
   257
 75
     1
175
     1
 42
1.0
 92
        8
 66
     7
 43
1.0
 76
     1
 77
     6
 78
     2
 67
     7
 79
     5
170
     0
171
     0
290
     0
174
     0
 93
        1
 44
-50.0
173
     0
291
     1
 45
0.0
1001
ACAD
1000
AcDbSavedByObjectVersion
1070
     0
  0
VISUALSTYLE
  5
69
102
{ACAD_REACTORS
330
56
102
}
102
{ACAD_XDICTIONARY
360
3EC
102
}
330
56
100
AcDbVisualStyle
  2
EdgeColorOff
 70
    22
 71
     2
 72
     2
 73
     0
 90
        0
 40
0.6
 41
30.0
 62
     5
 63
     7
421
 16777215
 74
     1
 91
        4
 64
     7
 65
   257
 75
     1
175
     1
 42
1.0
 92
        8
 66
     7
 43
1.0
 76
     1
 77
     6
 78
     2
 67
     7
 79
     5
170
     0
171
     0
290
     0
174
     0
 93
        1
 44
0.0
173
     0
291
     1
 45
0.0
1001
ACAD
1000
AcDbSavedByObjectVersion
1070
     0
  0
VISUALSTYLE
  5
65
102
{ACAD_REACTORS
330
56
102
}
102
{ACAD_XDICTIONARY
360
3E4
102
}
330
56
100
AcDbVisualStyle
  2
Facepattern
 70
    15
 71
     2
 72
     2
 73
     0
 90
        0
 40
0.6
 41
30.0
 62
     5
 63
     7
421
 16777215
 74
     1
 91
        4
 64
     7
 65
   257
 75
     1
175
     1
 42
1.0
 92
        8
 66
     7
 43
1.0
 76
     1
 77
     6
 78
     2
 67
     7
 79
     5
170
     0
171
     0
290
     0
174
     0
 93
        1
 44
0.0
173
     0
291
     1
 45
0.0
1001
ACAD
1000
AcDbSavedByObjectVersion
1070
     0
  0
VISUALSTYLE
  5
57
102
{ACAD_REACTORS
330
56
102
}
102
{ACAD_XDICTIONARY
360
3C8
102
}
330
56
100
AcDbVisualStyle
  2
Flat
 70
     0
 71
     2
 72
     1
 73
     1
 90
        2
 40
0.6
 41
30.0
 62
     5
 63
     7
421
 16777215
 74
     0
 91
        0
 64
     7
 65
   257
 75
     1
175
     1
 42
1.0
 92
        8
 66
     7
 43
1.0
 76
     1
 77
     6
 78
     2
 67
     7
 79
     5
170
     0
171
     0
290
     0
174
     0
 93
       13
 44
0.0
173
     0
291
     1
 45
0.0
1001
ACAD
1000
AcDbSavedByObjectVersion
1070
     0
  0
VISUALSTYLE
  5
58
102
{ACAD_REACTORS
330
56
102
}
102
{ACAD_XDICTIONARY
360
3CA
102
}
330
56
100
AcDbVisualStyle
  2
FlatWithEdges
 70
     1
 71
     2
 72
     1
 73
     1
 90
        2
 40
0.6
 41
30.0
 62
     5
 63
     7
421
 16777215
 74
     1
 91
        0
 64
     7
 65
   257
 75
     1
175
     1
 42
1.0
 92
        0
 66
   257
 43
1.0
 76
     1
 77
     6
 78
     2
 67
     7
 79
     5
170
     0
171
     0
290
     0
174
     0
 93
       13
 44
0.0
173
     0
291
     1
 45
0.0
1001
ACAD
1000
AcDbSavedByObjectVersion
1070
     0
  0
VISUALSTYLE
  5
59
102
{ACAD_REACTORS
330
56
102
}
102
{ACAD_XDICTIONARY
360
3CC
102
}
330
56
100
AcDbVisualStyle
  2
Gouraud
 70
     2
 71
     2
 72
     2
 73
     1
 90
        2
 40
0.6
 41
30.0
 62
     5
 63
     7
421
 16777215
 74
     0
 91
        0
 64
     7
 65
   257
 75
     1
175
     1
 42
1.0
 92
        0
 66
     7
 43
1.0
 76
     1
 77
     6
 78
     2
 67
     7
 79
     5
170
     0
171
     0
290
     0
174
     0
 93
       13
 44
0.0
173
     0
291
     1
 45
0.0
1001
ACAD
1000
AcDbSavedByObjectVersion
1070
     0
  0
VISUALSTYLE
  5
5A
102
{ACAD_REACTORS
330
56
102
}
102
{ACAD_XDICTIONARY
360
3CE
102
}
330
56
100
AcDbVisualStyle
  2
GouraudWithEdges
 70
     3
 71
     2
 72
     2
 73
     1
 90
        2
 40
0.6
 41
30.0
 62
     5
 63
     7
421
 16777215
 74
     1
 91
        0
 64
     7
 65
   257
 75
     1
175
     1
 42
1.0
 92
        0
 66
   257
 43
1.0
 76
     1
 77
     6
 78
     2
 67
     7
 79
     5
170
     0
171
     0
290
     0
174
     0
 93
       13
 44
0.0
173
     0
291
     1
 45
0.0
1001
ACAD
1000
AcDbSavedByObjectVersion
1070
     0
  0
VISUALSTYLE
  5
5D
102
{ACAD_REACTORS
330
56
102
}
102
{ACAD_XDICTIONARY
360
3D4
102
}
330
56
100
AcDbVisualStyle
  2
Hidden
 70
     6
 71
     1
 72
     2
 73
     2
 90
        0
 40
0.6
 41
30.0
 62
     5
 63
     7
421
 16777215
 74
     2
 91
        2
 64
     7
 65
   257
 75
     2
175
     1
 42
40.0
 92
        0
 66
   257
 43
1.0
 76
     1
 77
     6
 78
     2
 67
     7
 79
     3
170
     0
171
     0
290
     0
174
     0
 93
        1
 44
0.0
173
     0
291
     0
 45
0.0
1001
ACAD
1000
AcDbSavedByObjectVersion
1070
     0
  0
VISUALSTYLE
  5
67
102
{ACAD_REACTORS
330
56
102
}
102
{ACAD_XDICTIONARY
360
3E8
102
}
330
56
100
AcDbVisualStyle
  2
JitterOff
 70
    20
 71
     2
 72
     2
 73
     0
 90
        0
 40
0.6
 41
30.0
 62
     5
 63
     7
421
 16777215
 74
     1
 91
        4
 64
     7
 65
   257
 75
     1
175
     1
 42
1.0
 92
       10
 66
     7
 43
1.0
 76
     1
 77
     6
 78
     2
 67
     7
 79
     5
170
     0
171
     0
290
     0
174
     0
 93
        1
 44
0.0
173
     0
291
     1
 45
0.0
1001
ACAD
1000
AcDbSavedByObjectVersion
1070
     0
  0
VISUALSTYLE
  5
64
102
{ACAD_REACTORS
330
56
102
}
102
{ACAD_XDICTIONARY
360
3E2
102
}
330
56
100
AcDbVisualStyle
  2
Linepattern
 70
    14
 71
     2
 72
     2
 73
     0
 90
        0
 40
0.6
 41
30.0
 62
     5
 63
     7
421
 16777215
 74
     1
 91
        4
 64
     7
 65
   257
 75
     7
175
     7
 42
1.0
 92
        8
 66
     7
 43
1.0
 76
     1
 77
     6
 78
     2
 67
     7
 79
     5
170
     0
171
     0
290
     0
174
     0
 93
        1
 44
0.0
173
     0
291
     1
 45
0.0
1001
ACAD
1000
AcDbSavedByObjectVersion
1070
     0
  0
VISUALSTYLE
  5
68
102
{ACAD_REACTORS
330
56
102
}
102
{ACAD_XDICTIONARY
360
3EA
102
}
330
56
100
AcDbVisualStyle
  2
OverhangOff
 70
    21
 71
     2
 72
     2
 73
     0
 90
        0
 40
0.6
 41
30.0
 62
     5
 63
     7
421
 16777215
 74
     1
 91
        4
 64
     7
 65
   257
 75
     1
175
     1
 42
1.0
 92
        9
 66
     7
 43
1.0
 76
     1
 77
     6
 78
     2
 67
     7
 79
     5
170
     0
171
     0
290
     0
174
     0
 93
        1
 44
0.0
173
     0
291
     1
 45
0.0
1001
ACAD
1000
AcDbSavedByObjectVersion
1070
     0
  0
VISUALSTYLE
  5
5F
102
{ACAD_REACTORS
330
56
102
}
102
{ACAD_XDICTIONARY
360
3D8
102
}
330
56
100
AcDbVisualStyle
  2
Realistic
 70
     8
 71
     2
 72
     3
 73
     0
 90
        2
 40
0.6
 41
30.0
 62
     5
 63
     7
421
 16777215
 74
     0
 91
        0
 64
     7
 65
   257
 75
     1
175
     1
 42
1.0
 92
        8
 66
   257
 43
1.0
 76
     1
 77
     6
 78
     2
 67
     7
 79
     3
170
     0
171
     0
290
     0
174
     0
 93
       13
 44
0.0
173
     0
291
     0
 45
0.0
1001
ACAD
1000
AcDbSavedByObjectVersion
1070
     0
  0
VISUALSTYLE
  5
6E
102
{ACAD_REACTORS
330
56
102
}
102
{ACAD_XDICTIONARY
360
3F6
102
}
330
56
100
AcDbVisualStyle
  2
Shaded
 70
    27
 71
     2
 72
     2
 73
     1
 90
        2
 40
0.6
 41
30.0
 62
     5
 63
     7
421
 16777215
 74
     0
 91
        4
 64
     7
 65
   257
 75
     1
175
     1
 42
1.0
 92
        8
 66
   257
 43
1.0
 76
     1
 77
     6
 78
     2
 67
     8
425
  7895160
 79
     3
170
     0
171
     0
290
     0
174
     0
 93
        5
 44
0.0
173
     0
291
     0
 45
0.0
1001
ACAD
1000
AcDbSavedByObjectVersion
1070
     0
  0
VISUALSTYLE
  5
6D
102
{ACAD_REACTORS
330
56
102
}
102
{ACAD_XDICTIONARY
360
3F4
102
}
330
56
100
AcDbVisualStyle
  2
Shaded with edges
 70
    26
 71
     2
 72
     2
 73
     1
 90
        2
 40
0.6
 41
30.0
 62
     5
 63
     7
421
 16777215
 74
     1
 91
       10
 64
     7
 65
   257
 75
     2
175
     1
 42
1.0
 92
        8
 66
   257
 43
1.0
 76
     1
 77
     6
 78
     2
 67
     7
 79
     3
170
     0
171
     0
290
     0
174
     0
 93
        5
 44
0.0
173
     0
291
     0
 45
0.0
1001
ACAD
1000
AcDbSavedByObjectVersion
1070
     0
  0
VISUALSTYLE
  5
6A
102
{ACAD_REACTORS
330
56
102
}
102
{ACAD_XDICTIONARY
360
3EE
102
}
330
56
100
AcDbVisualStyle
  2
Shades of Gray
 70
    23
 71
     2
 72
     2
 73
     3
 90
        0
 40
0.6
 41
30.0
 62
     5
 63
     7
421
 16777215
 74
     2
 91
        2
 64
     7
 65
     7
 75
     1
175
     1
 42
40.0
 92
        8
 66
     7
 43
1.0
 76
     1
 77
     6
 78
     2
 67
     7
 79
     3
170
     0
171
     0
290
     0
174
     0
 93
        1
 44
0.0
173
     0
291
     0
 45
0.0
1001
ACAD
1000
AcDbSavedByObjectVersion
1070
     0
  0
VISUALSTYLE
  5
6B
102
{ACAD_REACTORS
330
56
102
}
102
{ACAD_XDICTIONARY
360
3F0
102
}
330
56
100
AcDbVisualStyle
  2
Sketchy
 70
    24
 71
     1
 72
     2
 73
     2
 90
        0
 40
0.6
 41
30.0
 62
     5
 63
     7
421
 16777215
 74
     2
 91
        2
 64
     7
 65
     7
 75
     1
175
     1
 42
40.0
 92
       11
 66
     7
 43
1.0
 76
     1
 77
     6
 78
     2
 67
     7
 79
     6
170
     0
171
     0
290
     0
174
     0
 93
        1
 44
0.0
173
     0
291
     0
 45
0.0
1001
ACAD
1000
AcDbSavedByObjectVersion
1070
     0
  0
VISUALSTYLE
  5
63
102
{ACAD_REACTORS
330
56
102
}
102
{ACAD_XDICTIONARY
360
3E0
102
}
330
56
100
AcDbVisualStyle
  2
Thicken
 70
    13
 71
     2
 72
     2
 73
     0
 90
        0
 40
0.6
 41
30.0
 62
     5
 63
     7
421
 16777215
 74
     1
 91
        4
 64
     7
 65
   257
 75
     1
175
     1
 42
1.0
 92
       12
 66
     7
 43
1.0
 76
     1
 77
     6
 78
     2
 67
     7
 79
     5
170
     0
171
     0
290
     0
174
     0
 93
        1
 44
0.0
173
     0
291
     1
 45
0.0
1001
ACAD
1000
AcDbSavedByObjectVersion
1070
     0
  0
VISUALSTYLE
  5
5C
102
{ACAD_REACTORS
330
56
102
}
102
{ACAD_XDICTIONARY
360
3D2
102
}
330
56
100
AcDbVisualStyle
  2
Wireframe
 70
     5
 71
     0
 72
     2
 73
     0
 90
        0
 40
0.6
 41
30.0
 62
     5
 63
     7
421
 16777215
 74
     1
 91
        4
 64
     7
 65
   257
 75
     1
175
     1
 42
1.0
 92
        0
 66
   257
 43
1.0
 76
     1
 77
     6
 78
     2
 67
     7
 79
     3
170
     0
171
     0
290
     0
174
     0
 93
        1
 44
0.0
173
     0
291
     0
 45
0.0
1001
ACAD
1000
AcDbSavedByObjectVersion
1070
     0
  0
VISUALSTYLE
  5
6C
102
{ACAD_REACTORS
330
56
102
}
102
{ACAD_XDICTIONARY
360
3F2
102
}
330
56
100
AcDbVisualStyle
  2
X-Ray
 70
    25
 71
     2
 72
     2
 73
     1
 90
        1
 40
0.5
 41
30.0
 62
     5
 63
     7
421
 16777215
 74
     1
 91
        0
 64
     7
 65
   257
 75
     1
175
     1
 42
1.0
 92
        8
 66
     7
 43
1.0
 76
     1
 77
     6
 78
     2
 67
     7
 79
     3
170
     0
171
     0
290
     0
174
     0
 93
       13
 44
0.0
173
     0
291
     0
 45
0.0
1001
ACAD
1000
AcDbSavedByObjectVersion
1070
     0
  0
DICTIONARYVAR
  5
3C7
102
{ACAD_REACTORS
330
4E
102
}
330
4E
100
DictionaryVariables
280
     0
  1
1:1
  0
DICTIONARYVAR
  5
4F
102
{ACAD_REACTORS
330
4E
102
}
330
4E
100
DictionaryVariables
280
     0
  1
1
  0
DICTIONARYVAR
  5
400
102
{ACAD_REACTORS
330
4E
102
}
330
4E
100
DictionaryVariables
280
     0
  1
0
  0
DICTIONARY
  5
3FA
330
93
100
AcDbDictionary
280
     1
281
     1
  3
ACAD_XREC_ROUNDTRIP
360
3FB
  0
DICTIONARY
  5
3F8
330
92
100
AcDbDictionary
280
     1
281
     1
  3
ACAD_XREC_ROUNDTRIP
360
3F9
  0
DICTIONARY
  5
3FC
330
94
100
AcDbDictionary
280
     1
281
     1
  3
ACAD_XREC_ROUNDTRIP
360
3FD
  0
DICTIONARY
  5
3D0
330
5B
100
AcDbDictionary
280
     1
281
     1
  3
ACAD_XREC_ROUNDTRIP
360
3D1
  0
DICTIONARY
  5
3D6
330
5E
100
AcDbDictionary
280
     1
281
     1
  3
ACAD_XREC_ROUNDTRIP
360
3D7
  0
DICTIONARY
  5
3DE
330
62
100
AcDbDictionary
280
     1
281
     1
  3
ACAD_XREC_ROUNDTRIP
360
3DF
  0
DICTIONARY
  5
3E6
330
66
100
AcDbDictionary
280
     1
281
     1
  3
ACAD_XREC_ROUNDTRIP
360
3E7
  0
DICTIONARY
  5
3DA
330
60
100
AcDbDictionary
280
     1
281
     1
  3
ACAD_XREC_ROUNDTRIP
360
3DB
  0
DICTIONARY
  5
3DC
330
61
100
AcDbDictionary
280
     1
281
     1
  3
ACAD_XREC_ROUNDTRIP
360
3DD
  0
DICTIONARY
  5
3EC
330
69
100
AcDbDictionary
280
     1
281
     1
  3
ACAD_XREC_ROUNDTRIP
360
3ED
  0
DICTIONARY
  5
3E4
330
65
100
AcDbDictionary
280
     1
281
     1
  3
ACAD_XREC_ROUNDTRIP
360
3E5
  0
DICTIONARY
  5
3C8
330
57
100
AcDbDictionary
280
     1
281
     1
  3
ACAD_XREC_ROUNDTRIP
360
3C9
  0
DICTIONARY
  5
3CA
330
58
100
AcDbDictionary
280
     1
281
     1
  3
ACAD_XREC_ROUNDTRIP
360
3CB
  0
DICTIONARY
  5
3CC
330
59
100
AcDbDictionary
280
     1
281
     1
  3
ACAD_XREC_ROUNDTRIP
360
3CD
  0
DICTIONARY
  5
3CE
330
5A
100
AcDbDictionary
280
     1
281
     1
  3
ACAD_XREC_ROUNDTRIP
360
3CF
  0
DICTIONARY
  5
3D4
330
5D
100
AcDbDictionary
280
     1
281
     1
  3
ACAD_XREC_ROUNDTRIP
360
3D5
  0
DICTIONARY
  5
3E8
330
67
100
AcDbDictionary
280
     1
281
     1
  3
ACAD_XREC_ROUNDTRIP
360
3E9
  0
DICTIONARY
  5
3E2
330
64
100
AcDbDictionary
280
     1
281
     1
  3
ACAD_XREC_ROUNDTRIP
360
3E3
  0
DICTIONARY
  5
3EA
330
68
100
AcDbDictionary
280
     1
281
     1
  3
ACAD_XREC_ROUNDTRIP
360
3EB
  0
DICTIONARY
  5
3D8
330
5F
100
AcDbDictionary
280
     1
281
     1
  3
ACAD_XREC_ROUNDTRIP
360
3D9
  0
DICTIONARY
  5
3F6
330
6E
100
AcDbDictionary
280
     1
281
     1
  3
ACAD_XREC_ROUNDTRIP
360
3F7
  0
DICTIONARY
  5
3F4
330
6D
100
AcDbDictionary
280
     1
281
     1
  3
ACAD_XREC_ROUNDTRIP
360
3F5
  0
DICTIONARY
  5
3EE
330
6A
100
AcDbDictionary
280
     1
281
     1
  3
ACAD_XREC_ROUNDTRIP
360
3EF
  0
DICTIONARY
  5
3F0
330
6B
100
AcDbDictionary
280
     1
281
     1
  3
ACAD_XREC_ROUNDTRIP
360
3F1
  0
DICTIONARY
  5
3E0
330
63
100
AcDbDictionary
280
     1
281
     1
  3
ACAD_XREC_ROUNDTRIP
360
3E1
  0
DICTIONARY
  5
3D2
330
5C
100
AcDbDictionary
280
     1
281
     1
  3
ACAD_XREC_ROUNDTRIP
360
3D3
  0
DICTIONARY
  5
3F2
330
6C
100
AcDbDictionary
280
     1
281
     1
  3
ACAD_XREC_ROUNDTRIP
360
3F3
  0
XRECORD
  5
3FB
102
{ACAD_REACTORS
330
3FA
102
}
330
3FA
100
AcDbXrecord
280
     1
102
MATERIAL
148
0.0
149
0.0
149
0.0
 93
        0
 94
      127
282
     0
 72
     1
 77
     1
171
     1
175
     1
179
     1
273
     0
  0
XRECORD
  5
3F9
102
{ACAD_REACTORS
330
3F8
102
}
330
3F8
100
AcDbXrecord
280
     1
102
MATERIAL
148
0.0
149
0.0
149
0.0
 93
        0
 94
      127
282
     0
 72
     1
 77
     1
171
     1
175
     1
179
     1
273
     0
  0
XRECORD
  5
3FD
102
{ACAD_REACTORS
330
3FC
102
}
330
3FC
100
AcDbXrecord
280
     1
102
MATERIAL
148
0.0
149
0.0
149
0.0
 93
        0
 94
      127
282
     0
 72
     1
 77
     1
171
     1
175
     1
179
     1
273
     0
  0
XRECORD
  5
3D1
102
{ACAD_REACTORS
330
3D0
102
}
330
3D0
100
AcDbXrecord
280
     1
102
RTVSPropertyOp0
 70
     1
102
RTVSPropertyOp1
 70
     1
102
RTVSPropertyOp2
 70
     1
102
RTVSPropertyOp3
 70
     1
102
RTVSPropertyOp4
 70
     1
102
RTVSPropertyOp5
 70
     1
102
RTVSPropertyOp6
 70
     1
102
RTVSPropertyOp7
 70
     1
102
RTVSPropertyOp8
 70
     1
102
RTVSPropertyOp9
 70
     1
102
RTVSPropertyOp10
 70
     1
102
RTVSPropertyOp11
 70
     1
102
RTVSPropertyOp12
 70
     1
102
RTVSPropertyOp13
 70
     1
102
RTVSPropertyOp14
 70
     1
102
RTVSPropertyOp15
 70
     1
102
RTVSPropertyOp16
 70
     1
102
RTVSPropertyOp17
 70
     1
102
RTVSPropertyOp18
 70
     1
102
RTVSPropertyOp19
 70
     1
102
RTVSPropertyOp20
 70
     1
102
RTVSPropertyOp21
 70
     1
102
RTVSPropertyOp22
 70
     1
102
RTVSPropertyOp23
 70
     1
102
RTVSPropertyOp24
 70
     1
102
RTVSPropertyOp25
 70
     1
102
RTVSPropertyOp26
 70
     1
102
RTVSPropertyOp27
 70
     1
102
RTVSPropertyOp28
 70
     1
102
RTVSPropertyOp29
 70
     1
102
RTVSPropertyOp30
 70
     1
102
RTVSPropertyOp31
 70
     1
102
RTVSPropertyOp32
 70
     1
102
RTVSPropertyOp33
 70
     1
102
RTVSPropertyOp34
 70
     1
102
RTVSPropertyOp35
 70
     1
102
RTVSPropertyOp36
 70
     1
102
RTVSPropertyOp37
 70
     1
102
RTVSPropertyOp38
 70
     1
102
RTVSPropertyOp39
 70
     1
102
RTVSPropertyOp40
 70
     1
102
RTVSPropertyOp41
 70
     1
102
RTVSPropertyOp42
 70
     1
102
RTVSPropertyOp43
 70
     1
102
RTVSPropertyOp44
 70
     1
102
RTVSPropertyOp45
 70
     1
102
RTVSPropertyOp46
 70
     1
102
RTVSPropertyOp47
 70
     1
102
RTVSPropertyOp48
 70
     1
102
RTVSPropertyOp49
 70
     1
102
RTVSPropertyOp50
 70
     1
102
RTVSPropertyOp51
 70
     0
102
RTVSPropertyOp52
 70
     0
102
RTVSPropertyOp53
 70
     1
102
RTVSPropertyOp54
 70
     1
102
RTVSPropertyOp55
 70
     1
102
RTVSPropertyOp56
 70
     1
102
RTVSPropertyOp57
 70
     1
102
RTVSPost2010Prop28
280
     1
102
RTVSPost2010PropOp28
 70
     1
102
RTVSPost2010Prop29
280
     1
102
RTVSPost2010PropOp29
 70
     1
102
RTVSPost2010Prop30
280
     0
102
RTVSPost2010PropOp30
 70
     1
102
RTVSPost2010Prop31
280
     0
102
RTVSPost2010PropOp31
 70
     1
102
RTVSPost2010Prop32
280
     0
102
RTVSPost2010PropOp32
 70
     1
102
RTVSPost2010Prop33
280
     0
102
RTVSPost2010PropOp33
 70
     1
102
RTVSPost2010Prop34
280
     0
102
RTVSPost2010PropOp34
 70
     1
102
RTVSPost2010Prop35
280
     0
102
RTVSPost2010PropOp35
 70
     1
102
RTVSPost2010Prop36
280
     0
102
RTVSPost2010PropOp36
 70
     1
102
RTVSPost2010Prop37
 90
       50
102
RTVSPost2010PropOp37
 70
     1
102
RTVSPost2010Prop38
140
0.0
102
RTVSPost2010PropOp38
 70
     1
102
RTVSPost2010Prop39
140
1.0
102
RTVSPost2010PropOp39
 70
     1
102
RTVSPost2010Prop40
 90
        0
102
RTVSPost2010PropOp40
 70
     1
102
RTVSPost2010Prop41ColorIndex
 90
       18
102
RTVSPost2010Prop41ColorRGB
 90
        0
102
RTVSPost2010PropOp41
 70
     1
102
RTVSPost2010Prop42
 90
       50
102
RTVSPost2010PropOp42
 70
     1
102
RTVSPost2010Prop43
 90
        3
102
RTVSPost2010PropOp43
 70
     1
102
RTVSPost2010Prop44ColorIndex
 90
        5
102
RTVSPost2010Prop44ColorRGB
 90
      255
102
RTVSPost2010PropOp44
 70
     1
102
RTVSPost2010Prop45
280
     0
102
RTVSPost2010PropOp45
 70
     1
102
RTVSPost2010Prop46
 90
       50
102
RTVSPost2010PropOp46
 70
     1
102
RTVSPost2010Prop47
 90
       50
102
RTVSPost2010PropOp47
 70
     1
102
RTVSPost2010Prop48
 90
       50
102
RTVSPost2010PropOp48
 70
     1
102
RTVSPost2010Prop49
280
     0
102
RTVSPost2010PropOp49
 70
     1
102
RTVSPost2010Prop50
 90
       50
102
RTVSPost2010PropOp50
 70
     1
102
RTVSPost2010Prop51ColorIndex
 90
      256
102
RTVSPost2010Prop51ColorRGB
 90
-16777216
102
RTVSPost2010PropOp51
 70
     0
102
RTVSPost2010Prop52
140
1.0
102
RTVSPost2010PropOp52
 70
     0
102
RTVSPost2010Prop53
 90
        2
102
RTVSPost2010PropOp53
 70
     1
102
RTVSPost2010Prop54
  1
strokes_ogs.tif
102
RTVSPost2010PropOp54
 70
     1
102
RTVSPost2010Prop55
280
     0
102
RTVSPost2010PropOp55
 70
     1
102
RTVSPost2010Prop56
140
1.0
102
RTVSPost2010PropOp56
 70
     1
102
RTVSPost2010Prop57
140
1.0
102
RTVSPost2010PropOp57
 70
     1
  0
XRECORD
  5
3D7
102
{ACAD_REACTORS
330
3D6
102
}
330
3D6
100
AcDbXrecord
280
     1
102
RTVSPropertyOp0
 70
     1
102
RTVSPropertyOp1
 70
     1
102
RTVSPropertyOp2
 70
     1
102
RTVSPropertyOp3
 70
     1
102
RTVSPropertyOp4
 70
     1
102
RTVSPropertyOp5
 70
     1
102
RTVSPropertyOp6
 70
     1
102
RTVSPropertyOp7
 70
     1
102
RTVSPropertyOp8
 70
     1
102
RTVSPropertyOp9
 70
     1
102
RTVSPropertyOp10
 70
     1
102
RTVSPropertyOp11
 70
     1
102
RTVSPropertyOp12
 70
     1
102
RTVSPropertyOp13
 70
     1
102
RTVSPropertyOp14
 70
     1
102
RTVSPropertyOp15
 70
     1
102
RTVSPropertyOp16
 70
     1
102
RTVSPropertyOp17
 70
     1
102
RTVSPropertyOp18
 70
     1
102
RTVSPropertyOp19
 70
     1
102
RTVSPropertyOp20
 70
     1
102
RTVSPropertyOp21
 70
     1
102
RTVSPropertyOp22
 70
     1
102
RTVSPropertyOp23
 70
     1
102
RTVSPropertyOp24
 70
     1
102
RTVSPropertyOp25
 70
     1
102
RTVSPropertyOp26
 70
     1
102
RTVSPropertyOp27
 70
     1
102
RTVSPropertyOp28
 70
     1
102
RTVSPropertyOp29
 70
     1
102
RTVSPropertyOp30
 70
     1
102
RTVSPropertyOp31
 70
     1
102
RTVSPropertyOp32
 70
     1
102
RTVSPropertyOp33
 70
     1
102
RTVSPropertyOp34
 70
     1
102
RTVSPropertyOp35
 70
     1
102
RTVSPropertyOp36
 70
     1
102
RTVSPropertyOp37
 70
     1
102
RTVSPropertyOp38
 70
     1
102
RTVSPropertyOp39
 70
     1
102
RTVSPropertyOp40
 70
     1
102
RTVSPropertyOp41
 70
     1
102
RTVSPropertyOp42
 70
     1
102
RTVSPropertyOp43
 70
     1
102
RTVSPropertyOp44
 70
     1
102
RTVSPropertyOp45
 70
     1
102
RTVSPropertyOp46
 70
     1
102
RTVSPropertyOp47
 70
     1
102
RTVSPropertyOp48
 70
     1
102
RTVSPropertyOp49
 70
     1
102
RTVSPropertyOp50
 70
     1
102
RTVSPropertyOp51
 70
     0
102
RTVSPropertyOp52
 70
     0
102
RTVSPropertyOp53
 70
     1
102
RTVSPropertyOp54
 70
     1
102
RTVSPropertyOp55
 70
     1
102
RTVSPropertyOp56
 70
     1
102
RTVSPropertyOp57
 70
     1
102
RTVSPost2010Prop28
280
     0
102
RTVSPost2010PropOp28
 70
     1
102
RTVSPost2010Prop29
280
     1
102
RTVSPost2010PropOp29
 70
     1
102
RTVSPost2010Prop30
280
     1
102
RTVSPost2010PropOp30
 70
     1
102
RTVSPost2010Prop31
280
     0
102
RTVSPost2010PropOp31
 70
     1
102
RTVSPost2010Prop32
280
     0
102
RTVSPost2010PropOp32
 70
     1
102
RTVSPost2010Prop33
280
     0
102
RTVSPost2010PropOp33
 70
     1
102
RTVSPost2010Prop34
280
     0
102
RTVSPost2010PropOp34
 70
     1
102
RTVSPost2010Prop35
280
     0
102
RTVSPost2010PropOp35
 70
     1
102
RTVSPost2010Prop36
280
     0
102
RTVSPost2010PropOp36
 70
     1
102
RTVSPost2010Prop37
 90
       50
102
RTVSPost2010PropOp37
 70
     1
102
RTVSPost2010Prop38
140
0.0
102
RTVSPost2010PropOp38
 70
     1
102
RTVSPost2010Prop39
140
1.0
102
RTVSPost2010PropOp39
 70
     1
102
RTVSPost2010Prop40
 90
        0
102
RTVSPost2010PropOp40
 70
     1
102
RTVSPost2010Prop41ColorIndex
 90
       18
102
RTVSPost2010Prop41ColorRGB
 90
        0
102
RTVSPost2010PropOp41
 70
     1
102
RTVSPost2010Prop42
 90
       50
102
RTVSPost2010PropOp42
 70
     1
102
RTVSPost2010Prop43
 90
        3
102
RTVSPost2010PropOp43
 70
     1
102
RTVSPost2010Prop44ColorIndex
 90
        5
102
RTVSPost2010Prop44ColorRGB
 90
      255
102
RTVSPost2010PropOp44
 70
     1
102
RTVSPost2010Prop45
280
     0
102
RTVSPost2010PropOp45
 70
     1
102
RTVSPost2010Prop46
 90
       50
102
RTVSPost2010PropOp46
 70
     1
102
RTVSPost2010Prop47
 90
       50
102
RTVSPost2010PropOp47
 70
     1
102
RTVSPost2010Prop48
 90
       50
102
RTVSPost2010PropOp48
 70
     1
102
RTVSPost2010Prop49
280
     0
102
RTVSPost2010PropOp49
 70
     1
102
RTVSPost2010Prop50
 90
       50
102
RTVSPost2010PropOp50
 70
     1
102
RTVSPost2010Prop51ColorIndex
 90
      256
102
RTVSPost2010Prop51ColorRGB
 90
-16777216
102
RTVSPost2010PropOp51
 70
     0
102
RTVSPost2010Prop52
140
1.0
102
RTVSPost2010PropOp52
 70
     0
102
RTVSPost2010Prop53
 90
        2
102
RTVSPost2010PropOp53
 70
     1
102
RTVSPost2010Prop54
  1
strokes_ogs.tif
102
RTVSPost2010PropOp54
 70
     1
102
RTVSPost2010Prop55
280
     0
102
RTVSPost2010PropOp55
 70
     1
102
RTVSPost2010Prop56
140
1.0
102
RTVSPost2010PropOp56
 70
     1
102
RTVSPost2010Prop57
140
1.0
102
RTVSPost2010PropOp57
 70
     1
  0
XRECORD
  5
3DF
102
{ACAD_REACTORS
330
3DE
102
}
330
3DE
100
AcDbXrecord
280
     1
102
RTVSPropertyOp0
 70
     1
102
RTVSPropertyOp1
 70
     1
102
RTVSPropertyOp2
 70
     1
102
RTVSPropertyOp3
 70
     1
102
RTVSPropertyOp4
 70
     1
102
RTVSPropertyOp5
 70
     1
102
RTVSPropertyOp6
 70
     1
102
RTVSPropertyOp7
 70
     1
102
RTVSPropertyOp8
 70
     1
102
RTVSPropertyOp9
 70
     1
102
RTVSPropertyOp10
 70
     1
102
RTVSPropertyOp11
 70
     1
102
RTVSPropertyOp12
 70
     1
102
RTVSPropertyOp13
 70
     1
102
RTVSPropertyOp14
 70
     1
102
RTVSPropertyOp15
 70
     1
102
RTVSPropertyOp16
 70
     1
102
RTVSPropertyOp17
 70
     1
102
RTVSPropertyOp18
 70
     1
102
RTVSPropertyOp19
 70
     1
102
RTVSPropertyOp20
 70
     1
102
RTVSPropertyOp21
 70
     1
102
RTVSPropertyOp22
 70
     1
102
RTVSPropertyOp23
 70
     1
102
RTVSPropertyOp24
 70
     1
102
RTVSPropertyOp25
 70
     1
102
RTVSPropertyOp26
 70
     1
102
RTVSPropertyOp27
 70
     1
102
RTVSPropertyOp28
 70
     1
102
RTVSPropertyOp29
 70
     1
102
RTVSPropertyOp30
 70
     1
102
RTVSPropertyOp31
 70
     1
102
RTVSPropertyOp32
 70
     1
102
RTVSPropertyOp33
 70
     1
102
RTVSPropertyOp34
 70
     1
102
RTVSPropertyOp35
 70
     1
102
RTVSPropertyOp36
 70
     1
102
RTVSPropertyOp37
 70
     1
102
RTVSPropertyOp38
 70
     1
102
RTVSPropertyOp39
 70
     1
102
RTVSPropertyOp40
 70
     1
102
RTVSPropertyOp41
 70
     1
102
RTVSPropertyOp42
 70
     1
102
RTVSPropertyOp43
 70
     1
102
RTVSPropertyOp44
 70
     1
102
RTVSPropertyOp45
 70
     1
102
RTVSPropertyOp46
 70
     1
102
RTVSPropertyOp47
 70
     1
102
RTVSPropertyOp48
 70
     1
102
RTVSPropertyOp49
 70
     1
102
RTVSPropertyOp50
 70
     1
102
RTVSPropertyOp51
 70
     0
102
RTVSPropertyOp52
 70
     0
102
RTVSPropertyOp53
 70
     1
102
RTVSPropertyOp54
 70
     1
102
RTVSPropertyOp55
 70
     1
102
RTVSPropertyOp56
 70
     1
102
RTVSPropertyOp57
 70
     1
102
RTVSPost2010Prop28
280
     0
102
RTVSPost2010PropOp28
 70
     1
102
RTVSPost2010Prop29
280
     1
102
RTVSPost2010PropOp29
 70
     1
102
RTVSPost2010Prop30
280
     1
102
RTVSPost2010PropOp30
 70
     1
102
RTVSPost2010Prop31
280
     0
102
RTVSPost2010PropOp31
 70
     1
102
RTVSPost2010Prop32
280
     0
102
RTVSPost2010PropOp32
 70
     1
102
RTVSPost2010Prop33
280
     0
102
RTVSPost2010PropOp33
 70
     1
102
RTVSPost2010Prop34
280
     0
102
RTVSPost2010PropOp34
 70
     1
102
RTVSPost2010Prop35
280
     0
102
RTVSPost2010PropOp35
 70
     1
102
RTVSPost2010Prop36
280
     0
102
RTVSPost2010PropOp36
 70
     1
102
RTVSPost2010Prop37
 90
       50
102
RTVSPost2010PropOp37
 70
     1
102
RTVSPost2010Prop38
140
0.0
102
RTVSPost2010PropOp38
 70
     1
102
RTVSPost2010Prop39
140
1.0
102
RTVSPost2010PropOp39
 70
     1
102
RTVSPost2010Prop40
 90
        0
102
RTVSPost2010PropOp40
 70
     1
102
RTVSPost2010Prop41ColorIndex
 90
       18
102
RTVSPost2010Prop41ColorRGB
 90
        0
102
RTVSPost2010PropOp41
 70
     1
102
RTVSPost2010Prop42
 90
       50
102
RTVSPost2010PropOp42
 70
     1
102
RTVSPost2010Prop43
 90
        3
102
RTVSPost2010PropOp43
 70
     1
102
RTVSPost2010Prop44ColorIndex
 90
        5
102
RTVSPost2010Prop44ColorRGB
 90
      255
102
RTVSPost2010PropOp44
 70
     1
102
RTVSPost2010Prop45
280
     0
102
RTVSPost2010PropOp45
 70
     1
102
RTVSPost2010Prop46
 90
       50
102
RTVSPost2010PropOp46
 70
     1
102
RTVSPost2010Prop47
 90
       50
102
RTVSPost2010PropOp47
 70
     1
102
RTVSPost2010Prop48
 90
       50
102
RTVSPost2010PropOp48
 70
     1
102
RTVSPost2010Prop49
280
     0
102
RTVSPost2010PropOp49
 70
     1
102
RTVSPost2010Prop50
 90
       50
102
RTVSPost2010PropOp50
 70
     1
102
RTVSPost2010Prop51ColorIndex
 90
      256
102
RTVSPost2010Prop51ColorRGB
 90
-16777216
102
RTVSPost2010PropOp51
 70
     0
102
RTVSPost2010Prop52
140
1.0
102
RTVSPost2010PropOp52
 70
     0
102
RTVSPost2010Prop53
 90
        2
102
RTVSPost2010PropOp53
 70
     1
102
RTVSPost2010Prop54
  1
strokes_ogs.tif
102
RTVSPost2010PropOp54
 70
     1
102
RTVSPost2010Prop55
280
     0
102
RTVSPost2010PropOp55
 70
     1
102
RTVSPost2010Prop56
140
1.0
102
RTVSPost2010PropOp56
 70
     1
102
RTVSPost2010Prop57
140
1.0
102
RTVSPost2010PropOp57
 70
     1
  0
XRECORD
  5
3E7
102
{ACAD_REACTORS
330
3E6
102
}
330
3E6
100
AcDbXrecord
280
     1
102
RTVSPropertyOp0
 70
     1
102
RTVSPropertyOp1
 70
     1
102
RTVSPropertyOp2
 70
     1
102
RTVSPropertyOp3
 70
     1
102
RTVSPropertyOp4
 70
     1
102
RTVSPropertyOp5
 70
     1
102
RTVSPropertyOp6
 70
     1
102
RTVSPropertyOp7
 70
     1
102
RTVSPropertyOp8
 70
     1
102
RTVSPropertyOp9
 70
     1
102
RTVSPropertyOp10
 70
     1
102
RTVSPropertyOp11
 70
     1
102
RTVSPropertyOp12
 70
     1
102
RTVSPropertyOp13
 70
     1
102
RTVSPropertyOp14
 70
     1
102
RTVSPropertyOp15
 70
     1
102
RTVSPropertyOp16
 70
     1
102
RTVSPropertyOp17
 70
     1
102
RTVSPropertyOp18
 70
     1
102
RTVSPropertyOp19
 70
     1
102
RTVSPropertyOp20
 70
     1
102
RTVSPropertyOp21
 70
     1
102
RTVSPropertyOp22
 70
     1
102
RTVSPropertyOp23
 70
     1
102
RTVSPropertyOp24
 70
     1
102
RTVSPropertyOp25
 70
     1
102
RTVSPropertyOp26
 70
     1
102
RTVSPropertyOp27
 70
     1
102
RTVSPropertyOp28
 70
     1
102
RTVSPropertyOp29
 70
     1
102
RTVSPropertyOp30
 70
     1
102
RTVSPropertyOp31
 70
     1
102
RTVSPropertyOp32
 70
     1
102
RTVSPropertyOp33
 70
     1
102
RTVSPropertyOp34
 70
     1
102
RTVSPropertyOp35
 70
     1
102
RTVSPropertyOp36
 70
     1
102
RTVSPropertyOp37
 70
     1
102
RTVSPropertyOp38
 70
     1
102
RTVSPropertyOp39
 70
     1
102
RTVSPropertyOp40
 70
     1
102
RTVSPropertyOp41
 70
     1
102
RTVSPropertyOp42
 70
     1
102
RTVSPropertyOp43
 70
     1
102
RTVSPropertyOp44
 70
     1
102
RTVSPropertyOp45
 70
     1
102
RTVSPropertyOp46
 70
     1
102
RTVSPropertyOp47
 70
     1
102
RTVSPropertyOp48
 70
     1
102
RTVSPropertyOp49
 70
     1
102
RTVSPropertyOp50
 70
     1
102
RTVSPropertyOp51
 70
     0
102
RTVSPropertyOp52
 70
     0
102
RTVSPropertyOp53
 70
     1
102
RTVSPropertyOp54
 70
     1
102
RTVSPropertyOp55
 70
     1
102
RTVSPropertyOp56
 70
     1
102
RTVSPropertyOp57
 70
     1
102
RTVSPost2010Prop28
280
     0
102
RTVSPost2010PropOp28
 70
     1
102
RTVSPost2010Prop29
280
     1
102
RTVSPost2010PropOp29
 70
     1
102
RTVSPost2010Prop30
280
     1
102
RTVSPost2010PropOp30
 70
     1
102
RTVSPost2010Prop31
280
     0
102
RTVSPost2010PropOp31
 70
     1
102
RTVSPost2010Prop32
280
     0
102
RTVSPost2010PropOp32
 70
     1
102
RTVSPost2010Prop33
280
     0
102
RTVSPost2010PropOp33
 70
     1
102
RTVSPost2010Prop34
280
     0
102
RTVSPost2010PropOp34
 70
     1
102
RTVSPost2010Prop35
280
     0
102
RTVSPost2010PropOp35
 70
     1
102
RTVSPost2010Prop36
280
     0
102
RTVSPost2010PropOp36
 70
     1
102
RTVSPost2010Prop37
 90
       50
102
RTVSPost2010PropOp37
 70
     1
102
RTVSPost2010Prop38
140
0.0
102
RTVSPost2010PropOp38
 70
     1
102
RTVSPost2010Prop39
140
1.0
102
RTVSPost2010PropOp39
 70
     1
102
RTVSPost2010Prop40
 90
        0
102
RTVSPost2010PropOp40
 70
     1
102
RTVSPost2010Prop41ColorIndex
 90
       18
102
RTVSPost2010Prop41ColorRGB
 90
        0
102
RTVSPost2010PropOp41
 70
     1
102
RTVSPost2010Prop42
 90
       50
102
RTVSPost2010PropOp42
 70
     1
102
RTVSPost2010Prop43
 90
        3
102
RTVSPost2010PropOp43
 70
     1
102
RTVSPost2010Prop44ColorIndex
 90
        5
102
RTVSPost2010Prop44ColorRGB
 90
      255
102
RTVSPost2010PropOp44
 70
     1
102
RTVSPost2010Prop45
280
     0
102
RTVSPost2010PropOp45
 70
     1
102
RTVSPost2010Prop46
 90
       50
102
RTVSPost2010PropOp46
 70
     1
102
RTVSPost2010Prop47
 90
       50
102
RTVSPost2010PropOp47
 70
     1
102
RTVSPost2010Prop48
 90
       50
102
RTVSPost2010PropOp48
 70
     1
102
RTVSPost2010Prop49
280
     0
102
RTVSPost2010PropOp49
 70
     1
102
RTVSPost2010Prop50
 90
       50
102
RTVSPost2010PropOp50
 70
     1
102
RTVSPost2010Prop51ColorIndex
 90
      256
102
RTVSPost2010Prop51ColorRGB
 90
-16777216
102
RTVSPost2010PropOp51
 70
     0
102
RTVSPost2010Prop52
140
1.0
102
RTVSPost2010PropOp52
 70
     0
102
RTVSPost2010Prop53
 90
        2
102
RTVSPost2010PropOp53
 70
     1
102
RTVSPost2010Prop54
  1
strokes_ogs.tif
102
RTVSPost2010PropOp54
 70
     1
102
RTVSPost2010Prop55
280
     0
102
RTVSPost2010PropOp55
 70
     1
102
RTVSPost2010Prop56
140
1.0
102
RTVSPost2010PropOp56
 70
     1
102
RTVSPost2010Prop57
140
1.0
102
RTVSPost2010PropOp57
 70
     1
  0
XRECORD
  5
3DB
102
{ACAD_REACTORS
330
3DA
102
}
330
3DA
100
AcDbXrecord
280
     1
102
RTVSPropertyOp0
 70
     1
102
RTVSPropertyOp1
 70
     1
102
RTVSPropertyOp2
 70
     1
102
RTVSPropertyOp3
 70
     1
102
RTVSPropertyOp4
 70
     1
102
RTVSPropertyOp5
 70
     1
102
RTVSPropertyOp6
 70
     1
102
RTVSPropertyOp7
 70
     1
102
RTVSPropertyOp8
 70
     1
102
RTVSPropertyOp9
 70
     1
102
RTVSPropertyOp10
 70
     1
102
RTVSPropertyOp11
 70
     1
102
RTVSPropertyOp12
 70
     1
102
RTVSPropertyOp13
 70
     1
102
RTVSPropertyOp14
 70
     1
102
RTVSPropertyOp15
 70
     1
102
RTVSPropertyOp16
 70
     1
102
RTVSPropertyOp17
 70
     1
102
RTVSPropertyOp18
 70
     1
102
RTVSPropertyOp19
 70
     1
102
RTVSPropertyOp20
 70
     1
102
RTVSPropertyOp21
 70
     1
102
RTVSPropertyOp22
 70
     1
102
RTVSPropertyOp23
 70
     1
102
RTVSPropertyOp24
 70
     1
102
RTVSPropertyOp25
 70
     1
102
RTVSPropertyOp26
 70
     1
102
RTVSPropertyOp27
 70
     1
102
RTVSPropertyOp28
 70
     1
102
RTVSPropertyOp29
 70
     1
102
RTVSPropertyOp30
 70
     1
102
RTVSPropertyOp31
 70
     1
102
RTVSPropertyOp32
 70
     1
102
RTVSPropertyOp33
 70
     1
102
RTVSPropertyOp34
 70
     1
102
RTVSPropertyOp35
 70
     1
102
RTVSPropertyOp36
 70
     1
102
RTVSPropertyOp37
 70
     1
102
RTVSPropertyOp38
 70
     1
102
RTVSPropertyOp39
 70
     1
102
RTVSPropertyOp40
 70
     1
102
RTVSPropertyOp41
 70
     1
102
RTVSPropertyOp42
 70
     1
102
RTVSPropertyOp43
 70
     1
102
RTVSPropertyOp44
 70
     1
102
RTVSPropertyOp45
 70
     1
102
RTVSPropertyOp46
 70
     1
102
RTVSPropertyOp47
 70
     1
102
RTVSPropertyOp48
 70
     1
102
RTVSPropertyOp49
 70
     1
102
RTVSPropertyOp50
 70
     1
102
RTVSPropertyOp51
 70
     0
102
RTVSPropertyOp52
 70
     0
102
RTVSPropertyOp53
 70
     1
102
RTVSPropertyOp54
 70
     1
102
RTVSPropertyOp55
 70
     1
102
RTVSPropertyOp56
 70
     1
102
RTVSPropertyOp57
 70
     1
102
RTVSPost2010Prop28
280
     0
102
RTVSPost2010PropOp28
 70
     1
102
RTVSPost2010Prop29
280
     1
102
RTVSPost2010PropOp29
 70
     1
102
RTVSPost2010Prop30
280
     1
102
RTVSPost2010PropOp30
 70
     1
102
RTVSPost2010Prop31
280
     0
102
RTVSPost2010PropOp31
 70
     1
102
RTVSPost2010Prop32
280
     0
102
RTVSPost2010PropOp32
 70
     1
102
RTVSPost2010Prop33
280
     0
102
RTVSPost2010PropOp33
 70
     1
102
RTVSPost2010Prop34
280
     0
102
RTVSPost2010PropOp34
 70
     1
102
RTVSPost2010Prop35
280
     0
102
RTVSPost2010PropOp35
 70
     1
102
RTVSPost2010Prop36
280
     0
102
RTVSPost2010PropOp36
 70
     1
102
RTVSPost2010Prop37
 90
       50
102
RTVSPost2010PropOp37
 70
     1
102
RTVSPost2010Prop38
140
0.0
102
RTVSPost2010PropOp38
 70
     1
102
RTVSPost2010Prop39
140
1.0
102
RTVSPost2010PropOp39
 70
     1
102
RTVSPost2010Prop40
 90
        0
102
RTVSPost2010PropOp40
 70
     1
102
RTVSPost2010Prop41ColorIndex
 90
       18
102
RTVSPost2010Prop41ColorRGB
 90
        0
102
RTVSPost2010PropOp41
 70
     1
102
RTVSPost2010Prop42
 90
       50
102
RTVSPost2010PropOp42
 70
     1
102
RTVSPost2010Prop43
 90
        3
102
RTVSPost2010PropOp43
 70
     1
102
RTVSPost2010Prop44ColorIndex
 90
        5
102
RTVSPost2010Prop44ColorRGB
 90
      255
102
RTVSPost2010PropOp44
 70
     1
102
RTVSPost2010Prop45
280
     0
102
RTVSPost2010PropOp45
 70
     1
102
RTVSPost2010Prop46
 90
       50
102
RTVSPost2010PropOp46
 70
     1
102
RTVSPost2010Prop47
 90
       50
102
RTVSPost2010PropOp47
 70
     1
102
RTVSPost2010Prop48
 90
       50
102
RTVSPost2010PropOp48
 70
     1
102
RTVSPost2010Prop49
280
     0
102
RTVSPost2010PropOp49
 70
     1
102
RTVSPost2010Prop50
 90
       50
102
RTVSPost2010PropOp50
 70
     1
102
RTVSPost2010Prop51ColorIndex
 90
      256
102
RTVSPost2010Prop51ColorRGB
 90
-16777216
102
RTVSPost2010PropOp51
 70
     0
102
RTVSPost2010Prop52
140
1.0
102
RTVSPost2010PropOp52
 70
     0
102
RTVSPost2010Prop53
 90
        2
102
RTVSPost2010PropOp53
 70
     1
102
RTVSPost2010Prop54
  1
strokes_ogs.tif
102
RTVSPost2010PropOp54
 70
     1
102
RTVSPost2010Prop55
280
     0
102
RTVSPost2010PropOp55
 70
     1
102
RTVSPost2010Prop56
140
1.0
102
RTVSPost2010PropOp56
 70
     1
102
RTVSPost2010Prop57
140
1.0
102
RTVSPost2010PropOp57
 70
     1
  0
XRECORD
  5
3DD
102
{ACAD_REACTORS
330
3DC
102
}
330
3DC
100
AcDbXrecord
280
     1
102
RTVSPropertyOp0
 70
     1
102
RTVSPropertyOp1
 70
     1
102
RTVSPropertyOp2
 70
     1
102
RTVSPropertyOp3
 70
     1
102
RTVSPropertyOp4
 70
     1
102
RTVSPropertyOp5
 70
     1
102
RTVSPropertyOp6
 70
     1
102
RTVSPropertyOp7
 70
     1
102
RTVSPropertyOp8
 70
     1
102
RTVSPropertyOp9
 70
     1
102
RTVSPropertyOp10
 70
     1
102
RTVSPropertyOp11
 70
     1
102
RTVSPropertyOp12
 70
     1
102
RTVSPropertyOp13
 70
     1
102
RTVSPropertyOp14
 70
     1
102
RTVSPropertyOp15
 70
     1
102
RTVSPropertyOp16
 70
     1
102
RTVSPropertyOp17
 70
     1
102
RTVSPropertyOp18
 70
     1
102
RTVSPropertyOp19
 70
     1
102
RTVSPropertyOp20
 70
     1
102
RTVSPropertyOp21
 70
     1
102
RTVSPropertyOp22
 70
     1
102
RTVSPropertyOp23
 70
     1
102
RTVSPropertyOp24
 70
     1
102
RTVSPropertyOp25
 70
     1
102
RTVSPropertyOp26
 70
     1
102
RTVSPropertyOp27
 70
     1
102
RTVSPropertyOp28
 70
     1
102
RTVSPropertyOp29
 70
     1
102
RTVSPropertyOp30
 70
     1
102
RTVSPropertyOp31
 70
     1
102
RTVSPropertyOp32
 70
     1
102
RTVSPropertyOp33
 70
     1
102
RTVSPropertyOp34
 70
     1
102
RTVSPropertyOp35
 70
     1
102
RTVSPropertyOp36
 70
     1
102
RTVSPropertyOp37
 70
     1
102
RTVSPropertyOp38
 70
     1
102
RTVSPropertyOp39
 70
     1
102
RTVSPropertyOp40
 70
     1
102
RTVSPropertyOp41
 70
     1
102
RTVSPropertyOp42
 70
     1
102
RTVSPropertyOp43
 70
     1
102
RTVSPropertyOp44
 70
     1
102
RTVSPropertyOp45
 70
     1
102
RTVSPropertyOp46
 70
     1
102
RTVSPropertyOp47
 70
     1
102
RTVSPropertyOp48
 70
     1
102
RTVSPropertyOp49
 70
     1
102
RTVSPropertyOp50
 70
     1
102
RTVSPropertyOp51
 70
     0
102
RTVSPropertyOp52
 70
     0
102
RTVSPropertyOp53
 70
     1
102
RTVSPropertyOp54
 70
     1
102
RTVSPropertyOp55
 70
     1
102
RTVSPropertyOp56
 70
     1
102
RTVSPropertyOp57
 70
     1
102
RTVSPost2010Prop28
280
     0
102
RTVSPost2010PropOp28
 70
     1
102
RTVSPost2010Prop29
280
     1
102
RTVSPost2010PropOp29
 70
     1
102
RTVSPost2010Prop30
280
     1
102
RTVSPost2010PropOp30
 70
     1
102
RTVSPost2010Prop31
280
     0
102
RTVSPost2010PropOp31
 70
     1
102
RTVSPost2010Prop32
280
     0
102
RTVSPost2010PropOp32
 70
     1
102
RTVSPost2010Prop33
280
     0
102
RTVSPost2010PropOp33
 70
     1
102
RTVSPost2010Prop34
280
     0
102
RTVSPost2010PropOp34
 70
     1
102
RTVSPost2010Prop35
280
     0
102
RTVSPost2010PropOp35
 70
     1
102
RTVSPost2010Prop36
280
     0
102
RTVSPost2010PropOp36
 70
     1
102
RTVSPost2010Prop37
 90
       50
102
RTVSPost2010PropOp37
 70
     1
102
RTVSPost2010Prop38
140
0.0
102
RTVSPost2010PropOp38
 70
     1
102
RTVSPost2010Prop39
140
1.0
102
RTVSPost2010PropOp39
 70
     1
102
RTVSPost2010Prop40
 90
        0
102
RTVSPost2010PropOp40
 70
     1
102
RTVSPost2010Prop41ColorIndex
 90
       18
102
RTVSPost2010Prop41ColorRGB
 90
        0
102
RTVSPost2010PropOp41
 70
     1
102
RTVSPost2010Prop42
 90
       50
102
RTVSPost2010PropOp42
 70
     1
102
RTVSPost2010Prop43
 90
        3
102
RTVSPost2010PropOp43
 70
     1
102
RTVSPost2010Prop44ColorIndex
 90
        5
102
RTVSPost2010Prop44ColorRGB
 90
      255
102
RTVSPost2010PropOp44
 70
     1
102
RTVSPost2010Prop45
280
     0
102
RTVSPost2010PropOp45
 70
     1
102
RTVSPost2010Prop46
 90
       50
102
RTVSPost2010PropOp46
 70
     1
102
RTVSPost2010Prop47
 90
       50
102
RTVSPost2010PropOp47
 70
     1
102
RTVSPost2010Prop48
 90
       50
102
RTVSPost2010PropOp48
 70
     1
102
RTVSPost2010Prop49
280
     0
102
RTVSPost2010PropOp49
 70
     1
102
RTVSPost2010Prop50
 90
       50
102
RTVSPost2010PropOp50
 70
     1
102
RTVSPost2010Prop51ColorIndex
 90
      256
102
RTVSPost2010Prop51ColorRGB
 90
-16777216
102
RTVSPost2010PropOp51
 70
     0
102
RTVSPost2010Prop52
140
1.0
102
RTVSPost2010PropOp52
 70
     0
102
RTVSPost2010Prop53
 90
        2
102
RTVSPost2010PropOp53
 70
     1
102
RTVSPost2010Prop54
  1
strokes_ogs.tif
102
RTVSPost2010PropOp54
 70
     1
102
RTVSPost2010Prop55
280
     0
102
RTVSPost2010PropOp55
 70
     1
102
RTVSPost2010Prop56
140
1.0
102
RTVSPost2010PropOp56
 70
     1
102
RTVSPost2010Prop57
140
1.0
102
RTVSPost2010PropOp57
 70
     1
  0
XRECORD
  5
3ED
102
{ACAD_REACTORS
330
3EC
102
}
330
3EC
100
AcDbXrecord
280
     1
102
RTVSPropertyOp0
 70
     0
102
RTVSPropertyOp1
 70
     0
102
RTVSPropertyOp2
 70
     0
102
RTVSPropertyOp3
 70
     0
102
RTVSPropertyOp4
 70
     0
102
RTVSPropertyOp5
 70
     0
102
RTVSPropertyOp6
 70
     0
102
RTVSPropertyOp7
 70
     0
102
RTVSPropertyOp8
 70
     0
102
RTVSPropertyOp9
 70
     0
102
RTVSPropertyOp10
 70
     0
102
RTVSPropertyOp11
 70
     0
102
RTVSPropertyOp12
 70
     0
102
RTVSPropertyOp13
 70
     0
102
RTVSPropertyOp14
 70
     2
102
RTVSPropertyOp15
 70
     0
102
RTVSPropertyOp16
 70
     0
102
RTVSPropertyOp17
 70
     0
102
RTVSPropertyOp18
 70
     0
102
RTVSPropertyOp19
 70
     0
102
RTVSPropertyOp20
 70
     0
102
RTVSPropertyOp21
 70
     0
102
RTVSPropertyOp22
 70
     0
102
RTVSPropertyOp23
 70
     0
102
RTVSPropertyOp24
 70
     0
102
RTVSPropertyOp25
 70
     0
102
RTVSPropertyOp26
 70
     0
102
RTVSPropertyOp27
 70
     0
102
RTVSPropertyOp28
 70
     0
102
RTVSPropertyOp29
 70
     0
102
RTVSPropertyOp30
 70
     0
102
RTVSPropertyOp31
 70
     0
102
RTVSPropertyOp32
 70
     0
102
RTVSPropertyOp33
 70
     0
102
RTVSPropertyOp34
 70
     0
102
RTVSPropertyOp35
 70
     0
102
RTVSPropertyOp36
 70
     0
102
RTVSPropertyOp37
 70
     0
102
RTVSPropertyOp38
 70
     0
102
RTVSPropertyOp39
 70
     0
102
RTVSPropertyOp40
 70
     0
102
RTVSPropertyOp41
 70
     0
102
RTVSPropertyOp42
 70
     0
102
RTVSPropertyOp43
 70
     0
102
RTVSPropertyOp44
 70
     0
102
RTVSPropertyOp45
 70
     0
102
RTVSPropertyOp46
 70
     0
102
RTVSPropertyOp47
 70
     0
102
RTVSPropertyOp48
 70
     0
102
RTVSPropertyOp49
 70
     0
102
RTVSPropertyOp50
 70
     0
102
RTVSPropertyOp51
 70
     0
102
RTVSPropertyOp52
 70
     0
102
RTVSPropertyOp53
 70
     0
102
RTVSPropertyOp54
 70
     0
102
RTVSPropertyOp55
 70
     0
102
RTVSPropertyOp56
 70
     0
102
RTVSPropertyOp57
 70
     0
102
RTVSPost2010Prop28
280
     0
102
RTVSPost2010PropOp28
 70
     0
102
RTVSPost2010Prop29
280
     1
102
RTVSPost2010PropOp29
 70
     0
102
RTVSPost2010Prop30
280
     1
102
RTVSPost2010PropOp30
 70
     0
102
RTVSPost2010Prop31
280
     0
102
RTVSPost2010PropOp31
 70
     0
102
RTVSPost2010Prop32
280
     0
102
RTVSPost2010PropOp32
 70
     0
102
RTVSPost2010Prop33
280
     0
102
RTVSPost2010PropOp33
 70
     0
102
RTVSPost2010Prop34
280
     0
102
RTVSPost2010PropOp34
 70
     0
102
RTVSPost2010Prop35
280
     0
102
RTVSPost2010PropOp35
 70
     0
102
RTVSPost2010Prop36
280
     0
102
RTVSPost2010PropOp36
 70
     0
102
RTVSPost2010Prop37
 90
       50
102
RTVSPost2010PropOp37
 70
     0
102
RTVSPost2010Prop38
140
0.0
102
RTVSPost2010PropOp38
 70
     0
102
RTVSPost2010Prop39
140
1.0
102
RTVSPost2010PropOp39
 70
     0
102
RTVSPost2010Prop40
 90
        0
102
RTVSPost2010PropOp40
 70
     0
102
RTVSPost2010Prop41ColorIndex
 90
       18
102
RTVSPost2010Prop41ColorRGB
 90
        0
102
RTVSPost2010PropOp41
 70
     0
102
RTVSPost2010Prop42
 90
       50
102
RTVSPost2010PropOp42
 70
     0
102
RTVSPost2010Prop43
 90
        3
102
RTVSPost2010PropOp43
 70
     0
102
RTVSPost2010Prop44ColorIndex
 90
        5
102
RTVSPost2010Prop44ColorRGB
 90
      255
102
RTVSPost2010PropOp44
 70
     0
102
RTVSPost2010Prop45
280
     0
102
RTVSPost2010PropOp45
 70
     0
102
RTVSPost2010Prop46
 90
       50
102
RTVSPost2010PropOp46
 70
     0
102
RTVSPost2010Prop47
 90
       50
102
RTVSPost2010PropOp47
 70
     0
102
RTVSPost2010Prop48
 90
       50
102
RTVSPost2010PropOp48
 70
     0
102
RTVSPost2010Prop49
280
     0
102
RTVSPost2010PropOp49
 70
     0
102
RTVSPost2010Prop50
 90
       50
102
RTVSPost2010PropOp50
 70
     0
102
RTVSPost2010Prop51ColorIndex
 90
      256
102
RTVSPost2010Prop51ColorRGB
 90
-16777216
102
RTVSPost2010PropOp51
 70
     0
102
RTVSPost2010Prop52
140
1.0
102
RTVSPost2010PropOp52
 70
     0
102
RTVSPost2010Prop53
 90
        2
102
RTVSPost2010PropOp53
 70
     0
102
RTVSPost2010Prop54
  1
strokes_ogs.tif
102
RTVSPost2010PropOp54
 70
     0
102
RTVSPost2010Prop55
280
     0
102
RTVSPost2010PropOp55
 70
     0
102
RTVSPost2010Prop56
140
1.0
102
RTVSPost2010PropOp56
 70
     0
102
RTVSPost2010Prop57
140
1.0
102
RTVSPost2010PropOp57
 70
     0
  0
XRECORD
  5
3E5
102
{ACAD_REACTORS
330
3E4
102
}
330
3E4
100
AcDbXrecord
280
     1
102
RTVSPropertyOp0
 70
     1
102
RTVSPropertyOp1
 70
     1
102
RTVSPropertyOp2
 70
     1
102
RTVSPropertyOp3
 70
     1
102
RTVSPropertyOp4
 70
     1
102
RTVSPropertyOp5
 70
     1
102
RTVSPropertyOp6
 70
     1
102
RTVSPropertyOp7
 70
     1
102
RTVSPropertyOp8
 70
     1
102
RTVSPropertyOp9
 70
     1
102
RTVSPropertyOp10
 70
     1
102
RTVSPropertyOp11
 70
     1
102
RTVSPropertyOp12
 70
     1
102
RTVSPropertyOp13
 70
     1
102
RTVSPropertyOp14
 70
     1
102
RTVSPropertyOp15
 70
     1
102
RTVSPropertyOp16
 70
     1
102
RTVSPropertyOp17
 70
     1
102
RTVSPropertyOp18
 70
     1
102
RTVSPropertyOp19
 70
     1
102
RTVSPropertyOp20
 70
     1
102
RTVSPropertyOp21
 70
     1
102
RTVSPropertyOp22
 70
     1
102
RTVSPropertyOp23
 70
     1
102
RTVSPropertyOp24
 70
     1
102
RTVSPropertyOp25
 70
     1
102
RTVSPropertyOp26
 70
     1
102
RTVSPropertyOp27
 70
     1
102
RTVSPropertyOp28
 70
     1
102
RTVSPropertyOp29
 70
     1
102
RTVSPropertyOp30
 70
     1
102
RTVSPropertyOp31
 70
     1
102
RTVSPropertyOp32
 70
     1
102
RTVSPropertyOp33
 70
     1
102
RTVSPropertyOp34
 70
     1
102
RTVSPropertyOp35
 70
     1
102
RTVSPropertyOp36
 70
     1
102
RTVSPropertyOp37
 70
     1
102
RTVSPropertyOp38
 70
     1
102
RTVSPropertyOp39
 70
     1
102
RTVSPropertyOp40
 70
     1
102
RTVSPropertyOp41
 70
     1
102
RTVSPropertyOp42
 70
     1
102
RTVSPropertyOp43
 70
     1
102
RTVSPropertyOp44
 70
     1
102
RTVSPropertyOp45
 70
     1
102
RTVSPropertyOp46
 70
     1
102
RTVSPropertyOp47
 70
     1
102
RTVSPropertyOp48
 70
     1
102
RTVSPropertyOp49
 70
     1
102
RTVSPropertyOp50
 70
     1
102
RTVSPropertyOp51
 70
     0
102
RTVSPropertyOp52
 70
     0
102
RTVSPropertyOp53
 70
     1
102
RTVSPropertyOp54
 70
     1
102
RTVSPropertyOp55
 70
     1
102
RTVSPropertyOp56
 70
     1
102
RTVSPropertyOp57
 70
     1
102
RTVSPost2010Prop28
280
     0
102
RTVSPost2010PropOp28
 70
     1
102
RTVSPost2010Prop29
280
     1
102
RTVSPost2010PropOp29
 70
     1
102
RTVSPost2010Prop30
280
     1
102
RTVSPost2010PropOp30
 70
     1
102
RTVSPost2010Prop31
280
     0
102
RTVSPost2010PropOp31
 70
     1
102
RTVSPost2010Prop32
280
     0
102
RTVSPost2010PropOp32
 70
     1
102
RTVSPost2010Prop33
280
     0
102
RTVSPost2010PropOp33
 70
     1
102
RTVSPost2010Prop34
280
     0
102
RTVSPost2010PropOp34
 70
     1
102
RTVSPost2010Prop35
280
     0
102
RTVSPost2010PropOp35
 70
     1
102
RTVSPost2010Prop36
280
     0
102
RTVSPost2010PropOp36
 70
     1
102
RTVSPost2010Prop37
 90
       50
102
RTVSPost2010PropOp37
 70
     1
102
RTVSPost2010Prop38
140
0.0
102
RTVSPost2010PropOp38
 70
     1
102
RTVSPost2010Prop39
140
1.0
102
RTVSPost2010PropOp39
 70
     1
102
RTVSPost2010Prop40
 90
        0
102
RTVSPost2010PropOp40
 70
     1
102
RTVSPost2010Prop41ColorIndex
 90
       18
102
RTVSPost2010Prop41ColorRGB
 90
        0
102
RTVSPost2010PropOp41
 70
     1
102
RTVSPost2010Prop42
 90
       50
102
RTVSPost2010PropOp42
 70
     1
102
RTVSPost2010Prop43
 90
        3
102
RTVSPost2010PropOp43
 70
     1
102
RTVSPost2010Prop44ColorIndex
 90
        5
102
RTVSPost2010Prop44ColorRGB
 90
      255
102
RTVSPost2010PropOp44
 70
     1
102
RTVSPost2010Prop45
280
     0
102
RTVSPost2010PropOp45
 70
     1
102
RTVSPost2010Prop46
 90
       50
102
RTVSPost2010PropOp46
 70
     1
102
RTVSPost2010Prop47
 90
       50
102
RTVSPost2010PropOp47
 70
     1
102
RTVSPost2010Prop48
 90
       50
102
RTVSPost2010PropOp48
 70
     1
102
RTVSPost2010Prop49
280
     0
102
RTVSPost2010PropOp49
 70
     1
102
RTVSPost2010Prop50
 90
       50
102
RTVSPost2010PropOp50
 70
     1
102
RTVSPost2010Prop51ColorIndex
 90
      256
102
RTVSPost2010Prop51ColorRGB
 90
-16777216
102
RTVSPost2010PropOp51
 70
     0
102
RTVSPost2010Prop52
140
1.0
102
RTVSPost2010PropOp52
 70
     0
102
RTVSPost2010Prop53
 90
        2
102
RTVSPost2010PropOp53
 70
     1
102
RTVSPost2010Prop54
  1
strokes_ogs.tif
102
RTVSPost2010PropOp54
 70
     1
102
RTVSPost2010Prop55
280
     0
102
RTVSPost2010PropOp55
 70
     1
102
RTVSPost2010Prop56
140
1.0
102
RTVSPost2010PropOp56
 70
     1
102
RTVSPost2010Prop57
140
1.0
102
RTVSPost2010PropOp57
 70
     1
  0
XRECORD
  5
3C9
102
{ACAD_REACTORS
330
3C8
102
}
330
3C8
100
AcDbXrecord
280
     1
102
RTVSPropertyOp0
 70
     1
102
RTVSPropertyOp1
 70
     1
102
RTVSPropertyOp2
 70
     1
102
RTVSPropertyOp3
 70
     1
102
RTVSPropertyOp4
 70
     1
102
RTVSPropertyOp5
 70
     1
102
RTVSPropertyOp6
 70
     1
102
RTVSPropertyOp7
 70
     1
102
RTVSPropertyOp8
 70
     1
102
RTVSPropertyOp9
 70
     1
102
RTVSPropertyOp10
 70
     1
102
RTVSPropertyOp11
 70
     1
102
RTVSPropertyOp12
 70
     1
102
RTVSPropertyOp13
 70
     1
102
RTVSPropertyOp14
 70
     1
102
RTVSPropertyOp15
 70
     1
102
RTVSPropertyOp16
 70
     1
102
RTVSPropertyOp17
 70
     1
102
RTVSPropertyOp18
 70
     1
102
RTVSPropertyOp19
 70
     1
102
RTVSPropertyOp20
 70
     1
102
RTVSPropertyOp21
 70
     1
102
RTVSPropertyOp22
 70
     1
102
RTVSPropertyOp23
 70
     1
102
RTVSPropertyOp24
 70
     1
102
RTVSPropertyOp25
 70
     1
102
RTVSPropertyOp26
 70
     1
102
RTVSPropertyOp27
 70
     1
102
RTVSPropertyOp28
 70
     1
102
RTVSPropertyOp29
 70
     1
102
RTVSPropertyOp30
 70
     1
102
RTVSPropertyOp31
 70
     1
102
RTVSPropertyOp32
 70
     1
102
RTVSPropertyOp33
 70
     1
102
RTVSPropertyOp34
 70
     1
102
RTVSPropertyOp35
 70
     1
102
RTVSPropertyOp36
 70
     1
102
RTVSPropertyOp37
 70
     1
102
RTVSPropertyOp38
 70
     1
102
RTVSPropertyOp39
 70
     1
102
RTVSPropertyOp40
 70
     1
102
RTVSPropertyOp41
 70
     1
102
RTVSPropertyOp42
 70
     1
102
RTVSPropertyOp43
 70
     1
102
RTVSPropertyOp44
 70
     1
102
RTVSPropertyOp45
 70
     1
102
RTVSPropertyOp46
 70
     1
102
RTVSPropertyOp47
 70
     1
102
RTVSPropertyOp48
 70
     1
102
RTVSPropertyOp49
 70
     1
102
RTVSPropertyOp50
 70
     1
102
RTVSPropertyOp51
 70
     0
102
RTVSPropertyOp52
 70
     0
102
RTVSPropertyOp53
 70
     1
102
RTVSPropertyOp54
 70
     1
102
RTVSPropertyOp55
 70
     1
102
RTVSPropertyOp56
 70
     1
102
RTVSPropertyOp57
 70
     1
102
RTVSPost2010Prop28
280
     0
102
RTVSPost2010PropOp28
 70
     1
102
RTVSPost2010Prop29
280
     1
102
RTVSPost2010PropOp29
 70
     1
102
RTVSPost2010Prop30
280
     1
102
RTVSPost2010PropOp30
 70
     1
102
RTVSPost2010Prop31
280
     0
102
RTVSPost2010PropOp31
 70
     1
102
RTVSPost2010Prop32
280
     0
102
RTVSPost2010PropOp32
 70
     1
102
RTVSPost2010Prop33
280
     0
102
RTVSPost2010PropOp33
 70
     1
102
RTVSPost2010Prop34
280
     0
102
RTVSPost2010PropOp34
 70
     1
102
RTVSPost2010Prop35
280
     0
102
RTVSPost2010PropOp35
 70
     1
102
RTVSPost2010Prop36
280
     0
102
RTVSPost2010PropOp36
 70
     1
102
RTVSPost2010Prop37
 90
       50
102
RTVSPost2010PropOp37
 70
     1
102
RTVSPost2010Prop38
140
0.0
102
RTVSPost2010PropOp38
 70
     1
102
RTVSPost2010Prop39
140
1.0
102
RTVSPost2010PropOp39
 70
     1
102
RTVSPost2010Prop40
 90
        0
102
RTVSPost2010PropOp40
 70
     1
102
RTVSPost2010Prop41ColorIndex
 90
       18
102
RTVSPost2010Prop41ColorRGB
 90
        0
102
RTVSPost2010PropOp41
 70
     1
102
RTVSPost2010Prop42
 90
       50
102
RTVSPost2010PropOp42
 70
     1
102
RTVSPost2010Prop43
 90
        3
102
RTVSPost2010PropOp43
 70
     1
102
RTVSPost2010Prop44ColorIndex
 90
        5
102
RTVSPost2010Prop44ColorRGB
 90
      255
102
RTVSPost2010PropOp44
 70
     1
102
RTVSPost2010Prop45
280
     0
102
RTVSPost2010PropOp45
 70
     1
102
RTVSPost2010Prop46
 90
       50
102
RTVSPost2010PropOp46
 70
     1
102
RTVSPost2010Prop47
 90
       50
102
RTVSPost2010PropOp47
 70
     1
102
RTVSPost2010Prop48
 90
       50
102
RTVSPost2010PropOp48
 70
     1
102
RTVSPost2010Prop49
280
     0
102
RTVSPost2010PropOp49
 70
     1
102
RTVSPost2010Prop50
 90
       50
102
RTVSPost2010PropOp50
 70
     1
102
RTVSPost2010Prop51ColorIndex
 90
      256
102
RTVSPost2010Prop51ColorRGB
 90
-16777216
102
RTVSPost2010PropOp51
 70
     0
102
RTVSPost2010Prop52
140
1.0
102
RTVSPost2010PropOp52
 70
     0
102
RTVSPost2010Prop53
 90
        2
102
RTVSPost2010PropOp53
 70
     1
102
RTVSPost2010Prop54
  1
strokes_ogs.tif
102
RTVSPost2010PropOp54
 70
     1
102
RTVSPost2010Prop55
280
     0
102
RTVSPost2010PropOp55
 70
     1
102
RTVSPost2010Prop56
140
1.0
102
RTVSPost2010PropOp56
 70
     1
102
RTVSPost2010Prop57
140
1.0
102
RTVSPost2010PropOp57
 70
     1
  0
XRECORD
  5
3CB
102
{ACAD_REACTORS
330
3CA
102
}
330
3CA
100
AcDbXrecord
280
     1
102
RTVSPropertyOp0
 70
     1
102
RTVSPropertyOp1
 70
     1
102
RTVSPropertyOp2
 70
     1
102
RTVSPropertyOp3
 70
     1
102
RTVSPropertyOp4
 70
     1
102
RTVSPropertyOp5
 70
     1
102
RTVSPropertyOp6
 70
     1
102
RTVSPropertyOp7
 70
     1
102
RTVSPropertyOp8
 70
     1
102
RTVSPropertyOp9
 70
     1
102
RTVSPropertyOp10
 70
     1
102
RTVSPropertyOp11
 70
     1
102
RTVSPropertyOp12
 70
     1
102
RTVSPropertyOp13
 70
     1
102
RTVSPropertyOp14
 70
     1
102
RTVSPropertyOp15
 70
     1
102
RTVSPropertyOp16
 70
     1
102
RTVSPropertyOp17
 70
     1
102
RTVSPropertyOp18
 70
     1
102
RTVSPropertyOp19
 70
     1
102
RTVSPropertyOp20
 70
     1
102
RTVSPropertyOp21
 70
     1
102
RTVSPropertyOp22
 70
     1
102
RTVSPropertyOp23
 70
     1
102
RTVSPropertyOp24
 70
     1
102
RTVSPropertyOp25
 70
     1
102
RTVSPropertyOp26
 70
     1
102
RTVSPropertyOp27
 70
     1
102
RTVSPropertyOp28
 70
     1
102
RTVSPropertyOp29
 70
     1
102
RTVSPropertyOp30
 70
     1
102
RTVSPropertyOp31
 70
     1
102
RTVSPropertyOp32
 70
     1
102
RTVSPropertyOp33
 70
     1
102
RTVSPropertyOp34
 70
     1
102
RTVSPropertyOp35
 70
     1
102
RTVSPropertyOp36
 70
     1
102
RTVSPropertyOp37
 70
     1
102
RTVSPropertyOp38
 70
     1
102
RTVSPropertyOp39
 70
     1
102
RTVSPropertyOp40
 70
     1
102
RTVSPropertyOp41
 70
     1
102
RTVSPropertyOp42
 70
     1
102
RTVSPropertyOp43
 70
     1
102
RTVSPropertyOp44
 70
     1
102
RTVSPropertyOp45
 70
     1
102
RTVSPropertyOp46
 70
     1
102
RTVSPropertyOp47
 70
     1
102
RTVSPropertyOp48
 70
     1
102
RTVSPropertyOp49
 70
     1
102
RTVSPropertyOp50
 70
     1
102
RTVSPropertyOp51
 70
     0
102
RTVSPropertyOp52
 70
     0
102
RTVSPropertyOp53
 70
     1
102
RTVSPropertyOp54
 70
     1
102
RTVSPropertyOp55
 70
     1
102
RTVSPropertyOp56
 70
     1
102
RTVSPropertyOp57
 70
     1
102
RTVSPost2010Prop28
280
     0
102
RTVSPost2010PropOp28
 70
     1
102
RTVSPost2010Prop29
280
     1
102
RTVSPost2010PropOp29
 70
     1
102
RTVSPost2010Prop30
280
     1
102
RTVSPost2010PropOp30
 70
     1
102
RTVSPost2010Prop31
280
     0
102
RTVSPost2010PropOp31
 70
     1
102
RTVSPost2010Prop32
280
     0
102
RTVSPost2010PropOp32
 70
     1
102
RTVSPost2010Prop33
280
     0
102
RTVSPost2010PropOp33
 70
     1
102
RTVSPost2010Prop34
280
     0
102
RTVSPost2010PropOp34
 70
     1
102
RTVSPost2010Prop35
280
     0
102
RTVSPost2010PropOp35
 70
     1
102
RTVSPost2010Prop36
280
     0
102
RTVSPost2010PropOp36
 70
     1
102
RTVSPost2010Prop37
 90
       50
102
RTVSPost2010PropOp37
 70
     1
102
RTVSPost2010Prop38
140
0.0
102
RTVSPost2010PropOp38
 70
     1
102
RTVSPost2010Prop39
140
1.0
102
RTVSPost2010PropOp39
 70
     1
102
RTVSPost2010Prop40
 90
        0
102
RTVSPost2010PropOp40
 70
     1
102
RTVSPost2010Prop41ColorIndex
 90
       18
102
RTVSPost2010Prop41ColorRGB
 90
        0
102
RTVSPost2010PropOp41
 70
     1
102
RTVSPost2010Prop42
 90
       50
102
RTVSPost2010PropOp42
 70
     1
102
RTVSPost2010Prop43
 90
        3
102
RTVSPost2010PropOp43
 70
     1
102
RTVSPost2010Prop44ColorIndex
 90
        5
102
RTVSPost2010Prop44ColorRGB
 90
      255
102
RTVSPost2010PropOp44
 70
     1
102
RTVSPost2010Prop45
280
     0
102
RTVSPost2010PropOp45
 70
     1
102
RTVSPost2010Prop46
 90
       50
102
RTVSPost2010PropOp46
 70
     1
102
RTVSPost2010Prop47
 90
       50
102
RTVSPost2010PropOp47
 70
     1
102
RTVSPost2010Prop48
 90
       50
102
RTVSPost2010PropOp48
 70
     1
102
RTVSPost2010Prop49
280
     0
102
RTVSPost2010PropOp49
 70
     1
102
RTVSPost2010Prop50
 90
       50
102
RTVSPost2010PropOp50
 70
     1
102
RTVSPost2010Prop51ColorIndex
 90
      256
102
RTVSPost2010Prop51ColorRGB
 90
-16777216
102
RTVSPost2010PropOp51
 70
     0
102
RTVSPost2010Prop52
140
1.0
102
RTVSPost2010PropOp52
 70
     0
102
RTVSPost2010Prop53
 90
        2
102
RTVSPost2010PropOp53
 70
     1
102
RTVSPost2010Prop54
  1
strokes_ogs.tif
102
RTVSPost2010PropOp54
 70
     1
102
RTVSPost2010Prop55
280
     0
102
RTVSPost2010PropOp55
 70
     1
102
RTVSPost2010Prop56
140
1.0
102
RTVSPost2010PropOp56
 70
     1
102
RTVSPost2010Prop57
140
1.0
102
RTVSPost2010PropOp57
 70
     1
  0
XRECORD
  5
3CD
102
{ACAD_REACTORS
330
3CC
102
}
330
3CC
100
AcDbXrecord
280
     1
102
RTVSPropertyOp0
 70
     1
102
RTVSPropertyOp1
 70
     1
102
RTVSPropertyOp2
 70
     1
102
RTVSPropertyOp3
 70
     1
102
RTVSPropertyOp4
 70
     1
102
RTVSPropertyOp5
 70
     1
102
RTVSPropertyOp6
 70
     1
102
RTVSPropertyOp7
 70
     1
102
RTVSPropertyOp8
 70
     1
102
RTVSPropertyOp9
 70
     1
102
RTVSPropertyOp10
 70
     1
102
RTVSPropertyOp11
 70
     1
102
RTVSPropertyOp12
 70
     1
102
RTVSPropertyOp13
 70
     1
102
RTVSPropertyOp14
 70
     1
102
RTVSPropertyOp15
 70
     1
102
RTVSPropertyOp16
 70
     1
102
RTVSPropertyOp17
 70
     1
102
RTVSPropertyOp18
 70
     1
102
RTVSPropertyOp19
 70
     1
102
RTVSPropertyOp20
 70
     1
102
RTVSPropertyOp21
 70
     1
102
RTVSPropertyOp22
 70
     1
102
RTVSPropertyOp23
 70
     1
102
RTVSPropertyOp24
 70
     1
102
RTVSPropertyOp25
 70
     1
102
RTVSPropertyOp26
 70
     1
102
RTVSPropertyOp27
 70
     1
102
RTVSPropertyOp28
 70
     1
102
RTVSPropertyOp29
 70
     1
102
RTVSPropertyOp30
 70
     1
102
RTVSPropertyOp31
 70
     1
102
RTVSPropertyOp32
 70
     1
102
RTVSPropertyOp33
 70
     1
102
RTVSPropertyOp34
 70
     1
102
RTVSPropertyOp35
 70
     1
102
RTVSPropertyOp36
 70
     1
102
RTVSPropertyOp37
 70
     1
102
RTVSPropertyOp38
 70
     1
102
RTVSPropertyOp39
 70
     1
102
RTVSPropertyOp40
 70
     1
102
RTVSPropertyOp41
 70
     1
102
RTVSPropertyOp42
 70
     1
102
RTVSPropertyOp43
 70
     1
102
RTVSPropertyOp44
 70
     1
102
RTVSPropertyOp45
 70
     1
102
RTVSPropertyOp46
 70
     1
102
RTVSPropertyOp47
 70
     1
102
RTVSPropertyOp48
 70
     1
102
RTVSPropertyOp49
 70
     1
102
RTVSPropertyOp50
 70
     1
102
RTVSPropertyOp51
 70
     0
102
RTVSPropertyOp52
 70
     0
102
RTVSPropertyOp53
 70
     1
102
RTVSPropertyOp54
 70
     1
102
RTVSPropertyOp55
 70
     1
102
RTVSPropertyOp56
 70
     1
102
RTVSPropertyOp57
 70
     1
102
RTVSPost2010Prop28
280
     0
102
RTVSPost2010PropOp28
 70
     1
102
RTVSPost2010Prop29
280
     1
102
RTVSPost2010PropOp29
 70
     1
102
RTVSPost2010Prop30
280
     1
102
RTVSPost2010PropOp30
 70
     1
102
RTVSPost2010Prop31
280
     0
102
RTVSPost2010PropOp31
 70
     1
102
RTVSPost2010Prop32
280
     0
102
RTVSPost2010PropOp32
 70
     1
102
RTVSPost2010Prop33
280
     0
102
RTVSPost2010PropOp33
 70
     1
102
RTVSPost2010Prop34
280
     0
102
RTVSPost2010PropOp34
 70
     1
102
RTVSPost2010Prop35
280
     0
102
RTVSPost2010PropOp35
 70
     1
102
RTVSPost2010Prop36
280
     0
102
RTVSPost2010PropOp36
 70
     1
102
RTVSPost2010Prop37
 90
       50
102
RTVSPost2010PropOp37
 70
     1
102
RTVSPost2010Prop38
140
0.0
102
RTVSPost2010PropOp38
 70
     1
102
RTVSPost2010Prop39
140
1.0
102
RTVSPost2010PropOp39
 70
     1
102
RTVSPost2010Prop40
 90
        0
102
RTVSPost2010PropOp40
 70
     1
102
RTVSPost2010Prop41ColorIndex
 90
       18
102
RTVSPost2010Prop41ColorRGB
 90
        0
102
RTVSPost2010PropOp41
 70
     1
102
RTVSPost2010Prop42
 90
       50
102
RTVSPost2010PropOp42
 70
     1
102
RTVSPost2010Prop43
 90
        3
102
RTVSPost2010PropOp43
 70
     1
102
RTVSPost2010Prop44ColorIndex
 90
        5
102
RTVSPost2010Prop44ColorRGB
 90
      255
102
RTVSPost2010PropOp44
 70
     1
102
RTVSPost2010Prop45
280
     0
102
RTVSPost2010PropOp45
 70
     1
102
RTVSPost2010Prop46
 90
       50
102
RTVSPost2010PropOp46
 70
     1
102
RTVSPost2010Prop47
 90
       50
102
RTVSPost2010PropOp47
 70
     1
102
RTVSPost2010Prop48
 90
       50
102
RTVSPost2010PropOp48
 70
     1
102
RTVSPost2010Prop49
280
     0
102
RTVSPost2010PropOp49
 70
     1
102
RTVSPost2010Prop50
 90
       50
102
RTVSPost2010PropOp50
 70
     1
102
RTVSPost2010Prop51ColorIndex
 90
      256
102
RTVSPost2010Prop51ColorRGB
 90
-16777216
102
RTVSPost2010PropOp51
 70
     0
102
RTVSPost2010Prop52
140
1.0
102
RTVSPost2010PropOp52
 70
     0
102
RTVSPost2010Prop53
 90
        2
102
RTVSPost2010PropOp53
 70
     1
102
RTVSPost2010Prop54
  1
strokes_ogs.tif
102
RTVSPost2010PropOp54
 70
     1
102
RTVSPost2010Prop55
280
     0
102
RTVSPost2010PropOp55
 70
     1
102
RTVSPost2010Prop56
140
1.0
102
RTVSPost2010PropOp56
 70
     1
102
RTVSPost2010Prop57
140
1.0
102
RTVSPost2010PropOp57
 70
     1
  0
XRECORD
  5
3CF
102
{ACAD_REACTORS
330
3CE
102
}
330
3CE
100
AcDbXrecord
280
     1
102
RTVSPropertyOp0
 70
     1
102
RTVSPropertyOp1
 70
     1
102
RTVSPropertyOp2
 70
     1
102
RTVSPropertyOp3
 70
     1
102
RTVSPropertyOp4
 70
     1
102
RTVSPropertyOp5
 70
     1
102
RTVSPropertyOp6
 70
     1
102
RTVSPropertyOp7
 70
     1
102
RTVSPropertyOp8
 70
     1
102
RTVSPropertyOp9
 70
     1
102
RTVSPropertyOp10
 70
     1
102
RTVSPropertyOp11
 70
     1
102
RTVSPropertyOp12
 70
     1
102
RTVSPropertyOp13
 70
     1
102
RTVSPropertyOp14
 70
     1
102
RTVSPropertyOp15
 70
     1
102
RTVSPropertyOp16
 70
     1
102
RTVSPropertyOp17
 70
     1
102
RTVSPropertyOp18
 70
     1
102
RTVSPropertyOp19
 70
     1
102
RTVSPropertyOp20
 70
     1
102
RTVSPropertyOp21
 70
     1
102
RTVSPropertyOp22
 70
     1
102
RTVSPropertyOp23
 70
     1
102
RTVSPropertyOp24
 70
     1
102
RTVSPropertyOp25
 70
     1
102
RTVSPropertyOp26
 70
     1
102
RTVSPropertyOp27
 70
     1
102
RTVSPropertyOp28
 70
     1
102
RTVSPropertyOp29
 70
     1
102
RTVSPropertyOp30
 70
     1
102
RTVSPropertyOp31
 70
     1
102
RTVSPropertyOp32
 70
     1
102
RTVSPropertyOp33
 70
     1
102
RTVSPropertyOp34
 70
     1
102
RTVSPropertyOp35
 70
     1
102
RTVSPropertyOp36
 70
     1
102
RTVSPropertyOp37
 70
     1
102
RTVSPropertyOp38
 70
     1
102
RTVSPropertyOp39
 70
     1
102
RTVSPropertyOp40
 70
     1
102
RTVSPropertyOp41
 70
     1
102
RTVSPropertyOp42
 70
     1
102
RTVSPropertyOp43
 70
     1
102
RTVSPropertyOp44
 70
     1
102
RTVSPropertyOp45
 70
     1
102
RTVSPropertyOp46
 70
     1
102
RTVSPropertyOp47
 70
     1
102
RTVSPropertyOp48
 70
     1
102
RTVSPropertyOp49
 70
     1
102
RTVSPropertyOp50
 70
     1
102
RTVSPropertyOp51
 70
     0
102
RTVSPropertyOp52
 70
     0
102
RTVSPropertyOp53
 70
     1
102
RTVSPropertyOp54
 70
     1
102
RTVSPropertyOp55
 70
     1
102
RTVSPropertyOp56
 70
     1
102
RTVSPropertyOp57
 70
     1
102
RTVSPost2010Prop28
280
     0
102
RTVSPost2010PropOp28
 70
     1
102
RTVSPost2010Prop29
280
     1
102
RTVSPost2010PropOp29
 70
     1
102
RTVSPost2010Prop30
280
     1
102
RTVSPost2010PropOp30
 70
     1
102
RTVSPost2010Prop31
280
     0
102
RTVSPost2010PropOp31
 70
     1
102
RTVSPost2010Prop32
280
     0
102
RTVSPost2010PropOp32
 70
     1
102
RTVSPost2010Prop33
280
     0
102
RTVSPost2010PropOp33
 70
     1
102
RTVSPost2010Prop34
280
     0
102
RTVSPost2010PropOp34
 70
     1
102
RTVSPost2010Prop35
280
     0
102
RTVSPost2010PropOp35
 70
     1
102
RTVSPost2010Prop36
280
     0
102
RTVSPost2010PropOp36
 70
     1
102
RTVSPost2010Prop37
 90
       50
102
RTVSPost2010PropOp37
 70
     1
102
RTVSPost2010Prop38
140
0.0
102
RTVSPost2010PropOp38
 70
     1
102
RTVSPost2010Prop39
140
1.0
102
RTVSPost2010PropOp39
 70
     1
102
RTVSPost2010Prop40
 90
        0
102
RTVSPost2010PropOp40
 70
     1
102
RTVSPost2010Prop41ColorIndex
 90
       18
102
RTVSPost2010Prop41ColorRGB
 90
        0
102
RTVSPost2010PropOp41
 70
     1
102
RTVSPost2010Prop42
 90
       50
102
RTVSPost2010PropOp42
 70
     1
102
RTVSPost2010Prop43
 90
        3
102
RTVSPost2010PropOp43
 70
     1
102
RTVSPost2010Prop44ColorIndex
 90
        5
102
RTVSPost2010Prop44ColorRGB
 90
      255
102
RTVSPost2010PropOp44
 70
     1
102
RTVSPost2010Prop45
280
     0
102
RTVSPost2010PropOp45
 70
     1
102
RTVSPost2010Prop46
 90
       50
102
RTVSPost2010PropOp46
 70
     1
102
RTVSPost2010Prop47
 90
       50
102
RTVSPost2010PropOp47
 70
     1
102
RTVSPost2010Prop48
 90
       50
102
RTVSPost2010PropOp48
 70
     1
102
RTVSPost2010Prop49
280
     0
102
RTVSPost2010PropOp49
 70
     1
102
RTVSPost2010Prop50
 90
       50
102
RTVSPost2010PropOp50
 70
     1
102
RTVSPost2010Prop51ColorIndex
 90
      256
102
RTVSPost2010Prop51ColorRGB
 90
-16777216
102
RTVSPost2010PropOp51
 70
     0
102
RTVSPost2010Prop52
140
1.0
102
RTVSPost2010PropOp52
 70
     0
102
RTVSPost2010Prop53
 90
        2
102
RTVSPost2010PropOp53
 70
     1
102
RTVSPost2010Prop54
  1
strokes_ogs.tif
102
RTVSPost2010PropOp54
 70
     1
102
RTVSPost2010Prop55
280
     0
102
RTVSPost2010PropOp55
 70
     1
102
RTVSPost2010Prop56
140
1.0
102
RTVSPost2010PropOp56
 70
     1
102
RTVSPost2010Prop57
140
1.0
102
RTVSPost2010PropOp57
 70
     1
  0
XRECORD
  5
3D5
102
{ACAD_REACTORS
330
3D4
102
}
330
3D4
100
AcDbXrecord
280
     1
102
RTVSPropertyOp0
 70
     1
102
RTVSPropertyOp1
 70
     1
102
RTVSPropertyOp2
 70
     1
102
RTVSPropertyOp3
 70
     1
102
RTVSPropertyOp4
 70
     1
102
RTVSPropertyOp5
 70
     1
102
RTVSPropertyOp6
 70
     1
102
RTVSPropertyOp7
 70
     1
102
RTVSPropertyOp8
 70
     1
102
RTVSPropertyOp9
 70
     1
102
RTVSPropertyOp10
 70
     1
102
RTVSPropertyOp11
 70
     1
102
RTVSPropertyOp12
 70
     1
102
RTVSPropertyOp13
 70
     1
102
RTVSPropertyOp14
 70
     1
102
RTVSPropertyOp15
 70
     1
102
RTVSPropertyOp16
 70
     1
102
RTVSPropertyOp17
 70
     1
102
RTVSPropertyOp18
 70
     1
102
RTVSPropertyOp19
 70
     1
102
RTVSPropertyOp20
 70
     1
102
RTVSPropertyOp21
 70
     1
102
RTVSPropertyOp22
 70
     1
102
RTVSPropertyOp23
 70
     1
102
RTVSPropertyOp24
 70
     1
102
RTVSPropertyOp25
 70
     1
102
RTVSPropertyOp26
 70
     1
102
RTVSPropertyOp27
 70
     1
102
RTVSPropertyOp28
 70
     1
102
RTVSPropertyOp29
 70
     1
102
RTVSPropertyOp30
 70
     1
102
RTVSPropertyOp31
 70
     1
102
RTVSPropertyOp32
 70
     1
102
RTVSPropertyOp33
 70
     1
102
RTVSPropertyOp34
 70
     1
102
RTVSPropertyOp35
 70
     1
102
RTVSPropertyOp36
 70
     1
102
RTVSPropertyOp37
 70
     1
102
RTVSPropertyOp38
 70
     1
102
RTVSPropertyOp39
 70
     1
102
RTVSPropertyOp40
 70
     1
102
RTVSPropertyOp41
 70
     1
102
RTVSPropertyOp42
 70
     1
102
RTVSPropertyOp43
 70
     1
102
RTVSPropertyOp44
 70
     1
102
RTVSPropertyOp45
 70
     1
102
RTVSPropertyOp46
 70
     1
102
RTVSPropertyOp47
 70
     1
102
RTVSPropertyOp48
 70
     1
102
RTVSPropertyOp49
 70
     1
102
RTVSPropertyOp50
 70
     1
102
RTVSPropertyOp51
 70
     0
102
RTVSPropertyOp52
 70
     0
102
RTVSPropertyOp53
 70
     1
102
RTVSPropertyOp54
 70
     1
102
RTVSPropertyOp55
 70
     1
102
RTVSPropertyOp56
 70
     1
102
RTVSPropertyOp57
 70
     1
102
RTVSPost2010Prop28
280
     0
102
RTVSPost2010PropOp28
 70
     1
102
RTVSPost2010Prop29
280
     1
102
RTVSPost2010PropOp29
 70
     1
102
RTVSPost2010Prop30
280
     1
102
RTVSPost2010PropOp30
 70
     1
102
RTVSPost2010Prop31
280
     0
102
RTVSPost2010PropOp31
 70
     1
102
RTVSPost2010Prop32
280
     0
102
RTVSPost2010PropOp32
 70
     1
102
RTVSPost2010Prop33
280
     0
102
RTVSPost2010PropOp33
 70
     1
102
RTVSPost2010Prop34
280
     0
102
RTVSPost2010PropOp34
 70
     1
102
RTVSPost2010Prop35
280
     0
102
RTVSPost2010PropOp35
 70
     1
102
RTVSPost2010Prop36
280
     0
102
RTVSPost2010PropOp36
 70
     1
102
RTVSPost2010Prop37
 90
       50
102
RTVSPost2010PropOp37
 70
     1
102
RTVSPost2010Prop38
140
0.0
102
RTVSPost2010PropOp38
 70
     1
102
RTVSPost2010Prop39
140
1.0
102
RTVSPost2010PropOp39
 70
     1
102
RTVSPost2010Prop40
 90
        0
102
RTVSPost2010PropOp40
 70
     1
102
RTVSPost2010Prop41ColorIndex
 90
       18
102
RTVSPost2010Prop41ColorRGB
 90
        0
102
RTVSPost2010PropOp41
 70
     1
102
RTVSPost2010Prop42
 90
       50
102
RTVSPost2010PropOp42
 70
     1
102
RTVSPost2010Prop43
 90
        3
102
RTVSPost2010PropOp43
 70
     1
102
RTVSPost2010Prop44ColorIndex
 90
        5
102
RTVSPost2010Prop44ColorRGB
 90
      255
102
RTVSPost2010PropOp44
 70
     1
102
RTVSPost2010Prop45
280
     0
102
RTVSPost2010PropOp45
 70
     1
102
RTVSPost2010Prop46
 90
       50
102
RTVSPost2010PropOp46
 70
     1
102
RTVSPost2010Prop47
 90
       50
102
RTVSPost2010PropOp47
 70
     1
102
RTVSPost2010Prop48
 90
       50
102
RTVSPost2010PropOp48
 70
     1
102
RTVSPost2010Prop49
280
     0
102
RTVSPost2010PropOp49
 70
     1
102
RTVSPost2010Prop50
 90
       50
102
RTVSPost2010PropOp50
 70
     1
102
RTVSPost2010Prop51ColorIndex
 90
      256
102
RTVSPost2010Prop51ColorRGB
 90
-16777216
102
RTVSPost2010PropOp51
 70
     0
102
RTVSPost2010Prop52
140
1.0
102
RTVSPost2010PropOp52
 70
     0
102
RTVSPost2010Prop53
 90
        2
102
RTVSPost2010PropOp53
 70
     1
102
RTVSPost2010Prop54
  1
strokes_ogs.tif
102
RTVSPost2010PropOp54
 70
     1
102
RTVSPost2010Prop55
280
     0
102
RTVSPost2010PropOp55
 70
     1
102
RTVSPost2010Prop56
140
1.0
102
RTVSPost2010PropOp56
 70
     1
102
RTVSPost2010Prop57
140
1.0
102
RTVSPost2010PropOp57
 70
     1
  0
XRECORD
  5
3E9
102
{ACAD_REACTORS
330
3E8
102
}
330
3E8
100
AcDbXrecord
280
     1
102
RTVSPropertyOp0
 70
     0
102
RTVSPropertyOp1
 70
     0
102
RTVSPropertyOp2
 70
     0
102
RTVSPropertyOp3
 70
     0
102
RTVSPropertyOp4
 70
     0
102
RTVSPropertyOp5
 70
     0
102
RTVSPropertyOp6
 70
     0
102
RTVSPropertyOp7
 70
     0
102
RTVSPropertyOp8
 70
     0
102
RTVSPropertyOp9
 70
     0
102
RTVSPropertyOp10
 70
     0
102
RTVSPropertyOp11
 70
     0
102
RTVSPropertyOp12
 70
     0
102
RTVSPropertyOp13
 70
     0
102
RTVSPropertyOp14
 70
     2
102
RTVSPropertyOp15
 70
     0
102
RTVSPropertyOp16
 70
     0
102
RTVSPropertyOp17
 70
     0
102
RTVSPropertyOp18
 70
     0
102
RTVSPropertyOp19
 70
     0
102
RTVSPropertyOp20
 70
     0
102
RTVSPropertyOp21
 70
     0
102
RTVSPropertyOp22
 70
     0
102
RTVSPropertyOp23
 70
     0
102
RTVSPropertyOp24
 70
     0
102
RTVSPropertyOp25
 70
     0
102
RTVSPropertyOp26
 70
     0
102
RTVSPropertyOp27
 70
     0
102
RTVSPropertyOp28
 70
     0
102
RTVSPropertyOp29
 70
     0
102
RTVSPropertyOp30
 70
     0
102
RTVSPropertyOp31
 70
     0
102
RTVSPropertyOp32
 70
     0
102
RTVSPropertyOp33
 70
     0
102
RTVSPropertyOp34
 70
     0
102
RTVSPropertyOp35
 70
     0
102
RTVSPropertyOp36
 70
     0
102
RTVSPropertyOp37
 70
     0
102
RTVSPropertyOp38
 70
     0
102
RTVSPropertyOp39
 70
     0
102
RTVSPropertyOp40
 70
     0
102
RTVSPropertyOp41
 70
     0
102
RTVSPropertyOp42
 70
     0
102
RTVSPropertyOp43
 70
     0
102
RTVSPropertyOp44
 70
     0
102
RTVSPropertyOp45
 70
     0
102
RTVSPropertyOp46
 70
     0
102
RTVSPropertyOp47
 70
     0
102
RTVSPropertyOp48
 70
     0
102
RTVSPropertyOp49
 70
     0
102
RTVSPropertyOp50
 70
     0
102
RTVSPropertyOp51
 70
     0
102
RTVSPropertyOp52
 70
     0
102
RTVSPropertyOp53
 70
     0
102
RTVSPropertyOp54
 70
     0
102
RTVSPropertyOp55
 70
     0
102
RTVSPropertyOp56
 70
     0
102
RTVSPropertyOp57
 70
     0
102
RTVSPost2010Prop28
280
     0
102
RTVSPost2010PropOp28
 70
     0
102
RTVSPost2010Prop29
280
     1
102
RTVSPost2010PropOp29
 70
     0
102
RTVSPost2010Prop30
280
     1
102
RTVSPost2010PropOp30
 70
     0
102
RTVSPost2010Prop31
280
     0
102
RTVSPost2010PropOp31
 70
     0
102
RTVSPost2010Prop32
280
     0
102
RTVSPost2010PropOp32
 70
     0
102
RTVSPost2010Prop33
280
     0
102
RTVSPost2010PropOp33
 70
     0
102
RTVSPost2010Prop34
280
     0
102
RTVSPost2010PropOp34
 70
     0
102
RTVSPost2010Prop35
280
     0
102
RTVSPost2010PropOp35
 70
     0
102
RTVSPost2010Prop36
280
     0
102
RTVSPost2010PropOp36
 70
     0
102
RTVSPost2010Prop37
 90
       50
102
RTVSPost2010PropOp37
 70
     0
102
RTVSPost2010Prop38
140
0.0
102
RTVSPost2010PropOp38
 70
     0
102
RTVSPost2010Prop39
140
1.0
102
RTVSPost2010PropOp39
 70
     0
102
RTVSPost2010Prop40
 90
        0
102
RTVSPost2010PropOp40
 70
     0
102
RTVSPost2010Prop41ColorIndex
 90
       18
102
RTVSPost2010Prop41ColorRGB
 90
        0
102
RTVSPost2010PropOp41
 70
     0
102
RTVSPost2010Prop42
 90
       50
102
RTVSPost2010PropOp42
 70
     0
102
RTVSPost2010Prop43
 90
        3
102
RTVSPost2010PropOp43
 70
     0
102
RTVSPost2010Prop44ColorIndex
 90
        5
102
RTVSPost2010Prop44ColorRGB
 90
      255
102
RTVSPost2010PropOp44
 70
     0
102
RTVSPost2010Prop45
280
     0
102
RTVSPost2010PropOp45
 70
     0
102
RTVSPost2010Prop46
 90
       50
102
RTVSPost2010PropOp46
 70
     0
102
RTVSPost2010Prop47
 90
       50
102
RTVSPost2010PropOp47
 70
     0
102
RTVSPost2010Prop48
 90
       50
102
RTVSPost2010PropOp48
 70
     0
102
RTVSPost2010Prop49
280
     0
102
RTVSPost2010PropOp49
 70
     0
102
RTVSPost2010Prop50
 90
       50
102
RTVSPost2010PropOp50
 70
     0
102
RTVSPost2010Prop51ColorIndex
 90
      256
102
RTVSPost2010Prop51ColorRGB
 90
-16777216
102
RTVSPost2010PropOp51
 70
     0
102
RTVSPost2010Prop52
140
1.0
102
RTVSPost2010PropOp52
 70
     0
102
RTVSPost2010Prop53
 90
        2
102
RTVSPost2010PropOp53
 70
     0
102
RTVSPost2010Prop54
  1
strokes_ogs.tif
102
RTVSPost2010PropOp54
 70
     0
102
RTVSPost2010Prop55
280
     0
102
RTVSPost2010PropOp55
 70
     0
102
RTVSPost2010Prop56
140
1.0
102
RTVSPost2010PropOp56
 70
     0
102
RTVSPost2010Prop57
140
1.0
102
RTVSPost2010PropOp57
 70
     0
  0
XRECORD
  5
3E3
102
{ACAD_REACTORS
330
3E2
102
}
330
3E2
100
AcDbXrecord
280
     1
102
RTVSPropertyOp0
 70
     1
102
RTVSPropertyOp1
 70
     1
102
RTVSPropertyOp2
 70
     1
102
RTVSPropertyOp3
 70
     1
102
RTVSPropertyOp4
 70
     1
102
RTVSPropertyOp5
 70
     1
102
RTVSPropertyOp6
 70
     1
102
RTVSPropertyOp7
 70
     1
102
RTVSPropertyOp8
 70
     1
102
RTVSPropertyOp9
 70
     1
102
RTVSPropertyOp10
 70
     1
102
RTVSPropertyOp11
 70
     1
102
RTVSPropertyOp12
 70
     1
102
RTVSPropertyOp13
 70
     1
102
RTVSPropertyOp14
 70
     1
102
RTVSPropertyOp15
 70
     1
102
RTVSPropertyOp16
 70
     1
102
RTVSPropertyOp17
 70
     1
102
RTVSPropertyOp18
 70
     1
102
RTVSPropertyOp19
 70
     1
102
RTVSPropertyOp20
 70
     1
102
RTVSPropertyOp21
 70
     1
102
RTVSPropertyOp22
 70
     1
102
RTVSPropertyOp23
 70
     1
102
RTVSPropertyOp24
 70
     1
102
RTVSPropertyOp25
 70
     1
102
RTVSPropertyOp26
 70
     1
102
RTVSPropertyOp27
 70
     1
102
RTVSPropertyOp28
 70
     1
102
RTVSPropertyOp29
 70
     1
102
RTVSPropertyOp30
 70
     1
102
RTVSPropertyOp31
 70
     1
102
RTVSPropertyOp32
 70
     1
102
RTVSPropertyOp33
 70
     1
102
RTVSPropertyOp34
 70
     1
102
RTVSPropertyOp35
 70
     1
102
RTVSPropertyOp36
 70
     1
102
RTVSPropertyOp37
 70
     1
102
RTVSPropertyOp38
 70
     1
102
RTVSPropertyOp39
 70
     1
102
RTVSPropertyOp40
 70
     1
102
RTVSPropertyOp41
 70
     1
102
RTVSPropertyOp42
 70
     1
102
RTVSPropertyOp43
 70
     1
102
RTVSPropertyOp44
 70
     1
102
RTVSPropertyOp45
 70
     1
102
RTVSPropertyOp46
 70
     1
102
RTVSPropertyOp47
 70
     1
102
RTVSPropertyOp48
 70
     1
102
RTVSPropertyOp49
 70
     1
102
RTVSPropertyOp50
 70
     1
102
RTVSPropertyOp51
 70
     0
102
RTVSPropertyOp52
 70
     0
102
RTVSPropertyOp53
 70
     1
102
RTVSPropertyOp54
 70
     1
102
RTVSPropertyOp55
 70
     1
102
RTVSPropertyOp56
 70
     1
102
RTVSPropertyOp57
 70
     1
102
RTVSPost2010Prop28
280
     0
102
RTVSPost2010PropOp28
 70
     1
102
RTVSPost2010Prop29
280
     1
102
RTVSPost2010PropOp29
 70
     1
102
RTVSPost2010Prop30
280
     1
102
RTVSPost2010PropOp30
 70
     1
102
RTVSPost2010Prop31
280
     0
102
RTVSPost2010PropOp31
 70
     1
102
RTVSPost2010Prop32
280
     0
102
RTVSPost2010PropOp32
 70
     1
102
RTVSPost2010Prop33
280
     0
102
RTVSPost2010PropOp33
 70
     1
102
RTVSPost2010Prop34
280
     0
102
RTVSPost2010PropOp34
 70
     1
102
RTVSPost2010Prop35
280
     0
102
RTVSPost2010PropOp35
 70
     1
102
RTVSPost2010Prop36
280
     0
102
RTVSPost2010PropOp36
 70
     1
102
RTVSPost2010Prop37
 90
       50
102
RTVSPost2010PropOp37
 70
     1
102
RTVSPost2010Prop38
140
0.0
102
RTVSPost2010PropOp38
 70
     1
102
RTVSPost2010Prop39
140
1.0
102
RTVSPost2010PropOp39
 70
     1
102
RTVSPost2010Prop40
 90
        0
102
RTVSPost2010PropOp40
 70
     1
102
RTVSPost2010Prop41ColorIndex
 90
       18
102
RTVSPost2010Prop41ColorRGB
 90
        0
102
RTVSPost2010PropOp41
 70
     1
102
RTVSPost2010Prop42
 90
       50
102
RTVSPost2010PropOp42
 70
     1
102
RTVSPost2010Prop43
 90
        3
102
RTVSPost2010PropOp43
 70
     1
102
RTVSPost2010Prop44ColorIndex
 90
        5
102
RTVSPost2010Prop44ColorRGB
 90
      255
102
RTVSPost2010PropOp44
 70
     1
102
RTVSPost2010Prop45
280
     0
102
RTVSPost2010PropOp45
 70
     1
102
RTVSPost2010Prop46
 90
       50
102
RTVSPost2010PropOp46
 70
     1
102
RTVSPost2010Prop47
 90
       50
102
RTVSPost2010PropOp47
 70
     1
102
RTVSPost2010Prop48
 90
       50
102
RTVSPost2010PropOp48
 70
     1
102
RTVSPost2010Prop49
280
     0
102
RTVSPost2010PropOp49
 70
     1
102
RTVSPost2010Prop50
 90
       50
102
RTVSPost2010PropOp50
 70
     1
102
RTVSPost2010Prop51ColorIndex
 90
      256
102
RTVSPost2010Prop51ColorRGB
 90
-16777216
102
RTVSPost2010PropOp51
 70
     0
102
RTVSPost2010Prop52
140
1.0
102
RTVSPost2010PropOp52
 70
     0
102
RTVSPost2010Prop53
 90
        2
102
RTVSPost2010PropOp53
 70
     1
102
RTVSPost2010Prop54
  1
strokes_ogs.tif
102
RTVSPost2010PropOp54
 70
     1
102
RTVSPost2010Prop55
280
     0
102
RTVSPost2010PropOp55
 70
     1
102
RTVSPost2010Prop56
140
1.0
102
RTVSPost2010PropOp56
 70
     1
102
RTVSPost2010Prop57
140
1.0
102
RTVSPost2010PropOp57
 70
     1
  0
XRECORD
  5
3EB
102
{ACAD_REACTORS
330
3EA
102
}
330
3EA
100
AcDbXrecord
280
     1
102
RTVSPropertyOp0
 70
     0
102
RTVSPropertyOp1
 70
     0
102
RTVSPropertyOp2
 70
     0
102
RTVSPropertyOp3
 70
     0
102
RTVSPropertyOp4
 70
     0
102
RTVSPropertyOp5
 70
     0
102
RTVSPropertyOp6
 70
     0
102
RTVSPropertyOp7
 70
     0
102
RTVSPropertyOp8
 70
     0
102
RTVSPropertyOp9
 70
     0
102
RTVSPropertyOp10
 70
     0
102
RTVSPropertyOp11
 70
     0
102
RTVSPropertyOp12
 70
     0
102
RTVSPropertyOp13
 70
     0
102
RTVSPropertyOp14
 70
     2
102
RTVSPropertyOp15
 70
     0
102
RTVSPropertyOp16
 70
     0
102
RTVSPropertyOp17
 70
     0
102
RTVSPropertyOp18
 70
     0
102
RTVSPropertyOp19
 70
     0
102
RTVSPropertyOp20
 70
     0
102
RTVSPropertyOp21
 70
     0
102
RTVSPropertyOp22
 70
     0
102
RTVSPropertyOp23
 70
     0
102
RTVSPropertyOp24
 70
     0
102
RTVSPropertyOp25
 70
     0
102
RTVSPropertyOp26
 70
     0
102
RTVSPropertyOp27
 70
     0
102
RTVSPropertyOp28
 70
     0
102
RTVSPropertyOp29
 70
     0
102
RTVSPropertyOp30
 70
     0
102
RTVSPropertyOp31
 70
     0
102
RTVSPropertyOp32
 70
     0
102
RTVSPropertyOp33
 70
     0
102
RTVSPropertyOp34
 70
     0
102
RTVSPropertyOp35
 70
     0
102
RTVSPropertyOp36
 70
     0
102
RTVSPropertyOp37
 70
     0
102
RTVSPropertyOp38
 70
     0
102
RTVSPropertyOp39
 70
     0
102
RTVSPropertyOp40
 70
     0
102
RTVSPropertyOp41
 70
     0
102
RTVSPropertyOp42
 70
     0
102
RTVSPropertyOp43
 70
     0
102
RTVSPropertyOp44
 70
     0
102
RTVSPropertyOp45
 70
     0
102
RTVSPropertyOp46
 70
     0
102
RTVSPropertyOp47
 70
     0
102
RTVSPropertyOp48
 70
     0
102
RTVSPropertyOp49
 70
     0
102
RTVSPropertyOp50
 70
     0
102
RTVSPropertyOp51
 70
     0
102
RTVSPropertyOp52
 70
     0
102
RTVSPropertyOp53
 70
     0
102
RTVSPropertyOp54
 70
     0
102
RTVSPropertyOp55
 70
     0
102
RTVSPropertyOp56
 70
     0
102
RTVSPropertyOp57
 70
     0
102
RTVSPost2010Prop28
280
     0
102
RTVSPost2010PropOp28
 70
     0
102
RTVSPost2010Prop29
280
     1
102
RTVSPost2010PropOp29
 70
     0
102
RTVSPost2010Prop30
280
     1
102
RTVSPost2010PropOp30
 70
     0
102
RTVSPost2010Prop31
280
     0
102
RTVSPost2010PropOp31
 70
     0
102
RTVSPost2010Prop32
280
     0
102
RTVSPost2010PropOp32
 70
     0
102
RTVSPost2010Prop33
280
     0
102
RTVSPost2010PropOp33
 70
     0
102
RTVSPost2010Prop34
280
     0
102
RTVSPost2010PropOp34
 70
     0
102
RTVSPost2010Prop35
280
     0
102
RTVSPost2010PropOp35
 70
     0
102
RTVSPost2010Prop36
280
     0
102
RTVSPost2010PropOp36
 70
     0
102
RTVSPost2010Prop37
 90
       50
102
RTVSPost2010PropOp37
 70
     0
102
RTVSPost2010Prop38
140
0.0
102
RTVSPost2010PropOp38
 70
     0
102
RTVSPost2010Prop39
140
1.0
102
RTVSPost2010PropOp39
 70
     0
102
RTVSPost2010Prop40
 90
        0
102
RTVSPost2010PropOp40
 70
     0
102
RTVSPost2010Prop41ColorIndex
 90
       18
102
RTVSPost2010Prop41ColorRGB
 90
        0
102
RTVSPost2010PropOp41
 70
     0
102
RTVSPost2010Prop42
 90
       50
102
RTVSPost2010PropOp42
 70
     0
102
RTVSPost2010Prop43
 90
        3
102
RTVSPost2010PropOp43
 70
     0
102
RTVSPost2010Prop44ColorIndex
 90
        5
102
RTVSPost2010Prop44ColorRGB
 90
      255
102
RTVSPost2010PropOp44
 70
     0
102
RTVSPost2010Prop45
280
     0
102
RTVSPost2010PropOp45
 70
     0
102
RTVSPost2010Prop46
 90
       50
102
RTVSPost2010PropOp46
 70
     0
102
RTVSPost2010Prop47
 90
       50
102
RTVSPost2010PropOp47
 70
     0
102
RTVSPost2010Prop48
 90
       50
102
RTVSPost2010PropOp48
 70
     0
102
RTVSPost2010Prop49
280
     0
102
RTVSPost2010PropOp49
 70
     0
102
RTVSPost2010Prop50
 90
       50
102
RTVSPost2010PropOp50
 70
     0
102
RTVSPost2010Prop51ColorIndex
 90
      256
102
RTVSPost2010Prop51ColorRGB
 90
-16777216
102
RTVSPost2010PropOp51
 70
     0
102
RTVSPost2010Prop52
140
1.0
102
RTVSPost2010PropOp52
 70
     0
102
RTVSPost2010Prop53
 90
        2
102
RTVSPost2010PropOp53
 70
     0
102
RTVSPost2010Prop54
  1
strokes_ogs.tif
102
RTVSPost2010PropOp54
 70
     0
102
RTVSPost2010Prop55
280
     0
102
RTVSPost2010PropOp55
 70
     0
102
RTVSPost2010Prop56
140
1.0
102
RTVSPost2010PropOp56
 70
     0
102
RTVSPost2010Prop57
140
1.0
102
RTVSPost2010PropOp57
 70
     0
  0
XRECORD
  5
3D9
102
{ACAD_REACTORS
330
3D8
102
}
330
3D8
100
AcDbXrecord
280
     1
102
RTVSPropertyOp0
 70
     1
102
RTVSPropertyOp1
 70
     1
102
RTVSPropertyOp2
 70
     1
102
RTVSPropertyOp3
 70
     1
102
RTVSPropertyOp4
 70
     1
102
RTVSPropertyOp5
 70
     1
102
RTVSPropertyOp6
 70
     1
102
RTVSPropertyOp7
 70
     1
102
RTVSPropertyOp8
 70
     1
102
RTVSPropertyOp9
 70
     1
102
RTVSPropertyOp10
 70
     1
102
RTVSPropertyOp11
 70
     1
102
RTVSPropertyOp12
 70
     1
102
RTVSPropertyOp13
 70
     1
102
RTVSPropertyOp14
 70
     1
102
RTVSPropertyOp15
 70
     1
102
RTVSPropertyOp16
 70
     1
102
RTVSPropertyOp17
 70
     1
102
RTVSPropertyOp18
 70
     1
102
RTVSPropertyOp19
 70
     1
102
RTVSPropertyOp20
 70
     1
102
RTVSPropertyOp21
 70
     1
102
RTVSPropertyOp22
 70
     1
102
RTVSPropertyOp23
 70
     1
102
RTVSPropertyOp24
 70
     1
102
RTVSPropertyOp25
 70
     1
102
RTVSPropertyOp26
 70
     1
102
RTVSPropertyOp27
 70
     1
102
RTVSPropertyOp28
 70
     1
102
RTVSPropertyOp29
 70
     1
102
RTVSPropertyOp30
 70
     1
102
RTVSPropertyOp31
 70
     1
102
RTVSPropertyOp32
 70
     1
102
RTVSPropertyOp33
 70
     1
102
RTVSPropertyOp34
 70
     1
102
RTVSPropertyOp35
 70
     1
102
RTVSPropertyOp36
 70
     1
102
RTVSPropertyOp37
 70
     1
102
RTVSPropertyOp38
 70
     1
102
RTVSPropertyOp39
 70
     1
102
RTVSPropertyOp40
 70
     1
102
RTVSPropertyOp41
 70
     1
102
RTVSPropertyOp42
 70
     1
102
RTVSPropertyOp43
 70
     1
102
RTVSPropertyOp44
 70
     1
102
RTVSPropertyOp45
 70
     1
102
RTVSPropertyOp46
 70
     1
102
RTVSPropertyOp47
 70
     1
102
RTVSPropertyOp48
 70
     1
102
RTVSPropertyOp49
 70
     1
102
RTVSPropertyOp50
 70
     1
102
RTVSPropertyOp51
 70
     0
102
RTVSPropertyOp52
 70
     0
102
RTVSPropertyOp53
 70
     1
102
RTVSPropertyOp54
 70
     1
102
RTVSPropertyOp55
 70
     1
102
RTVSPropertyOp56
 70
     1
102
RTVSPropertyOp57
 70
     1
102
RTVSPost2010Prop28
280
     0
102
RTVSPost2010PropOp28
 70
     1
102
RTVSPost2010Prop29
280
     1
102
RTVSPost2010PropOp29
 70
     1
102
RTVSPost2010Prop30
280
     1
102
RTVSPost2010PropOp30
 70
     1
102
RTVSPost2010Prop31
280
     0
102
RTVSPost2010PropOp31
 70
     1
102
RTVSPost2010Prop32
280
     0
102
RTVSPost2010PropOp32
 70
     1
102
RTVSPost2010Prop33
280
     0
102
RTVSPost2010PropOp33
 70
     1
102
RTVSPost2010Prop34
280
     0
102
RTVSPost2010PropOp34
 70
     1
102
RTVSPost2010Prop35
280
     0
102
RTVSPost2010PropOp35
 70
     1
102
RTVSPost2010Prop36
280
     0
102
RTVSPost2010PropOp36
 70
     1
102
RTVSPost2010Prop37
 90
       50
102
RTVSPost2010PropOp37
 70
     1
102
RTVSPost2010Prop38
140
0.0
102
RTVSPost2010PropOp38
 70
     1
102
RTVSPost2010Prop39
140
1.0
102
RTVSPost2010PropOp39
 70
     1
102
RTVSPost2010Prop40
 90
        0
102
RTVSPost2010PropOp40
 70
     1
102
RTVSPost2010Prop41ColorIndex
 90
       18
102
RTVSPost2010Prop41ColorRGB
 90
        0
102
RTVSPost2010PropOp41
 70
     1
102
RTVSPost2010Prop42
 90
       50
102
RTVSPost2010PropOp42
 70
     1
102
RTVSPost2010Prop43
 90
        3
102
RTVSPost2010PropOp43
 70
     1
102
RTVSPost2010Prop44ColorIndex
 90
        5
102
RTVSPost2010Prop44ColorRGB
 90
      255
102
RTVSPost2010PropOp44
 70
     1
102
RTVSPost2010Prop45
280
     0
102
RTVSPost2010PropOp45
 70
     1
102
RTVSPost2010Prop46
 90
       50
102
RTVSPost2010PropOp46
 70
     1
102
RTVSPost2010Prop47
 90
       50
102
RTVSPost2010PropOp47
 70
     1
102
RTVSPost2010Prop48
 90
       50
102
RTVSPost2010PropOp48
 70
     1
102
RTVSPost2010Prop49
280
     0
102
RTVSPost2010PropOp49
 70
     1
102
RTVSPost2010Prop50
 90
       50
102
RTVSPost2010PropOp50
 70
     1
102
RTVSPost2010Prop51ColorIndex
 90
      256
102
RTVSPost2010Prop51ColorRGB
 90
-16777216
102
RTVSPost2010PropOp51
 70
     0
102
RTVSPost2010Prop52
140
1.0
102
RTVSPost2010PropOp52
 70
     0
102
RTVSPost2010Prop53
 90
        2
102
RTVSPost2010PropOp53
 70
     1
102
RTVSPost2010Prop54
  1
strokes_ogs.tif
102
RTVSPost2010PropOp54
 70
     1
102
RTVSPost2010Prop55
280
     0
102
RTVSPost2010PropOp55
 70
     1
102
RTVSPost2010Prop56
140
1.0
102
RTVSPost2010PropOp56
 70
     1
102
RTVSPost2010Prop57
140
1.0
102
RTVSPost2010PropOp57
 70
     1
  0
XRECORD
  5
3F7
102
{ACAD_REACTORS
330
3F6
102
}
330
3F6
100
AcDbXrecord
280
     1
102
RTVSPropertyOp0
 70
     1
102
RTVSPropertyOp1
 70
     1
102
RTVSPropertyOp2
 70
     1
102
RTVSPropertyOp3
 70
     1
102
RTVSPropertyOp4
 70
     1
102
RTVSPropertyOp5
 70
     1
102
RTVSPropertyOp6
 70
     1
102
RTVSPropertyOp7
 70
     1
102
RTVSPropertyOp8
 70
     1
102
RTVSPropertyOp9
 70
     1
102
RTVSPropertyOp10
 70
     1
102
RTVSPropertyOp11
 70
     1
102
RTVSPropertyOp12
 70
     1
102
RTVSPropertyOp13
 70
     1
102
RTVSPropertyOp14
 70
     1
102
RTVSPropertyOp15
 70
     1
102
RTVSPropertyOp16
 70
     1
102
RTVSPropertyOp17
 70
     1
102
RTVSPropertyOp18
 70
     1
102
RTVSPropertyOp19
 70
     1
102
RTVSPropertyOp20
 70
     1
102
RTVSPropertyOp21
 70
     1
102
RTVSPropertyOp22
 70
     1
102
RTVSPropertyOp23
 70
     1
102
RTVSPropertyOp24
 70
     1
102
RTVSPropertyOp25
 70
     1
102
RTVSPropertyOp26
 70
     1
102
RTVSPropertyOp27
 70
     1
102
RTVSPropertyOp28
 70
     1
102
RTVSPropertyOp29
 70
     1
102
RTVSPropertyOp30
 70
     1
102
RTVSPropertyOp31
 70
     1
102
RTVSPropertyOp32
 70
     1
102
RTVSPropertyOp33
 70
     1
102
RTVSPropertyOp34
 70
     1
102
RTVSPropertyOp35
 70
     1
102
RTVSPropertyOp36
 70
     1
102
RTVSPropertyOp37
 70
     1
102
RTVSPropertyOp38
 70
     1
102
RTVSPropertyOp39
 70
     1
102
RTVSPropertyOp40
 70
     1
102
RTVSPropertyOp41
 70
     1
102
RTVSPropertyOp42
 70
     1
102
RTVSPropertyOp43
 70
     1
102
RTVSPropertyOp44
 70
     1
102
RTVSPropertyOp45
 70
     1
102
RTVSPropertyOp46
 70
     1
102
RTVSPropertyOp47
 70
     1
102
RTVSPropertyOp48
 70
     1
102
RTVSPropertyOp49
 70
     1
102
RTVSPropertyOp50
 70
     1
102
RTVSPropertyOp51
 70
     0
102
RTVSPropertyOp52
 70
     0
102
RTVSPropertyOp53
 70
     1
102
RTVSPropertyOp54
 70
     1
102
RTVSPropertyOp55
 70
     1
102
RTVSPropertyOp56
 70
     1
102
RTVSPropertyOp57
 70
     1
102
RTVSPost2010Prop28
280
     0
102
RTVSPost2010PropOp28
 70
     1
102
RTVSPost2010Prop29
280
     1
102
RTVSPost2010PropOp29
 70
     1
102
RTVSPost2010Prop30
280
     1
102
RTVSPost2010PropOp30
 70
     1
102
RTVSPost2010Prop31
280
     0
102
RTVSPost2010PropOp31
 70
     1
102
RTVSPost2010Prop32
280
     0
102
RTVSPost2010PropOp32
 70
     1
102
RTVSPost2010Prop33
280
     0
102
RTVSPost2010PropOp33
 70
     1
102
RTVSPost2010Prop34
280
     0
102
RTVSPost2010PropOp34
 70
     1
102
RTVSPost2010Prop35
280
     0
102
RTVSPost2010PropOp35
 70
     1
102
RTVSPost2010Prop36
280
     0
102
RTVSPost2010PropOp36
 70
     1
102
RTVSPost2010Prop37
 90
       50
102
RTVSPost2010PropOp37
 70
     1
102
RTVSPost2010Prop38
140
0.0
102
RTVSPost2010PropOp38
 70
     1
102
RTVSPost2010Prop39
140
1.0
102
RTVSPost2010PropOp39
 70
     1
102
RTVSPost2010Prop40
 90
        0
102
RTVSPost2010PropOp40
 70
     1
102
RTVSPost2010Prop41ColorIndex
 90
       18
102
RTVSPost2010Prop41ColorRGB
 90
        0
102
RTVSPost2010PropOp41
 70
     1
102
RTVSPost2010Prop42
 90
       50
102
RTVSPost2010PropOp42
 70
     1
102
RTVSPost2010Prop43
 90
        3
102
RTVSPost2010PropOp43
 70
     1
102
RTVSPost2010Prop44ColorIndex
 90
        5
102
RTVSPost2010Prop44ColorRGB
 90
      255
102
RTVSPost2010PropOp44
 70
     1
102
RTVSPost2010Prop45
280
     0
102
RTVSPost2010PropOp45
 70
     1
102
RTVSPost2010Prop46
 90
       50
102
RTVSPost2010PropOp46
 70
     1
102
RTVSPost2010Prop47
 90
       50
102
RTVSPost2010PropOp47
 70
     1
102
RTVSPost2010Prop48
 90
       50
102
RTVSPost2010PropOp48
 70
     1
102
RTVSPost2010Prop49
280
     0
102
RTVSPost2010PropOp49
 70
     1
102
RTVSPost2010Prop50
 90
       50
102
RTVSPost2010PropOp50
 70
     1
102
RTVSPost2010Prop51ColorIndex
 90
      256
102
RTVSPost2010Prop51ColorRGB
 90
-16777216
102
RTVSPost2010PropOp51
 70
     0
102
RTVSPost2010Prop52
140
1.0
102
RTVSPost2010PropOp52
 70
     0
102
RTVSPost2010Prop53
 90
        2
102
RTVSPost2010PropOp53
 70
     1
102
RTVSPost2010Prop54
  1
strokes_ogs.tif
102
RTVSPost2010PropOp54
 70
     1
102
RTVSPost2010Prop55
280
     0
102
RTVSPost2010PropOp55
 70
     1
102
RTVSPost2010Prop56
140
1.0
102
RTVSPost2010PropOp56
 70
     1
102
RTVSPost2010Prop57
140
1.0
102
RTVSPost2010PropOp57
 70
     1
  0
XRECORD
  5
3F5
102
{ACAD_REACTORS
330
3F4
102
}
330
3F4
100
AcDbXrecord
280
     1
102
RTVSPropertyOp0
 70
     1
102
RTVSPropertyOp1
 70
     1
102
RTVSPropertyOp2
 70
     1
102
RTVSPropertyOp3
 70
     1
102
RTVSPropertyOp4
 70
     1
102
RTVSPropertyOp5
 70
     1
102
RTVSPropertyOp6
 70
     1
102
RTVSPropertyOp7
 70
     1
102
RTVSPropertyOp8
 70
     1
102
RTVSPropertyOp9
 70
     1
102
RTVSPropertyOp10
 70
     1
102
RTVSPropertyOp11
 70
     1
102
RTVSPropertyOp12
 70
     1
102
RTVSPropertyOp13
 70
     1
102
RTVSPropertyOp14
 70
     1
102
RTVSPropertyOp15
 70
     1
102
RTVSPropertyOp16
 70
     1
102
RTVSPropertyOp17
 70
     1
102
RTVSPropertyOp18
 70
     1
102
RTVSPropertyOp19
 70
     1
102
RTVSPropertyOp20
 70
     1
102
RTVSPropertyOp21
 70
     1
102
RTVSPropertyOp22
 70
     1
102
RTVSPropertyOp23
 70
     1
102
RTVSPropertyOp24
 70
     1
102
RTVSPropertyOp25
 70
     1
102
RTVSPropertyOp26
 70
     1
102
RTVSPropertyOp27
 70
     1
102
RTVSPropertyOp28
 70
     1
102
RTVSPropertyOp29
 70
     1
102
RTVSPropertyOp30
 70
     1
102
RTVSPropertyOp31
 70
     1
102
RTVSPropertyOp32
 70
     1
102
RTVSPropertyOp33
 70
     1
102
RTVSPropertyOp34
 70
     1
102
RTVSPropertyOp35
 70
     1
102
RTVSPropertyOp36
 70
     1
102
RTVSPropertyOp37
 70
     1
102
RTVSPropertyOp38
 70
     1
102
RTVSPropertyOp39
 70
     1
102
RTVSPropertyOp40
 70
     1
102
RTVSPropertyOp41
 70
     1
102
RTVSPropertyOp42
 70
     1
102
RTVSPropertyOp43
 70
     1
102
RTVSPropertyOp44
 70
     1
102
RTVSPropertyOp45
 70
     1
102
RTVSPropertyOp46
 70
     1
102
RTVSPropertyOp47
 70
     1
102
RTVSPropertyOp48
 70
     1
102
RTVSPropertyOp49
 70
     1
102
RTVSPropertyOp50
 70
     1
102
RTVSPropertyOp51
 70
     0
102
RTVSPropertyOp52
 70
     0
102
RTVSPropertyOp53
 70
     1
102
RTVSPropertyOp54
 70
     1
102
RTVSPropertyOp55
 70
     1
102
RTVSPropertyOp56
 70
     1
102
RTVSPropertyOp57
 70
     1
102
RTVSPost2010Prop28
280
     0
102
RTVSPost2010PropOp28
 70
     1
102
RTVSPost2010Prop29
280
     1
102
RTVSPost2010PropOp29
 70
     1
102
RTVSPost2010Prop30
280
     1
102
RTVSPost2010PropOp30
 70
     1
102
RTVSPost2010Prop31
280
     0
102
RTVSPost2010PropOp31
 70
     1
102
RTVSPost2010Prop32
280
     0
102
RTVSPost2010PropOp32
 70
     1
102
RTVSPost2010Prop33
280
     0
102
RTVSPost2010PropOp33
 70
     1
102
RTVSPost2010Prop34
280
     0
102
RTVSPost2010PropOp34
 70
     1
102
RTVSPost2010Prop35
280
     0
102
RTVSPost2010PropOp35
 70
     1
102
RTVSPost2010Prop36
280
     0
102
RTVSPost2010PropOp36
 70
     1
102
RTVSPost2010Prop37
 90
       50
102
RTVSPost2010PropOp37
 70
     1
102
RTVSPost2010Prop38
140
0.0
102
RTVSPost2010PropOp38
 70
     1
102
RTVSPost2010Prop39
140
1.0
102
RTVSPost2010PropOp39
 70
     1
102
RTVSPost2010Prop40
 90
        0
102
RTVSPost2010PropOp40
 70
     1
102
RTVSPost2010Prop41ColorIndex
 90
       18
102
RTVSPost2010Prop41ColorRGB
 90
        0
102
RTVSPost2010PropOp41
 70
     1
102
RTVSPost2010Prop42
 90
       50
102
RTVSPost2010PropOp42
 70
     1
102
RTVSPost2010Prop43
 90
        3
102
RTVSPost2010PropOp43
 70
     1
102
RTVSPost2010Prop44ColorIndex
 90
        5
102
RTVSPost2010Prop44ColorRGB
 90
      255
102
RTVSPost2010PropOp44
 70
     1
102
RTVSPost2010Prop45
280
     0
102
RTVSPost2010PropOp45
 70
     1
102
RTVSPost2010Prop46
 90
       50
102
RTVSPost2010PropOp46
 70
     1
102
RTVSPost2010Prop47
 90
       50
102
RTVSPost2010PropOp47
 70
     1
102
RTVSPost2010Prop48
 90
       50
102
RTVSPost2010PropOp48
 70
     1
102
RTVSPost2010Prop49
280
     0
102
RTVSPost2010PropOp49
 70
     1
102
RTVSPost2010Prop50
 90
       50
102
RTVSPost2010PropOp50
 70
     1
102
RTVSPost2010Prop51ColorIndex
 90
      256
102
RTVSPost2010Prop51ColorRGB
 90
-16777216
102
RTVSPost2010PropOp51
 70
     0
102
RTVSPost2010Prop52
140
1.0
102
RTVSPost2010PropOp52
 70
     0
102
RTVSPost2010Prop53
 90
        2
102
RTVSPost2010PropOp53
 70
     1
102
RTVSPost2010Prop54
  1
strokes_ogs.tif
102
RTVSPost2010PropOp54
 70
     1
102
RTVSPost2010Prop55
280
     0
102
RTVSPost2010PropOp55
 70
     1
102
RTVSPost2010Prop56
140
1.0
102
RTVSPost2010PropOp56
 70
     1
102
RTVSPost2010Prop57
140
1.0
102
RTVSPost2010PropOp57
 70
     1
  0
XRECORD
  5
3EF
102
{ACAD_REACTORS
330
3EE
102
}
330
3EE
100
AcDbXrecord
280
     1
102
RTVSPropertyOp0
 70
     1
102
RTVSPropertyOp1
 70
     1
102
RTVSPropertyOp2
 70
     1
102
RTVSPropertyOp3
 70
     1
102
RTVSPropertyOp4
 70
     1
102
RTVSPropertyOp5
 70
     1
102
RTVSPropertyOp6
 70
     1
102
RTVSPropertyOp7
 70
     1
102
RTVSPropertyOp8
 70
     1
102
RTVSPropertyOp9
 70
     1
102
RTVSPropertyOp10
 70
     1
102
RTVSPropertyOp11
 70
     1
102
RTVSPropertyOp12
 70
     1
102
RTVSPropertyOp13
 70
     1
102
RTVSPropertyOp14
 70
     1
102
RTVSPropertyOp15
 70
     1
102
RTVSPropertyOp16
 70
     1
102
RTVSPropertyOp17
 70
     1
102
RTVSPropertyOp18
 70
     1
102
RTVSPropertyOp19
 70
     1
102
RTVSPropertyOp20
 70
     1
102
RTVSPropertyOp21
 70
     1
102
RTVSPropertyOp22
 70
     1
102
RTVSPropertyOp23
 70
     1
102
RTVSPropertyOp24
 70
     1
102
RTVSPropertyOp25
 70
     1
102
RTVSPropertyOp26
 70
     1
102
RTVSPropertyOp27
 70
     1
102
RTVSPropertyOp28
 70
     1
102
RTVSPropertyOp29
 70
     1
102
RTVSPropertyOp30
 70
     1
102
RTVSPropertyOp31
 70
     1
102
RTVSPropertyOp32
 70
     1
102
RTVSPropertyOp33
 70
     1
102
RTVSPropertyOp34
 70
     1
102
RTVSPropertyOp35
 70
     1
102
RTVSPropertyOp36
 70
     1
102
RTVSPropertyOp37
 70
     1
102
RTVSPropertyOp38
 70
     1
102
RTVSPropertyOp39
 70
     1
102
RTVSPropertyOp40
 70
     1
102
RTVSPropertyOp41
 70
     1
102
RTVSPropertyOp42
 70
     1
102
RTVSPropertyOp43
 70
     1
102
RTVSPropertyOp44
 70
     1
102
RTVSPropertyOp45
 70
     1
102
RTVSPropertyOp46
 70
     1
102
RTVSPropertyOp47
 70
     1
102
RTVSPropertyOp48
 70
     1
102
RTVSPropertyOp49
 70
     1
102
RTVSPropertyOp50
 70
     1
102
RTVSPropertyOp51
 70
     0
102
RTVSPropertyOp52
 70
     0
102
RTVSPropertyOp53
 70
     1
102
RTVSPropertyOp54
 70
     1
102
RTVSPropertyOp55
 70
     1
102
RTVSPropertyOp56
 70
     1
102
RTVSPropertyOp57
 70
     1
102
RTVSPost2010Prop28
280
     0
102
RTVSPost2010PropOp28
 70
     1
102
RTVSPost2010Prop29
280
     1
102
RTVSPost2010PropOp29
 70
     1
102
RTVSPost2010Prop30
280
     1
102
RTVSPost2010PropOp30
 70
     1
102
RTVSPost2010Prop31
280
     0
102
RTVSPost2010PropOp31
 70
     1
102
RTVSPost2010Prop32
280
     0
102
RTVSPost2010PropOp32
 70
     1
102
RTVSPost2010Prop33
280
     0
102
RTVSPost2010PropOp33
 70
     1
102
RTVSPost2010Prop34
280
     0
102
RTVSPost2010PropOp34
 70
     1
102
RTVSPost2010Prop35
280
     0
102
RTVSPost2010PropOp35
 70
     1
102
RTVSPost2010Prop36
280
     0
102
RTVSPost2010PropOp36
 70
     1
102
RTVSPost2010Prop37
 90
       50
102
RTVSPost2010PropOp37
 70
     1
102
RTVSPost2010Prop38
140
0.0
102
RTVSPost2010PropOp38
 70
     1
102
RTVSPost2010Prop39
140
1.0
102
RTVSPost2010PropOp39
 70
     1
102
RTVSPost2010Prop40
 90
        0
102
RTVSPost2010PropOp40
 70
     1
102
RTVSPost2010Prop41ColorIndex
 90
       18
102
RTVSPost2010Prop41ColorRGB
 90
        0
102
RTVSPost2010PropOp41
 70
     1
102
RTVSPost2010Prop42
 90
       50
102
RTVSPost2010PropOp42
 70
     1
102
RTVSPost2010Prop43
 90
        3
102
RTVSPost2010PropOp43
 70
     1
102
RTVSPost2010Prop44ColorIndex
 90
        5
102
RTVSPost2010Prop44ColorRGB
 90
      255
102
RTVSPost2010PropOp44
 70
     1
102
RTVSPost2010Prop45
280
     0
102
RTVSPost2010PropOp45
 70
     1
102
RTVSPost2010Prop46
 90
       50
102
RTVSPost2010PropOp46
 70
     1
102
RTVSPost2010Prop47
 90
       50
102
RTVSPost2010PropOp47
 70
     1
102
RTVSPost2010Prop48
 90
       50
102
RTVSPost2010PropOp48
 70
     1
102
RTVSPost2010Prop49
280
     0
102
RTVSPost2010PropOp49
 70
     1
102
RTVSPost2010Prop50
 90
       50
102
RTVSPost2010PropOp50
 70
     1
102
RTVSPost2010Prop51ColorIndex
 90
      256
102
RTVSPost2010Prop51ColorRGB
 90
-16777216
102
RTVSPost2010PropOp51
 70
     0
102
RTVSPost2010Prop52
140
1.0
102
RTVSPost2010PropOp52
 70
     0
102
RTVSPost2010Prop53
 90
        2
102
RTVSPost2010PropOp53
 70
     1
102
RTVSPost2010Prop54
  1
strokes_ogs.tif
102
RTVSPost2010PropOp54
 70
     1
102
RTVSPost2010Prop55
280
     0
102
RTVSPost2010PropOp55
 70
     1
102
RTVSPost2010Prop56
140
1.0
102
RTVSPost2010PropOp56
 70
     1
102
RTVSPost2010Prop57
140
1.0
102
RTVSPost2010PropOp57
 70
     1
  0
XRECORD
  5
3F1
102
{ACAD_REACTORS
330
3F0
102
}
330
3F0
100
AcDbXrecord
280
     1
102
RTVSPropertyOp0
 70
     1
102
RTVSPropertyOp1
 70
     1
102
RTVSPropertyOp2
 70
     1
102
RTVSPropertyOp3
 70
     1
102
RTVSPropertyOp4
 70
     1
102
RTVSPropertyOp5
 70
     1
102
RTVSPropertyOp6
 70
     1
102
RTVSPropertyOp7
 70
     1
102
RTVSPropertyOp8
 70
     1
102
RTVSPropertyOp9
 70
     1
102
RTVSPropertyOp10
 70
     1
102
RTVSPropertyOp11
 70
     1
102
RTVSPropertyOp12
 70
     1
102
RTVSPropertyOp13
 70
     1
102
RTVSPropertyOp14
 70
     1
102
RTVSPropertyOp15
 70
     1
102
RTVSPropertyOp16
 70
     1
102
RTVSPropertyOp17
 70
     1
102
RTVSPropertyOp18
 70
     1
102
RTVSPropertyOp19
 70
     1
102
RTVSPropertyOp20
 70
     1
102
RTVSPropertyOp21
 70
     1
102
RTVSPropertyOp22
 70
     1
102
RTVSPropertyOp23
 70
     1
102
RTVSPropertyOp24
 70
     1
102
RTVSPropertyOp25
 70
     1
102
RTVSPropertyOp26
 70
     1
102
RTVSPropertyOp27
 70
     1
102
RTVSPropertyOp28
 70
     1
102
RTVSPropertyOp29
 70
     1
102
RTVSPropertyOp30
 70
     1
102
RTVSPropertyOp31
 70
     1
102
RTVSPropertyOp32
 70
     1
102
RTVSPropertyOp33
 70
     1
102
RTVSPropertyOp34
 70
     1
102
RTVSPropertyOp35
 70
     1
102
RTVSPropertyOp36
 70
     1
102
RTVSPropertyOp37
 70
     1
102
RTVSPropertyOp38
 70
     1
102
RTVSPropertyOp39
 70
     1
102
RTVSPropertyOp40
 70
     1
102
RTVSPropertyOp41
 70
     1
102
RTVSPropertyOp42
 70
     1
102
RTVSPropertyOp43
 70
     1
102
RTVSPropertyOp44
 70
     1
102
RTVSPropertyOp45
 70
     1
102
RTVSPropertyOp46
 70
     1
102
RTVSPropertyOp47
 70
     1
102
RTVSPropertyOp48
 70
     1
102
RTVSPropertyOp49
 70
     1
102
RTVSPropertyOp50
 70
     1
102
RTVSPropertyOp51
 70
     0
102
RTVSPropertyOp52
 70
     0
102
RTVSPropertyOp53
 70
     1
102
RTVSPropertyOp54
 70
     1
102
RTVSPropertyOp55
 70
     1
102
RTVSPropertyOp56
 70
     1
102
RTVSPropertyOp57
 70
     1
102
RTVSPost2010Prop28
280
     0
102
RTVSPost2010PropOp28
 70
     1
102
RTVSPost2010Prop29
280
     1
102
RTVSPost2010PropOp29
 70
     1
102
RTVSPost2010Prop30
280
     1
102
RTVSPost2010PropOp30
 70
     1
102
RTVSPost2010Prop31
280
     0
102
RTVSPost2010PropOp31
 70
     1
102
RTVSPost2010Prop32
280
     0
102
RTVSPost2010PropOp32
 70
     1
102
RTVSPost2010Prop33
280
     0
102
RTVSPost2010PropOp33
 70
     1
102
RTVSPost2010Prop34
280
     0
102
RTVSPost2010PropOp34
 70
     1
102
RTVSPost2010Prop35
280
     0
102
RTVSPost2010PropOp35
 70
     1
102
RTVSPost2010Prop36
280
     0
102
RTVSPost2010PropOp36
 70
     1
102
RTVSPost2010Prop37
 90
       50
102
RTVSPost2010PropOp37
 70
     1
102
RTVSPost2010Prop38
140
0.0
102
RTVSPost2010PropOp38
 70
     1
102
RTVSPost2010Prop39
140
1.0
102
RTVSPost2010PropOp39
 70
     1
102
RTVSPost2010Prop40
 90
        0
102
RTVSPost2010PropOp40
 70
     1
102
RTVSPost2010Prop41ColorIndex
 90
       18
102
RTVSPost2010Prop41ColorRGB
 90
        0
102
RTVSPost2010PropOp41
 70
     1
102
RTVSPost2010Prop42
 90
       50
102
RTVSPost2010PropOp42
 70
     1
102
RTVSPost2010Prop43
 90
        3
102
RTVSPost2010PropOp43
 70
     1
102
RTVSPost2010Prop44ColorIndex
 90
        5
102
RTVSPost2010Prop44ColorRGB
 90
      255
102
RTVSPost2010PropOp44
 70
     1
102
RTVSPost2010Prop45
280
     0
102
RTVSPost2010PropOp45
 70
     1
102
RTVSPost2010Prop46
 90
       50
102
RTVSPost2010PropOp46
 70
     1
102
RTVSPost2010Prop47
 90
       50
102
RTVSPost2010PropOp47
 70
     1
102
RTVSPost2010Prop48
 90
       50
102
RTVSPost2010PropOp48
 70
     1
102
RTVSPost2010Prop49
280
     0
102
RTVSPost2010PropOp49
 70
     1
102
RTVSPost2010Prop50
 90
       50
102
RTVSPost2010PropOp50
 70
     1
102
RTVSPost2010Prop51ColorIndex
 90
      256
102
RTVSPost2010Prop51ColorRGB
 90
-16777216
102
RTVSPost2010PropOp51
 70
     0
102
RTVSPost2010Prop52
140
1.0
102
RTVSPost2010PropOp52
 70
     0
102
RTVSPost2010Prop53
 90
        2
102
RTVSPost2010PropOp53
 70
     1
102
RTVSPost2010Prop54
  1
strokes_ogs.tif
102
RTVSPost2010PropOp54
 70
     1
102
RTVSPost2010Prop55
280
     0
102
RTVSPost2010PropOp55
 70
     1
102
RTVSPost2010Prop56
140
1.0
102
RTVSPost2010PropOp56
 70
     1
102
RTVSPost2010Prop57
140
1.0
102
RTVSPost2010PropOp57
 70
     1
  0
XRECORD
  5
3E1
102
{ACAD_REACTORS
330
3E0
102
}
330
3E0
100
AcDbXrecord
280
     1
102
RTVSPropertyOp0
 70
     1
102
RTVSPropertyOp1
 70
     1
102
RTVSPropertyOp2
 70
     1
102
RTVSPropertyOp3
 70
     1
102
RTVSPropertyOp4
 70
     1
102
RTVSPropertyOp5
 70
     1
102
RTVSPropertyOp6
 70
     1
102
RTVSPropertyOp7
 70
     1
102
RTVSPropertyOp8
 70
     1
102
RTVSPropertyOp9
 70
     1
102
RTVSPropertyOp10
 70
     1
102
RTVSPropertyOp11
 70
     1
102
RTVSPropertyOp12
 70
     1
102
RTVSPropertyOp13
 70
     1
102
RTVSPropertyOp14
 70
     1
102
RTVSPropertyOp15
 70
     1
102
RTVSPropertyOp16
 70
     1
102
RTVSPropertyOp17
 70
     1
102
RTVSPropertyOp18
 70
     1
102
RTVSPropertyOp19
 70
     1
102
RTVSPropertyOp20
 70
     1
102
RTVSPropertyOp21
 70
     1
102
RTVSPropertyOp22
 70
     1
102
RTVSPropertyOp23
 70
     1
102
RTVSPropertyOp24
 70
     1
102
RTVSPropertyOp25
 70
     1
102
RTVSPropertyOp26
 70
     1
102
RTVSPropertyOp27
 70
     1
102
RTVSPropertyOp28
 70
     1
102
RTVSPropertyOp29
 70
     1
102
RTVSPropertyOp30
 70
     1
102
RTVSPropertyOp31
 70
     1
102
RTVSPropertyOp32
 70
     1
102
RTVSPropertyOp33
 70
     1
102
RTVSPropertyOp34
 70
     1
102
RTVSPropertyOp35
 70
     1
102
RTVSPropertyOp36
 70
     1
102
RTVSPropertyOp37
 70
     1
102
RTVSPropertyOp38
 70
     1
102
RTVSPropertyOp39
 70
     1
102
RTVSPropertyOp40
 70
     1
102
RTVSPropertyOp41
 70
     1
102
RTVSPropertyOp42
 70
     1
102
RTVSPropertyOp43
 70
     1
102
RTVSPropertyOp44
 70
     1
102
RTVSPropertyOp45
 70
     1
102
RTVSPropertyOp46
 70
     1
102
RTVSPropertyOp47
 70
     1
102
RTVSPropertyOp48
 70
     1
102
RTVSPropertyOp49
 70
     1
102
RTVSPropertyOp50
 70
     1
102
RTVSPropertyOp51
 70
     0
102
RTVSPropertyOp52
 70
     0
102
RTVSPropertyOp53
 70
     1
102
RTVSPropertyOp54
 70
     1
102
RTVSPropertyOp55
 70
     1
102
RTVSPropertyOp56
 70
     1
102
RTVSPropertyOp57
 70
     1
102
RTVSPost2010Prop28
280
     0
102
RTVSPost2010PropOp28
 70
     1
102
RTVSPost2010Prop29
280
     1
102
RTVSPost2010PropOp29
 70
     1
102
RTVSPost2010Prop30
280
     1
102
RTVSPost2010PropOp30
 70
     1
102
RTVSPost2010Prop31
280
     0
102
RTVSPost2010PropOp31
 70
     1
102
RTVSPost2010Prop32
280
     0
102
RTVSPost2010PropOp32
 70
     1
102
RTVSPost2010Prop33
280
     0
102
RTVSPost2010PropOp33
 70
     1
102
RTVSPost2010Prop34
280
     0
102
RTVSPost2010PropOp34
 70
     1
102
RTVSPost2010Prop35
280
     0
102
RTVSPost2010PropOp35
 70
     1
102
RTVSPost2010Prop36
280
     0
102
RTVSPost2010PropOp36
 70
     1
102
RTVSPost2010Prop37
 90
       50
102
RTVSPost2010PropOp37
 70
     1
102
RTVSPost2010Prop38
140
0.0
102
RTVSPost2010PropOp38
 70
     1
102
RTVSPost2010Prop39
140
1.0
102
RTVSPost2010PropOp39
 70
     1
102
RTVSPost2010Prop40
 90
        0
102
RTVSPost2010PropOp40
 70
     1
102
RTVSPost2010Prop41ColorIndex
 90
       18
102
RTVSPost2010Prop41ColorRGB
 90
        0
102
RTVSPost2010PropOp41
 70
     1
102
RTVSPost2010Prop42
 90
       50
102
RTVSPost2010PropOp42
 70
     1
102
RTVSPost2010Prop43
 90
        3
102
RTVSPost2010PropOp43
 70
     1
102
RTVSPost2010Prop44ColorIndex
 90
        5
102
RTVSPost2010Prop44ColorRGB
 90
      255
102
RTVSPost2010PropOp44
 70
     1
102
RTVSPost2010Prop45
280
     0
102
RTVSPost2010PropOp45
 70
     1
102
RTVSPost2010Prop46
 90
       50
102
RTVSPost2010PropOp46
 70
     1
102
RTVSPost2010Prop47
 90
       50
102
RTVSPost2010PropOp47
 70
     1
102
RTVSPost2010Prop48
 90
       50
102
RTVSPost2010PropOp48
 70
     1
102
RTVSPost2010Prop49
280
     0
102
RTVSPost2010PropOp49
 70
     1
102
RTVSPost2010Prop50
 90
       50
102
RTVSPost2010PropOp50
 70
     1
102
RTVSPost2010Prop51ColorIndex
 90
      256
102
RTVSPost2010Prop51ColorRGB
 90
-16777216
102
RTVSPost2010PropOp51
 70
     0
102
RTVSPost2010Prop52
140
1.0
102
RTVSPost2010PropOp52
 70
     0
102
RTVSPost2010Prop53
 90
        2
102
RTVSPost2010PropOp53
 70
     1
102
RTVSPost2010Prop54
  1
strokes_ogs.tif
102
RTVSPost2010PropOp54
 70
     1
102
RTVSPost2010Prop55
280
     0
102
RTVSPost2010PropOp55
 70
     1
102
RTVSPost2010Prop56
140
1.0
102
RTVSPost2010PropOp56
 70
     1
102
RTVSPost2010Prop57
140
1.0
102
RTVSPost2010PropOp57
 70
     1
  0
XRECORD
  5
3D3
102
{ACAD_REACTORS
330
3D2
102
}
330
3D2
100
AcDbXrecord
280
     1
102
RTVSPropertyOp0
 70
     1
102
RTVSPropertyOp1
 70
     1
102
RTVSPropertyOp2
 70
     1
102
RTVSPropertyOp3
 70
     1
102
RTVSPropertyOp4
 70
     1
102
RTVSPropertyOp5
 70
     1
102
RTVSPropertyOp6
 70
     1
102
RTVSPropertyOp7
 70
     1
102
RTVSPropertyOp8
 70
     1
102
RTVSPropertyOp9
 70
     1
102
RTVSPropertyOp10
 70
     1
102
RTVSPropertyOp11
 70
     1
102
RTVSPropertyOp12
 70
     1
102
RTVSPropertyOp13
 70
     1
102
RTVSPropertyOp14
 70
     1
102
RTVSPropertyOp15
 70
     1
102
RTVSPropertyOp16
 70
     1
102
RTVSPropertyOp17
 70
     1
102
RTVSPropertyOp18
 70
     1
102
RTVSPropertyOp19
 70
     1
102
RTVSPropertyOp20
 70
     1
102
RTVSPropertyOp21
 70
     1
102
RTVSPropertyOp22
 70
     1
102
RTVSPropertyOp23
 70
     1
102
RTVSPropertyOp24
 70
     1
102
RTVSPropertyOp25
 70
     1
102
RTVSPropertyOp26
 70
     1
102
RTVSPropertyOp27
 70
     1
102
RTVSPropertyOp28
 70
     1
102
RTVSPropertyOp29
 70
     1
102
RTVSPropertyOp30
 70
     1
102
RTVSPropertyOp31
 70
     1
102
RTVSPropertyOp32
 70
     1
102
RTVSPropertyOp33
 70
     1
102
RTVSPropertyOp34
 70
     1
102
RTVSPropertyOp35
 70
     1
102
RTVSPropertyOp36
 70
     1
102
RTVSPropertyOp37
 70
     1
102
RTVSPropertyOp38
 70
     1
102
RTVSPropertyOp39
 70
     1
102
RTVSPropertyOp40
 70
     1
102
RTVSPropertyOp41
 70
     1
102
RTVSPropertyOp42
 70
     1
102
RTVSPropertyOp43
 70
     1
102
RTVSPropertyOp44
 70
     1
102
RTVSPropertyOp45
 70
     1
102
RTVSPropertyOp46
 70
     1
102
RTVSPropertyOp47
 70
     1
102
RTVSPropertyOp48
 70
     1
102
RTVSPropertyOp49
 70
     1
102
RTVSPropertyOp50
 70
     1
102
RTVSPropertyOp51
 70
     0
102
RTVSPropertyOp52
 70
     0
102
RTVSPropertyOp53
 70
     1
102
RTVSPropertyOp54
 70
     1
102
RTVSPropertyOp55
 70
     1
102
RTVSPropertyOp56
 70
     1
102
RTVSPropertyOp57
 70
     1
102
RTVSPost2010Prop28
280
     0
102
RTVSPost2010PropOp28
 70
     1
102
RTVSPost2010Prop29
280
     1
102
RTVSPost2010PropOp29
 70
     1
102
RTVSPost2010Prop30
280
     1
102
RTVSPost2010PropOp30
 70
     1
102
RTVSPost2010Prop31
280
     0
102
RTVSPost2010PropOp31
 70
     1
102
RTVSPost2010Prop32
280
     0
102
RTVSPost2010PropOp32
 70
     1
102
RTVSPost2010Prop33
280
     0
102
RTVSPost2010PropOp33
 70
     1
102
RTVSPost2010Prop34
280
     0
102
RTVSPost2010PropOp34
 70
     1
102
RTVSPost2010Prop35
280
     0
102
RTVSPost2010PropOp35
 70
     1
102
RTVSPost2010Prop36
280
     0
102
RTVSPost2010PropOp36
 70
     1
102
RTVSPost2010Prop37
 90
       50
102
RTVSPost2010PropOp37
 70
     1
102
RTVSPost2010Prop38
140
0.0
102
RTVSPost2010PropOp38
 70
     1
102
RTVSPost2010Prop39
140
1.0
102
RTVSPost2010PropOp39
 70
     1
102
RTVSPost2010Prop40
 90
        0
102
RTVSPost2010PropOp40
 70
     1
102
RTVSPost2010Prop41ColorIndex
 90
       18
102
RTVSPost2010Prop41ColorRGB
 90
        0
102
RTVSPost2010PropOp41
 70
     1
102
RTVSPost2010Prop42
 90
       50
102
RTVSPost2010PropOp42
 70
     1
102
RTVSPost2010Prop43
 90
        3
102
RTVSPost2010PropOp43
 70
     1
102
RTVSPost2010Prop44ColorIndex
 90
        5
102
RTVSPost2010Prop44ColorRGB
 90
      255
102
RTVSPost2010PropOp44
 70
     1
102
RTVSPost2010Prop45
280
     0
102
RTVSPost2010PropOp45
 70
     1
102
RTVSPost2010Prop46
 90
       50
102
RTVSPost2010PropOp46
 70
     1
102
RTVSPost2010Prop47
 90
       50
102
RTVSPost2010PropOp47
 70
     1
102
RTVSPost2010Prop48
 90
       50
102
RTVSPost2010PropOp48
 70
     1
102
RTVSPost2010Prop49
280
     0
102
RTVSPost2010PropOp49
 70
     1
102
RTVSPost2010Prop50
 90
       50
102
RTVSPost2010PropOp50
 70
     1
102
RTVSPost2010Prop51ColorIndex
 90
      256
102
RTVSPost2010Prop51ColorRGB
 90
-16777216
102
RTVSPost2010PropOp51
 70
     0
102
RTVSPost2010Prop52
140
1.0
102
RTVSPost2010PropOp52
 70
     0
102
RTVSPost2010Prop53
 90
        2
102
RTVSPost2010PropOp53
 70
     1
102
RTVSPost2010Prop54
  1
strokes_ogs.tif
102
RTVSPost2010PropOp54
 70
     1
102
RTVSPost2010Prop55
280
     0
102
RTVSPost2010PropOp55
 70
     1
102
RTVSPost2010Prop56
140
1.0
102
RTVSPost2010PropOp56
 70
     1
102
RTVSPost2010Prop57
140
1.0
102
RTVSPost2010PropOp57
 70
     1
  0
XRECORD
  5
3F3
102
{ACAD_REACTORS
330
3F2
102
}
330
3F2
100
AcDbXrecord
280
     1
102
RTVSPropertyOp0
 70
     1
102
RTVSPropertyOp1
 70
     1
102
RTVSPropertyOp2
 70
     1
102
RTVSPropertyOp3
 70
     1
102
RTVSPropertyOp4
 70
     1
102
RTVSPropertyOp5
 70
     1
102
RTVSPropertyOp6
 70
     1
102
RTVSPropertyOp7
 70
     1
102
RTVSPropertyOp8
 70
     1
102
RTVSPropertyOp9
 70
     1
102
RTVSPropertyOp10
 70
     1
102
RTVSPropertyOp11
 70
     1
102
RTVSPropertyOp12
 70
     1
102
RTVSPropertyOp13
 70
     1
102
RTVSPropertyOp14
 70
     1
102
RTVSPropertyOp15
 70
     1
102
RTVSPropertyOp16
 70
     1
102
RTVSPropertyOp17
 70
     1
102
RTVSPropertyOp18
 70
     1
102
RTVSPropertyOp19
 70
     1
102
RTVSPropertyOp20
 70
     1
102
RTVSPropertyOp21
 70
     1
102
RTVSPropertyOp22
 70
     1
102
RTVSPropertyOp23
 70
     1
102
RTVSPropertyOp24
 70
     1
102
RTVSPropertyOp25
 70
     1
102
RTVSPropertyOp26
 70
     1
102
RTVSPropertyOp27
 70
     1
102
RTVSPropertyOp28
 70
     1
102
RTVSPropertyOp29
 70
     1
102
RTVSPropertyOp30
 70
     1
102
RTVSPropertyOp31
 70
     1
102
RTVSPropertyOp32
 70
     1
102
RTVSPropertyOp33
 70
     1
102
RTVSPropertyOp34
 70
     1
102
RTVSPropertyOp35
 70
     1
102
RTVSPropertyOp36
 70
     1
102
RTVSPropertyOp37
 70
     1
102
RTVSPropertyOp38
 70
     1
102
RTVSPropertyOp39
 70
     1
102
RTVSPropertyOp40
 70
     1
102
RTVSPropertyOp41
 70
     1
102
RTVSPropertyOp42
 70
     1
102
RTVSPropertyOp43
 70
     1
102
RTVSPropertyOp44
 70
     1
102
RTVSPropertyOp45
 70
     1
102
RTVSPropertyOp46
 70
     1
102
RTVSPropertyOp47
 70
     1
102
RTVSPropertyOp48
 70
     1
102
RTVSPropertyOp49
 70
     1
102
RTVSPropertyOp50
 70
     1
102
RTVSPropertyOp51
 70
     0
102
RTVSPropertyOp52
 70
     0
102
RTVSPropertyOp53
 70
     1
102
RTVSPropertyOp54
 70
     1
102
RTVSPropertyOp55
 70
     1
102
RTVSPropertyOp56
 70
     1
102
RTVSPropertyOp57
 70
     1
102
RTVSPost2010Prop28
280
     0
102
RTVSPost2010PropOp28
 70
     1
102
RTVSPost2010Prop29
280
     1
102
RTVSPost2010PropOp29
 70
     1
102
RTVSPost2010Prop30
280
     1
102
RTVSPost2010PropOp30
 70
     1
102
RTVSPost2010Prop31
280
     0
102
RTVSPost2010PropOp31
 70
     1
102
RTVSPost2010Prop32
280
     0
102
RTVSPost2010PropOp32
 70
     1
102
RTVSPost2010Prop33
280
     0
102
RTVSPost2010PropOp33
 70
     1
102
RTVSPost2010Prop34
280
     0
102
RTVSPost2010PropOp34
 70
     1
102
RTVSPost2010Prop35
280
     0
102
RTVSPost2010PropOp35
 70
     1
102
RTVSPost2010Prop36
280
     0
102
RTVSPost2010PropOp36
 70
     1
102
RTVSPost2010Prop37
 90
       50
102
RTVSPost2010PropOp37
 70
     1
102
RTVSPost2010Prop38
140
0.0
102
RTVSPost2010PropOp38
 70
     1
102
RTVSPost2010Prop39
140
1.0
102
RTVSPost2010PropOp39
 70
     1
102
RTVSPost2010Prop40
 90
        0
102
RTVSPost2010PropOp40
 70
     1
102
RTVSPost2010Prop41ColorIndex
 90
       18
102
RTVSPost2010Prop41ColorRGB
 90
        0
102
RTVSPost2010PropOp41
 70
     1
102
RTVSPost2010Prop42
 90
       50
102
RTVSPost2010PropOp42
 70
     1
102
RTVSPost2010Prop43
 90
        3
102
RTVSPost2010PropOp43
 70
     1
102
RTVSPost2010Prop44ColorIndex
 90
        5
102
RTVSPost2010Prop44ColorRGB
 90
      255
102
RTVSPost2010PropOp44
 70
     1
102
RTVSPost2010Prop45
280
     0
102
RTVSPost2010PropOp45
 70
     1
102
RTVSPost2010Prop46
 90
       50
102
RTVSPost2010PropOp46
 70
     1
102
RTVSPost2010Prop47
 90
       50
102
RTVSPost2010PropOp47
 70
     1
102
RTVSPost2010Prop48
 90
       50
102
RTVSPost2010PropOp48
 70
     1
102
RTVSPost2010Prop49
280
     0
102
RTVSPost2010PropOp49
 70
     1
102
RTVSPost2010Prop50
 90
       50
102
RTVSPost2010PropOp50
 70
     1
102
RTVSPost2010Prop51ColorIndex
 90
      256
102
RTVSPost2010Prop51ColorRGB
 90
-16777216
102
RTVSPost2010PropOp51
 70
     0
102
RTVSPost2010Prop52
140
1.0
102
RTVSPost2010PropOp52
 70
     0
102
RTVSPost2010Prop53
 90
        2
102
RTVSPost2010PropOp53
 70
     1
102
RTVSPost2010Prop54
  1
strokes_ogs.tif
102
RTVSPost2010PropOp54
 70
     1
102
RTVSPost2010Prop55
280
     0
102
RTVSPost2010PropOp55
 70
     1
102
RTVSPost2010Prop56
140
1.0
102
RTVSPost2010PropOp56
 70
     1
102
RTVSPost2010Prop57
140
1.0
102
RTVSPost2010PropOp57
 70
     1
  0
ENDSEC
  0
EOF
