  0
SECTION
  2
HEADER
  9
$ACADVER
  1
AC1004
  9
$INSBASE
 10
56.29367
 20
-261.348832
  9
$EXTMIN
 10
-2.429583
 20
-1.015556
  9
$EXTMAX
 10
2.012068
 20
1.013921
  9
$LIMMIN
 10
-2.742636
 20
-3.001695
  9
$LIMMAX
 10
4.701661
 20
2.218085
  9
$VIEWCTR
 10
6.0
 20
4.5
  9
$VIEWSIZE
 40
9.0
  9
$SNAPMODE
 70
     0
  9
$SNAPUNIT
 10
66.29367
 20
-251.348832
  9
$SNAPBASE
 10
0.0
 20
0.0
  9
$SNAPANG
 50
0.0
  9
$SNAPSTYLE
 70
     0
  9
$SNAPISOPAIR
 70
     0
  9
$GRIDMODE
 70
     0
  9
$GRIDUNIT
 10
66.29367
 20
-251.348832
  9
$ORTHOMODE
 70
     0
  9
$REGENMODE
 70
     1
  9
$FILLMODE
 70
     1
  9
$QTEXTMODE
 70
     0
  9
$DRAGMODE
 70
     2
  9
$LTSCALE
 40
1.0
  9
$OSMODE
 70
     0
  9
$ATTMODE
 70
     1
  9
$TEXTSIZE
 40
0.2
  9
$TRACEWID
 40
0.05
  9
$TEXTSTYLE
  7
STANDARD
  9
$CLAYER
  8
LAYER01
  9
$CELTYPE
  6
CONTINUOUS
  9
$CECOLOR
 62
     7
  9
$DIMSCALE
 40
1.0
  9
$DIMASZ
 40
0.18
  9
$DIMEXO
 40
0.0625
  9
$DIMDLI
 40
0.38
  9
$DIMRND
 40
0.0
  9
$DIMDLE
 40
0.0
  9
$DIMEXE
 40
0.18
  9
$DIMTP
 40
0.0
  9
$DIMTM
 40
0.0
  9
$DIMTXT
 40
0.18
  9
$DIMCEN
 40
0.09
  9
$DIMTSZ
 40
0.0
  9
$DIMTOL
 70
     0
  9
$DIMLIM
 70
     0
  9
$DIMTIH
 70
     1
  9
$DIMTOH
 70
     1
  9
$DIMSE1
 70
     0
  9
$DIMSE2
 70
     0
  9
$DIMTAD
 70
     0
  9
$DIMZIN
 70
     0
  9
$DIMBLK
  1

  9
$DIMASO
 70
     1
  9
$DIMSHO
 70
     1
  9
$DIMPOST
  1

  9
$DIMAPOST
  1

  9
$DIMALT
 70
     0
  9
$DIMALTD
 70
     2
  9
$DIMALTF
 40
25.4
  9
$DIMLFAC
 40
1.0
  9
$LUNITS
 70
     2
  9
$LUPREC
 70
     4
  9
$AXISMODE
 70
     0
  9
$AXISUNIT
 10
0.0
 20
0.0
  9
$SKETCHINC
 40
0.1
  9
$FILLETRAD
 40
10.0
  9
$AUNITS
 70
     0
  9
$AUPREC
 70
     0
  9
$MENU
  1
acad
  9
$ELEVATION
 40
0.0
  9
$THICKNESS
 40
0.0
  9
$VIEWDIR
 10
0.0
 20
0.0
 30
1.0
  9
$LIMCHECK
 70
     0
  9
$BLIPMODE
 70
     1
  9
$CHAMFERA
 40
10.0
  9
$CHAMFERB
 40
10.0
  9
$FASTZOOM
 70
     1
  9
$SKPOLY
 70
     0
  9
$TDCREATE
 40
0.0
  9
$TDUPDATE
 40
0.0
  9
$TDINDWG
 40
0.0
  9
$TDUSRTIMER
 40
0.0
  9
$USRTIMER
 70
     1
  9
$ANGBASE
 50
0.0
  9
$ANGDIR
 70
     0
  9
$PDMODE
 70
     0
  9
$PDSIZE
 40
0.0
  9
$PLINEWID
 40
0.0
  9
$COORDS
 70
     1
  9
$SPLFRAME
 70
     0
  9
$SPLINESEGS
 70
    10
  9
$ATTDIA
 70
     0
  9
$ATTREQ
 70
     1
  9
$USERI1
 70
     0
  9
$USERI2
 70
     0
  9
$USERI3
 70
     0
  9
$USERI4
 70
     0
  9
$USERI5
 70
     0
  9
$USERR1
 40
0.0
  9
$USERR2
 40
0.0
  9
$USERR3
 40
0.0
  9
$USERR4
 40
0.0
  9
$USERR5
 40
0.0
  0
ENDSEC
  0
SECTION
  2
TABLES
  0
TABLE
  2
LTYPE
 70
    11
  0
LTYPE
  2
CONTINUOUS
 70
     0
  3
Solid line
 72
    65
 73
     0
 40
0.0
  0
LTYPE
  2
GESTRICHELT
 70
     0
  3
__ __ __ __ __ __ __ __ __ __ __ __ __ __ __
 72
    65
 73
     2
 40
0.75
 49
0.5
 49
-0.25
  0
LTYPE
  2
VERDECKT
 70
     0
  3
_ _ _ _ _ _ _ _ _ _ _ _ _ _ _ _ _ _ _ _ _ _ 
 72
    65
 73
     2
 40
0.25
 49
0.125
 49
-0.125
  0
LTYPE
  2
MITTELLINIE
 70
     0
  3
____ _ ____ _ ____ _ ____ _ ____ _ ____ _ __
 72
    65
 73
     4
 40
2.0
 49
1.25
 49
-0.25
 49
0.25
 49
-0.25
  0
LTYPE
  2
PHANTOM
 70
     0
  3
_____ _ _ _____ _ _ _____ _ _ _____ _ _ ____
 72
    65
 73
     6
 40
2.5
 49
1.25
 49
-0.25
 49
0.25
 49
-0.25
 49
0.25
 49
-0.25
  0
LTYPE
  2
PUNKTIERT
 70
     0
  3
............................................
 72
    65
 73
     2
 40
0.25
 49
0.0
 49
-0.25
  0
LTYPE
  2
STRICHPUNKTIERT
 70
     0
  3
__ . __ . __ . __ . __ . __ . __ . __ . __ .
 72
    65
 73
     4
 40
1.0
 49
0.5
 49
-0.25
 49
0.0
 49
-0.25
  0
LTYPE
  2
RAND
 70
     0
  3
__ __ . __ __ . __ __ . __ __ . __ __ . __ _
 72
    65
 73
     6
 40
1.75
 49
0.5
 49
-0.25
 49
0.5
 49
-0.25
 49
0.0
 49
-0.25
  0
LTYPE
  2
TRENNLINIE
 70
     0
  3
__ . . __ . . __ . . __ . . __ . . __ . . __
 72
    65
 73
     6
 40
1.25
 49
0.5
 49
-0.25
 49
0.0
 49
-0.25
 49
0.0
 49
-0.25
  0
LTYPE
  2
ENG_PUNKTIERT
 70
     0
  3
Schließen                                   
 72
    65
 73
     2
 40
0.1
 49
0.05
 49
-0.05
  0
LTYPE
  2
CLOSE
 70
     0
  3
                                            
 72
    65
 73
     0
 40
0.0
  0
ENDTAB
  0
TABLE
  2
LAYER
 70
    11
  0
LAYER
  2
0
 70
     0
 62
     7
  6
CONTINUOUS
  0
LAYER
  2
LAYER01
 70
     0
 62
     7
  6
CONTINUOUS
  0
LAYER
  2
LAYER02
 70
     0
 62
     7
  6
CONTINUOUS
  0
LAYER
  2
LAYER03
 70
     0
 62
     7
  6
CONTINUOUS
  0
LAYER
  2
LAYER04
 70
     0
 62
     7
  6
CONTINUOUS
  0
LAYER
  2
LAYER05
 70
     0
 62
     7
  6
CONTINUOUS
  0
LAYER
  2
LAYER06
 70
     0
 62
     7
  6
CONTINUOUS
  0
LAYER
  2
LAYER07
 70
     0
 62
     7
  6
CONTINUOUS
  0
LAYER
  2
LAYER08
 70
     0
 62
     7
  6
CONTINUOUS
  0
LAYER
  2
LAYER09
 70
     0
 62
     7
  6
CONTINUOUS
  0
LAYER
  2
LAYER10
 70
     0
 62
     7
  6
CONTINUOUS
  0
ENDTAB
  0
TABLE
  2
STYLE
 70
     1
  0
STYLE
  2
STANDARD
 70
     0
 40
0.0
 41
1.0
 50
0.0
 71
     0
 42
0.2
  3
txt
  4

  0
ENDTAB
  0
TABLE
  2
VIEW
 70
     0
  0
ENDTAB
  0
ENDSEC
  0
SECTION
  2
BLOCKS
  0
BLOCK
  8
0
  2
SKETCH-G1
 70
     0
 10
0.0
 20
0.0
  0
POLYLINE
  8
LAYER01
  6
CONTINUOUS
 62
     5
 66
     1
  0
VERTEX
  8
LAYER01
 10
0.877677
 20
-0.722067
  0
VERTEX
  8
LAYER01
 10
0.740009
 20
-0.709964
  0
VERTEX
  8
LAYER01
 10
0.564521
 20
-0.68122
  0
VERTEX
  8
LAYER01
 10
0.06226
 20
-0.587425
  0
VERTEX
  8
LAYER01
 10
-0.096587
 20
-0.560194
  0
VERTEX
  8
LAYER01
 10
-0.179793
 20
-0.551117
  0
VERTEX
  8
LAYER01
 10
-0.423359
 20
-0.543552
  0
SEQEND
  8
LAYER01
  0
POLYLINE
  8
LAYER01
  6
CONTINUOUS
 62
     5
 66
     1
  0
VERTEX
  8
LAYER01
 10
-0.424872
 20
-0.52086
  0
VERTEX
  8
LAYER01
 10
-0.197947
 20
-0.528424
  0
VERTEX
  8
LAYER01
 10
-0.090536
 20
-0.539014
  0
VERTEX
  8
LAYER01
 10
0.080414
 20
-0.567758
  0
SEQEND
  8
LAYER01
  0
POLYLINE
  8
LAYER01
  6
CONTINUOUS
 62
     5
 66
     1
  0
VERTEX
  8
LAYER01
 10
-0.54136
 20
-0.62222
  0
VERTEX
  8
LAYER01
 10
-0.173742
 20
-0.631297
  0
VERTEX
  8
LAYER01
 10
-0.060279
 20
-0.638861
  0
VERTEX
  8
LAYER01
 10
0.224133
 20
-0.685759
  0
VERTEX
  8
LAYER01
 10
0.815651
 20
-0.79317
  0
SEQEND
  8
LAYER01
  0
POLYLINE
  8
LAYER01
  6
CONTINUOUS
 62
     5
 66
     1
  0
VERTEX
  8
LAYER01
 10
0.290698
 20
-0.797708
  0
VERTEX
  8
LAYER01
 10
0.292211
 20
-0.7614
  0
VERTEX
  8
LAYER01
 10
0.252877
 20
-0.728118
  0
VERTEX
  8
LAYER01
 10
0.196902
 20
-0.696348
  0
VERTEX
  8
LAYER01
 10
-0.040612
 20
-0.66004
  0
VERTEX
  8
LAYER01
 10
-0.176767
 20
-0.644912
  0
VERTEX
  8
LAYER01
 10
-0.526232
 20
-0.637348
  0
SEQEND
  8
LAYER01
  0
POLYLINE
  8
LAYER01
  6
CONTINUOUS
 62
     5
 66
     1
  0
VERTEX
  8
LAYER01
 10
0.263467
 20
-0.799221
  0
VERTEX
  8
LAYER01
 10
-0.526232
 20
-0.796195
  0
SEQEND
  8
LAYER01
  0
POLYLINE
  8
LAYER01
  6
CONTINUOUS
 62
     5
 66
     1
  0
VERTEX
  8
LAYER01
 10
0.255903
 20
-0.809811
  0
VERTEX
  8
LAYER01
 10
-0.527745
 20
-0.806785
  0
SEQEND
  8
LAYER01
  0
POLYLINE
  8
LAYER01
  6
CONTINUOUS
 62
     5
 66
     1
  0
VERTEX
  8
LAYER01
 10
0.199928
 20
-0.899068
  0
VERTEX
  8
LAYER01
 10
-0.234255
 20
-0.897555
  0
VERTEX
  8
LAYER01
 10
-0.538334
 20
-0.896042
  0
SEQEND
  8
LAYER01
  0
POLYLINE
  8
LAYER01
  6
CONTINUOUS
 62
     5
 66
     1
  0
VERTEX
  8
LAYER01
 10
-0.511514
 20
-0.876215
  0
VERTEX
  8
LAYER01
 10
-0.351947
 20
-0.87945
  0
VERTEX
  8
LAYER01
 10
-0.339009
 20
-0.89077
  0
VERTEX
  8
LAYER01
 10
-0.288875
 20
-0.894544
  0
VERTEX
  8
LAYER01
 10
-0.169739
 20
-0.895622
  0
VERTEX
  8
LAYER01
 10
-0.130925
 20
-0.890231
  0
VERTEX
  8
LAYER01
 10
-0.101276
 20
-0.881067
  0
VERTEX
  8
LAYER01
 10
-0.11637
 20
-0.871903
  0
VERTEX
  8
LAYER01
 10
-0.155723
 20
-0.869746
  0
VERTEX
  8
LAYER01
 10
-0.177825
 20
-0.878911
  0
VERTEX
  8
LAYER01
 10
-0.218795
 20
-0.88484
  0
VERTEX
  8
LAYER01
 10
-0.277015
 20
-0.882684
  0
VERTEX
  8
LAYER01
 10
-0.300196
 20
-0.874059
  0
VERTEX
  8
LAYER01
 10
-0.315829
 20
-0.869746
  0
VERTEX
  8
LAYER01
 10
-0.355721
 20
-0.871363
  0
VERTEX
  8
LAYER01
 10
-0.353025
 20
-0.87945
  0
SEQEND
  8
LAYER01
  0
POLYLINE
  8
LAYER01
  6
CONTINUOUS
 62
     5
 66
     1
  0
VERTEX
  8
LAYER01
 10
-0.317446
 20
-0.869207
  0
VERTEX
  8
LAYER01
 10
-0.302352
 20
-0.862199
  0
VERTEX
  8
LAYER01
 10
-0.251679
 20
-0.853574
  0
VERTEX
  8
LAYER01
 10
-0.197232
 20
-0.854113
  0
VERTEX
  8
LAYER01
 10
-0.164887
 20
-0.860043
  0
VERTEX
  8
LAYER01
 10
-0.149793
 20
-0.868668
  0
SEQEND
  8
LAYER01
  0
POLYLINE
  8
LAYER01
  6
CONTINUOUS
 62
     5
 66
     1
  0
VERTEX
  8
LAYER01
 10
0.877677
 20
0.720432
  0
VERTEX
  8
LAYER01
 10
0.740009
 20
0.708329
  0
VERTEX
  8
LAYER01
 10
0.564521
 20
0.679585
  0
VERTEX
  8
LAYER01
 10
0.06226
 20
0.585789
  0
VERTEX
  8
LAYER01
 10
-0.096587
 20
0.558558
  0
VERTEX
  8
LAYER01
 10
-0.179793
 20
0.549481
  0
VERTEX
  8
LAYER01
 10
-0.423359
 20
0.541917
  0
SEQEND
  8
LAYER01
  0
POLYLINE
  8
LAYER01
  6
CONTINUOUS
 62
     5
 66
     1
  0
VERTEX
  8
LAYER01
 10
-0.424872
 20
0.519225
  0
VERTEX
  8
LAYER01
 10
-0.197947
 20
0.526789
  0
VERTEX
  8
LAYER01
 10
-0.090536
 20
0.537379
  0
VERTEX
  8
LAYER01
 10
0.080414
 20
0.566123
  0
SEQEND
  8
LAYER01
  0
POLYLINE
  8
LAYER01
  6
CONTINUOUS
 62
     5
 66
     1
  0
VERTEX
  8
LAYER01
 10
-0.54136
 20
0.620585
  0
VERTEX
  8
LAYER01
 10
-0.173742
 20
0.629662
  0
VERTEX
  8
LAYER01
 10
-0.060279
 20
0.637226
  0
VERTEX
  8
LAYER01
 10
0.224133
 20
0.684124
  0
VERTEX
  8
LAYER01
 10
0.815651
 20
0.791535
  0
SEQEND
  8
LAYER01
  0
POLYLINE
  8
LAYER01
  6
CONTINUOUS
 62
     5
 66
     1
  0
VERTEX
  8
LAYER01
 10
0.290698
 20
0.796073
  0
VERTEX
  8
LAYER01
 10
0.292211
 20
0.759765
  0
VERTEX
  8
LAYER01
 10
0.252877
 20
0.726483
  0
VERTEX
  8
LAYER01
 10
0.196902
 20
0.694713
  0
VERTEX
  8
LAYER01
 10
-0.040612
 20
0.658405
  0
VERTEX
  8
LAYER01
 10
-0.176767
 20
0.643277
  0
VERTEX
  8
LAYER01
 10
-0.526232
 20
0.635713
  0
SEQEND
  8
LAYER01
  0
POLYLINE
  8
LAYER01
  6
CONTINUOUS
 62
     5
 66
     1
  0
VERTEX
  8
LAYER01
 10
0.263467
 20
0.797586
  0
VERTEX
  8
LAYER01
 10
-0.526232
 20
0.79456
  0
SEQEND
  8
LAYER01
  0
POLYLINE
  8
LAYER01
  6
CONTINUOUS
 62
     5
 66
     1
  0
VERTEX
  8
LAYER01
 10
0.255903
 20
0.808176
  0
VERTEX
  8
LAYER01
 10
-0.527745
 20
0.80515
  0
SEQEND
  8
LAYER01
  0
POLYLINE
  8
LAYER01
  6
CONTINUOUS
 62
     5
 66
     1
  0
VERTEX
  8
LAYER01
 10
0.199928
 20
0.897433
  0
VERTEX
  8
LAYER01
 10
-0.234255
 20
0.89592
  0
VERTEX
  8
LAYER01
 10
-0.538334
 20
0.894407
  0
SEQEND
  8
LAYER01
  0
POLYLINE
  8
LAYER01
  6
CONTINUOUS
 62
     5
 66
     1
  0
VERTEX
  8
LAYER01
 10
-0.511514
 20
0.87458
  0
VERTEX
  8
LAYER01
 10
-0.351947
 20
0.877815
  0
VERTEX
  8
LAYER01
 10
-0.339009
 20
0.889135
  0
VERTEX
  8
LAYER01
 10
-0.288875
 20
0.892909
  0
VERTEX
  8
LAYER01
 10
-0.169739
 20
0.893987
  0
VERTEX
  8
LAYER01
 10
-0.130925
 20
0.888596
  0
VERTEX
  8
LAYER01
 10
-0.101276
 20
0.879432
  0
VERTEX
  8
LAYER01
 10
-0.11637
 20
0.870267
  0
VERTEX
  8
LAYER01
 10
-0.155723
 20
0.868111
  0
VERTEX
  8
LAYER01
 10
-0.177825
 20
0.877275
  0
VERTEX
  8
LAYER01
 10
-0.218795
 20
0.883205
  0
VERTEX
  8
LAYER01
 10
-0.277015
 20
0.881049
  0
VERTEX
  8
LAYER01
 10
-0.300196
 20
0.872424
  0
VERTEX
  8
LAYER01
 10
-0.315829
 20
0.868111
  0
VERTEX
  8
LAYER01
 10
-0.355721
 20
0.869728
  0
VERTEX
  8
LAYER01
 10
-0.353025
 20
0.877815
  0
SEQEND
  8
LAYER01
  0
POLYLINE
  8
LAYER01
  6
CONTINUOUS
 62
     5
 66
     1
  0
VERTEX
  8
LAYER01
 10
-0.317446
 20
0.867572
  0
VERTEX
  8
LAYER01
 10
-0.302352
 20
0.860564
  0
VERTEX
  8
LAYER01
 10
-0.251679
 20
0.851939
  0
VERTEX
  8
LAYER01
 10
-0.197232
 20
0.852478
  0
VERTEX
  8
LAYER01
 10
-0.164887
 20
0.858408
  0
VERTEX
  8
LAYER01
 10
-0.149793
 20
0.867033
  0
SEQEND
  8
LAYER01
  0
POLYLINE
  8
LAYER01
  6
CONTINUOUS
 62
     5
 66
     1
  0
VERTEX
  8
LAYER01
 10
1.861913
 20
-0.347777
  0
VERTEX
  8
LAYER01
 10
1.757156
 20
-0.466939
  0
VERTEX
  8
LAYER01
 10
1.643232
 20
-0.569077
  0
VERTEX
  8
LAYER01
 10
1.569902
 20
-0.625384
  0
VERTEX
  8
LAYER01
 10
1.484786
 20
-0.671216
  0
VERTEX
  8
LAYER01
 10
1.415385
 20
-0.703952
  0
VERTEX
  8
LAYER01
 10
1.344673
 20
-0.727523
  0
VERTEX
  8
LAYER01
 10
1.267415
 20
-0.744546
  0
VERTEX
  8
LAYER01
 10
1.120754
 20
-0.764188
  0
VERTEX
  8
LAYER01
 10
0.780293
 20
-0.78383
  0
SEQEND
  8
LAYER01
  0
POLYLINE
  8
LAYER01
  6
CONTINUOUS
 62
     5
 66
     1
  0
VERTEX
  8
LAYER01
 10
1.902507
 20
-0.38837
  0
VERTEX
  8
LAYER01
 10
1.884174
 20
-0.423726
  0
VERTEX
  8
LAYER01
 10
1.834414
 20
-0.478724
  0
VERTEX
  8
LAYER01
 10
1.730966
 20
-0.578243
  0
VERTEX
  8
LAYER01
 10
1.607876
 20
-0.672525
  0
VERTEX
  8
LAYER01
 10
1.474311
 20
-0.756331
  0
VERTEX
  8
LAYER01
 10
1.419313
 20
-0.779901
  0
VERTEX
  8
LAYER01
 10
1.412766
 20
-0.800853
  0
VERTEX
  8
LAYER01
 10
1.416694
 20
-0.824423
  0
VERTEX
  8
LAYER01
 10
1.448121
 20
-0.837518
  0
VERTEX
  8
LAYER01
 10
1.504428
 20
-0.844065
  0
VERTEX
  8
LAYER01
 10
1.568592
 20
-0.834899
  0
VERTEX
  8
LAYER01
 10
1.632756
 20
-0.800853
  0
VERTEX
  8
LAYER01
 10
1.707396
 20
-0.739308
  0
VERTEX
  8
LAYER01
 10
1.77025
 20
-0.633241
  0
VERTEX
  8
LAYER01
 10
1.809535
 20
-0.544197
  0
VERTEX
  8
LAYER01
 10
1.805606
 20
-0.508842
  0
SEQEND
  8
LAYER01
  0
POLYLINE
  8
LAYER01
  6
CONTINUOUS
 62
     5
 66
     1
  0
VERTEX
  8
LAYER01
 10
1.89334
 20
-0.443368
  0
VERTEX
  8
LAYER01
 10
1.838343
 20
-0.595266
  0
VERTEX
  8
LAYER01
 10
1.79644
 20
-0.673835
  0
VERTEX
  8
LAYER01
 10
1.740133
 20
-0.739308
  0
VERTEX
  8
LAYER01
 10
1.669421
 20
-0.8074
  0
VERTEX
  8
LAYER01
 10
1.607876
 20
-0.840137
  0
VERTEX
  8
LAYER01
 10
1.539784
 20
-0.859779
  0
VERTEX
  8
LAYER01
 10
1.433717
 20
-0.878112
  0
SEQEND
  8
LAYER01
  0
POLYLINE
  8
LAYER01
  6
CONTINUOUS
 62
     5
 66
     1
  0
VERTEX
  8
LAYER01
 10
1.416694
 20
-0.779901
  0
VERTEX
  8
LAYER01
 10
1.160038
 20
-0.794306
  0
VERTEX
  8
LAYER01
 10
1.05659
 20
-0.796925
  0
VERTEX
  8
LAYER01
 10
1.030401
 20
-0.792996
  0
VERTEX
  8
LAYER01
 10
0.974094
 20
-0.769426
  0
VERTEX
  8
LAYER01
 10
0.900764
 20
-0.714428
  0
SEQEND
  8
LAYER01
  0
POLYLINE
  8
LAYER01
  6
CONTINUOUS
 62
     5
 66
     1
 70
     1
  0
VERTEX
  8
LAYER01
 10
0.354237
 20
-0.729631
  0
VERTEX
  8
LAYER01
 10
0.448032
 20
-0.78258
  0
VERTEX
  8
LAYER01
 10
0.690086
 20
-0.785606
  0
VERTEX
  8
LAYER01
 10
0.552418
 20
-0.759887
  0
VERTEX
  8
LAYER01
 10
0.333057
 20
-0.716015
  0
SEQEND
  8
LAYER01
  0
POLYLINE
  8
LAYER01
  6
CONTINUOUS
 62
     5
 66
     1
  0
VERTEX
  8
LAYER01
 10
0.809599
 20
-0.799221
  0
VERTEX
  8
LAYER01
 10
0.408699
 20
-0.797708
  0
VERTEX
  8
LAYER01
 10
0.239262
 20
-0.690297
  0
SEQEND
  8
LAYER01
  0
POLYLINE
  8
LAYER01
  6
CONTINUOUS
 62
     5
 66
     1
  0
VERTEX
  8
LAYER01
 10
0.568159
 20
-0.815257
  0
VERTEX
  8
LAYER01
 10
1.112897
 20
-0.811329
  0
VERTEX
  8
LAYER01
 10
1.415385
 20
-0.80871
  0
VERTEX
  8
LAYER01
 10
1.510976
 20
-0.798234
  0
VERTEX
  8
LAYER01
 10
1.589544
 20
-0.781211
  0
VERTEX
  8
LAYER01
 10
1.631447
 20
-0.75764
  0
VERTEX
  8
LAYER01
 10
1.678588
 20
-0.724904
  0
VERTEX
  8
LAYER01
 10
1.736204
 20
-0.669906
  0
SEQEND
  8
LAYER01
  0
POLYLINE
  8
LAYER01
  6
CONTINUOUS
 62
     5
 66
     1
  0
VERTEX
  8
LAYER01
 10
1.963808
 20
0.000504
  0
VERTEX
  8
LAYER01
 10
1.961433
 20
-0.063622
  0
VERTEX
  8
LAYER01
 10
1.953576
 20
-0.150047
  0
VERTEX
  8
LAYER01
 10
1.937862
 20
-0.260043
  0
VERTEX
  8
LAYER01
 10
1.89465
 20
-0.453844
  0
VERTEX
  8
LAYER01
 10
1.856675
 20
-0.582172
  0
VERTEX
  8
LAYER01
 10
1.835724
 20
-0.645026
  0
VERTEX
  8
LAYER01
 10
1.799059
 20
-0.697405
  0
VERTEX
  8
LAYER01
 10
1.745371
 20
-0.765497
  0
VERTEX
  8
LAYER01
 10
1.690373
 20
-0.813948
  0
VERTEX
  8
LAYER01
 10
1.645851
 20
-0.844065
  0
VERTEX
  8
LAYER01
 10
1.580378
 20
-0.867636
  0
VERTEX
  8
LAYER01
 10
1.490024
 20
-0.887278
  0
VERTEX
  8
LAYER01
 10
1.319793
 20
-0.901682
  0
VERTEX
  8
LAYER01
 10
1.177061
 20
-0.90561
  0
VERTEX
  8
LAYER01
 10
0.840528
 20
-0.904301
  0
VERTEX
  8
LAYER01
 10
0.691249
 20
-0.904301
  0
VERTEX
  8
LAYER01
 10
0.593039
 20
-0.899063
  0
SEQEND
  8
LAYER01
  0
POLYLINE
  8
LAYER01
  6
CONTINUOUS
 62
     5
 66
     1
 70
     1
  0
VERTEX
  8
LAYER01
 10
1.950957
 20
-0.017791
  0
VERTEX
  8
LAYER01
 10
1.91953
 20
-0.025648
  0
VERTEX
  8
LAYER01
 10
1.907745
 20
-0.042671
  0
VERTEX
  8
LAYER01
 10
1.885484
 20
-0.173618
  0
VERTEX
  8
LAYER01
 10
1.867151
 20
-0.313731
  0
VERTEX
  8
LAYER01
 10
1.860604
 20
-0.384442
  0
VERTEX
  8
LAYER01
 10
1.87108
 20
-0.405394
  0
VERTEX
  8
LAYER01
 10
1.884174
 20
-0.410631
  0
VERTEX
  8
LAYER01
 10
1.897269
 20
-0.38968
  0
VERTEX
  8
LAYER01
 10
1.926077
 20
-0.248257
  0
VERTEX
  8
LAYER01
 10
1.950957
 20
-0.091121
  0
SEQEND
  8
LAYER01
  0
POLYLINE
  8
LAYER01
  6
CONTINUOUS
 62
     5
 66
     1
  0
VERTEX
  8
LAYER01
 10
1.948338
 20
-0.032195
  0
VERTEX
  8
LAYER01
 10
1.926077
 20
-0.057075
  0
VERTEX
  8
LAYER01
 10
1.909054
 20
-0.109454
  0
VERTEX
  8
LAYER01
 10
1.892031
 20
-0.239091
  0
VERTEX
  8
LAYER01
 10
1.882865
 20
-0.337301
  0
VERTEX
  8
LAYER01
 10
1.897269
 20
-0.377895
  0
SEQEND
  8
LAYER01
  0
POLYLINE
  8
LAYER01
  6
CONTINUOUS
 62
     5
 66
     1
  0
VERTEX
  8
LAYER01
 10
1.880246
 20
-0.14219
  0
VERTEX
  8
LAYER01
 10
1.741442
 20
-0.194569
  0
VERTEX
  8
LAYER01
 10
1.589544
 20
-0.249567
  0
VERTEX
  8
LAYER01
 10
1.458597
 20
-0.300636
  0
VERTEX
  8
LAYER01
 10
1.35384
 20
-0.342539
  0
VERTEX
  8
LAYER01
 10
1.245154
 20
-0.402775
  0
VERTEX
  8
LAYER01
 10
1.146944
 20
-0.46301
  0
VERTEX
  8
LAYER01
 10
1.0579
 20
-0.535031
  0
VERTEX
  8
LAYER01
 10
1.005521
 20
-0.584791
  0
VERTEX
  8
LAYER01
 10
0.953142
 20
-0.650264
  0
SEQEND
  8
LAYER01
  0
POLYLINE
  8
LAYER01
  6
CONTINUOUS
 62
     5
 66
     1
  0
VERTEX
  8
LAYER01
 10
1.063138
 20
0.005779
  0
VERTEX
  8
LAYER01
 10
1.063138
 20
-0.1435
  0
VERTEX
  8
LAYER01
 10
1.0579
 20
-0.248257
  0
VERTEX
  8
LAYER01
 10
1.030401
 20
-0.387061
  0
VERTEX
  8
LAYER01
 10
1.000283
 20
-0.502294
  0
VERTEX
  8
LAYER01
 10
0.951833
 20
-0.637169
  0
VERTEX
  8
LAYER01
 10
0.9335
 20
-0.671216
  0
VERTEX
  8
LAYER01
 10
0.915168
 20
-0.698714
  0
VERTEX
  8
LAYER01
 10
0.891597
 20
-0.720975
  0
VERTEX
  8
LAYER01
 10
0.826124
 20
-0.73538
  0
VERTEX
  8
LAYER01
 10
0.773745
 20
-0.737998
  0
VERTEX
  8
LAYER01
 10
0.670297
 20
-0.723594
  0
VERTEX
  8
LAYER01
 10
0.557683
 20
-0.703952
  0
SEQEND
  8
LAYER01
  0
LINE
  8
LAYER01
  6
CONTINUOUS
 62
     5
 10
1.696561
 20
-0.599775
 11
1.692493
 21
-0.607096
  0
LINE
  8
LAYER01
  6
CONTINUOUS
 62
     5
 10
0.464648
 20
-0.685684
 11
0.556924
 21
-0.70386
  0
POLYLINE
  8
LAYER01
  6
CONTINUOUS
 62
     5
 66
     1
  0
VERTEX
  8
LAYER01
 10
1.861913
 20
0.346142
  0
VERTEX
  8
LAYER01
 10
1.757156
 20
0.465304
  0
VERTEX
  8
LAYER01
 10
1.643232
 20
0.567442
  0
VERTEX
  8
LAYER01
 10
1.569902
 20
0.623749
  0
VERTEX
  8
LAYER01
 10
1.484786
 20
0.669581
  0
VERTEX
  8
LAYER01
 10
1.415385
 20
0.702317
  0
VERTEX
  8
LAYER01
 10
1.344673
 20
0.725888
  0
VERTEX
  8
LAYER01
 10
1.267415
 20
0.742911
  0
VERTEX
  8
LAYER01
 10
1.120754
 20
0.762553
  0
VERTEX
  8
LAYER01
 10
0.780293
 20
0.782195
  0
SEQEND
  8
LAYER01
  0
POLYLINE
  8
LAYER01
  6
CONTINUOUS
 62
     5
 66
     1
  0
VERTEX
  8
LAYER01
 10
1.902507
 20
0.386735
  0
VERTEX
  8
LAYER01
 10
1.884174
 20
0.422091
  0
VERTEX
  8
LAYER01
 10
1.834414
 20
0.477089
  0
VERTEX
  8
LAYER01
 10
1.730966
 20
0.576608
  0
VERTEX
  8
LAYER01
 10
1.607876
 20
0.67089
  0
VERTEX
  8
LAYER01
 10
1.474311
 20
0.754696
  0
VERTEX
  8
LAYER01
 10
1.419313
 20
0.778266
  0
VERTEX
  8
LAYER01
 10
1.412766
 20
0.799218
  0
VERTEX
  8
LAYER01
 10
1.416694
 20
0.822788
  0
VERTEX
  8
LAYER01
 10
1.448121
 20
0.835883
  0
VERTEX
  8
LAYER01
 10
1.504428
 20
0.84243
  0
VERTEX
  8
LAYER01
 10
1.568592
 20
0.833264
  0
VERTEX
  8
LAYER01
 10
1.632756
 20
0.799218
  0
VERTEX
  8
LAYER01
 10
1.707396
 20
0.737673
  0
VERTEX
  8
LAYER01
 10
1.77025
 20
0.631606
  0
VERTEX
  8
LAYER01
 10
1.809535
 20
0.542562
  0
VERTEX
  8
LAYER01
 10
1.805606
 20
0.507206
  0
SEQEND
  8
LAYER01
  0
POLYLINE
  8
LAYER01
  6
CONTINUOUS
 62
     5
 66
     1
  0
VERTEX
  8
LAYER01
 10
1.89334
 20
0.441733
  0
VERTEX
  8
LAYER01
 10
1.838343
 20
0.593631
  0
VERTEX
  8
LAYER01
 10
1.79644
 20
0.672199
  0
VERTEX
  8
LAYER01
 10
1.740133
 20
0.737673
  0
VERTEX
  8
LAYER01
 10
1.669421
 20
0.805765
  0
VERTEX
  8
LAYER01
 10
1.607876
 20
0.838502
  0
VERTEX
  8
LAYER01
 10
1.539784
 20
0.858144
  0
VERTEX
  8
LAYER01
 10
1.433717
 20
0.876476
  0
SEQEND
  8
LAYER01
  0
POLYLINE
  8
LAYER01
  6
CONTINUOUS
 62
     5
 66
     1
  0
VERTEX
  8
LAYER01
 10
1.416694
 20
0.778266
  0
VERTEX
  8
LAYER01
 10
1.160038
 20
0.792671
  0
VERTEX
  8
LAYER01
 10
1.05659
 20
0.795289
  0
VERTEX
  8
LAYER01
 10
1.030401
 20
0.791361
  0
VERTEX
  8
LAYER01
 10
0.974094
 20
0.767791
  0
VERTEX
  8
LAYER01
 10
0.900764
 20
0.712793
  0
SEQEND
  8
LAYER01
  0
POLYLINE
  8
LAYER01
  6
CONTINUOUS
 62
     5
 66
     1
 70
     1
  0
VERTEX
  8
LAYER01
 10
0.354237
 20
0.727996
  0
VERTEX
  8
LAYER01
 10
0.448032
 20
0.780945
  0
VERTEX
  8
LAYER01
 10
0.690086
 20
0.783971
  0
VERTEX
  8
LAYER01
 10
0.552418
 20
0.758252
  0
VERTEX
  8
LAYER01
 10
0.333057
 20
0.71438
  0
SEQEND
  8
LAYER01
  0
POLYLINE
  8
LAYER01
  6
CONTINUOUS
 62
     5
 66
     1
  0
VERTEX
  8
LAYER01
 10
0.809599
 20
0.797586
  0
VERTEX
  8
LAYER01
 10
0.408699
 20
0.796073
  0
VERTEX
  8
LAYER01
 10
0.239262
 20
0.688662
  0
SEQEND
  8
LAYER01
  0
POLYLINE
  8
LAYER01
  6
CONTINUOUS
 62
     5
 66
     1
  0
VERTEX
  8
LAYER01
 10
0.568159
 20
0.813622
  0
VERTEX
  8
LAYER01
 10
1.112897
 20
0.809694
  0
VERTEX
  8
LAYER01
 10
1.415385
 20
0.807075
  0
VERTEX
  8
LAYER01
 10
1.510976
 20
0.796599
  0
VERTEX
  8
LAYER01
 10
1.589544
 20
0.779576
  0
VERTEX
  8
LAYER01
 10
1.631447
 20
0.756005
  0
VERTEX
  8
LAYER01
 10
1.678588
 20
0.723269
  0
VERTEX
  8
LAYER01
 10
1.736204
 20
0.668271
  0
SEQEND
  8
LAYER01
  0
POLYLINE
  8
LAYER01
  6
CONTINUOUS
 62
     5
 66
     1
 70
     1
  0
VERTEX
  8
LAYER01
 10
1.950957
 20
0.016156
  0
VERTEX
  8
LAYER01
 10
1.91953
 20
0.024013
  0
VERTEX
  8
LAYER01
 10
1.907745
 20
0.041036
  0
VERTEX
  8
LAYER01
 10
1.885484
 20
0.171983
  0
VERTEX
  8
LAYER01
 10
1.867151
 20
0.312096
  0
VERTEX
  8
LAYER01
 10
1.860604
 20
0.382807
  0
VERTEX
  8
LAYER01
 10
1.87108
 20
0.403759
  0
VERTEX
  8
LAYER01
 10
1.884174
 20
0.408996
  0
VERTEX
  8
LAYER01
 10
1.897269
 20
0.388045
  0
VERTEX
  8
LAYER01
 10
1.926077
 20
0.246622
  0
VERTEX
  8
LAYER01
 10
1.950957
 20
0.089486
  0
SEQEND
  8
LAYER01
  0
POLYLINE
  8
LAYER01
  6
CONTINUOUS
 62
     5
 66
     1
  0
VERTEX
  8
LAYER01
 10
1.948338
 20
0.03056
  0
VERTEX
  8
LAYER01
 10
1.926077
 20
0.05544
  0
VERTEX
  8
LAYER01
 10
1.909054
 20
0.107819
  0
VERTEX
  8
LAYER01
 10
1.892031
 20
0.237456
  0
VERTEX
  8
LAYER01
 10
1.882865
 20
0.335666
  0
VERTEX
  8
LAYER01
 10
1.897269
 20
0.37626
  0
SEQEND
  8
LAYER01
  0
POLYLINE
  8
LAYER01
  6
CONTINUOUS
 62
     5
 66
     1
  0
VERTEX
  8
LAYER01
 10
1.880246
 20
0.140555
  0
VERTEX
  8
LAYER01
 10
1.741442
 20
0.192934
  0
VERTEX
  8
LAYER01
 10
1.589544
 20
0.247932
  0
VERTEX
  8
LAYER01
 10
1.458597
 20
0.299001
  0
VERTEX
  8
LAYER01
 10
1.35384
 20
0.340904
  0
VERTEX
  8
LAYER01
 10
1.245154
 20
0.40114
  0
VERTEX
  8
LAYER01
 10
1.146944
 20
0.461375
  0
VERTEX
  8
LAYER01
 10
1.0579
 20
0.533396
  0
VERTEX
  8
LAYER01
 10
1.005521
 20
0.583156
  0
VERTEX
  8
LAYER01
 10
0.953142
 20
0.648629
  0
SEQEND
  8
LAYER01
  0
POLYLINE
  8
LAYER01
  6
CONTINUOUS
 62
     5
 66
     1
  0
VERTEX
  8
LAYER01
 10
1.063138
 20
-0.007414
  0
VERTEX
  8
LAYER01
 10
1.063138
 20
0.141865
  0
VERTEX
  8
LAYER01
 10
1.0579
 20
0.246622
  0
VERTEX
  8
LAYER01
 10
1.030401
 20
0.385426
  0
VERTEX
  8
LAYER01
 10
1.000283
 20
0.500659
  0
VERTEX
  8
LAYER01
 10
0.951833
 20
0.635534
  0
VERTEX
  8
LAYER01
 10
0.9335
 20
0.669581
  0
VERTEX
  8
LAYER01
 10
0.915168
 20
0.697079
  0
VERTEX
  8
LAYER01
 10
0.891597
 20
0.71934
  0
VERTEX
  8
LAYER01
 10
0.826124
 20
0.733744
  0
VERTEX
  8
LAYER01
 10
0.773745
 20
0.736363
  0
VERTEX
  8
LAYER01
 10
0.670297
 20
0.721959
  0
VERTEX
  8
LAYER01
 10
0.557683
 20
0.702317
  0
SEQEND
  8
LAYER01
  0
LINE
  8
LAYER01
  6
CONTINUOUS
 62
     5
 10
1.696561
 20
0.59814
 11
1.692493
 21
0.605461
  0
LINE
  8
LAYER01
  6
CONTINUOUS
 62
     5
 10
0.464648
 20
0.684049
 11
0.556924
 21
0.702225
  0
POLYLINE
  8
LAYER01
  6
CONTINUOUS
 62
     5
 66
     1
  0
VERTEX
  8
LAYER01
 10
1.457288
 20
0.837192
  0
VERTEX
  8
LAYER01
 10
1.410147
 20
0.863382
  0
VERTEX
  8
LAYER01
 10
1.35384
 20
0.885643
  0
VERTEX
  8
LAYER01
 10
1.30408
 20
0.900047
  0
SEQEND
  8
LAYER01
  0
POLYLINE
  8
LAYER01
  6
CONTINUOUS
 62
     5
 66
     1
  0
VERTEX
  8
LAYER01
 10
0.597803
 20
0.897433
  0
VERTEX
  8
LAYER01
 10
0.333057
 20
0.898946
  0
SEQEND
  8
LAYER01
  0
POLYLINE
  8
LAYER01
  6
CONTINUOUS
 62
     5
 66
     1
  0
VERTEX
  8
LAYER01
 10
0.407186
 20
0.797586
  0
VERTEX
  8
LAYER01
 10
0.369365
 20
0.818766
  0
VERTEX
  8
LAYER01
 10
0.363314
 20
0.841458
  0
VERTEX
  8
LAYER01
 10
0.31339
 20
0.92769
  0
VERTEX
  8
LAYER01
 10
0.272544
 20
0.973075
  0
VERTEX
  8
LAYER01
 10
0.23321
 20
1.001818
  0
VERTEX
  8
LAYER01
 10
0.198415
 20
1.013921
  0
VERTEX
  8
LAYER01
 10
0.165133
 20
1.012408
  0
VERTEX
  8
LAYER01
 10
0.133363
 20
1.001818
  0
VERTEX
  8
LAYER01
 10
0.266493
 20
0.796073
  0
VERTEX
  8
LAYER01
 10
0.314903
 20
0.799099
  0
VERTEX
  8
LAYER01
 10
0.364827
 20
0.821791
  0
SEQEND
  8
LAYER01
  0
POLYLINE
  8
LAYER01
  6
CONTINUOUS
 62
     5
 66
     1
  0
VERTEX
  8
LAYER01
 10
0.34516
 20
0.868689
  0
VERTEX
  8
LAYER01
 10
0.293724
 20
0.858099
  0
VERTEX
  8
LAYER01
 10
0.227159
 20
0.957946
  0
VERTEX
  8
LAYER01
 10
0.204466
 20
0.977613
  0
VERTEX
  8
LAYER01
 10
0.139415
 20
0.994254
  0
SEQEND
  8
LAYER01
  0
POLYLINE
  8
LAYER01
  6
CONTINUOUS
 62
     5
 66
     1
  0
VERTEX
  8
LAYER01
 10
0.263467
 20
0.803637
  0
VERTEX
  8
LAYER01
 10
0.316416
 20
0.814227
  0
VERTEX
  8
LAYER01
 10
0.360288
 20
0.838432
  0
SEQEND
  8
LAYER01
  0
POLYLINE
  8
LAYER01
  6
CONTINUOUS
 62
     5
 66
     1
  0
VERTEX
  8
LAYER01
 10
-0.102302
 20
0.879477
  0
VERTEX
  8
LAYER01
 10
0.210812
 20
0.878107
  0
SEQEND
  8
LAYER01
  0
POLYLINE
  8
LAYER01
  6
CONTINUOUS
 62
     5
 66
     1
  0
VERTEX
  8
LAYER01
 10
0.346965
 20
0.879249
  0
VERTEX
  8
LAYER01
 10
0.983258
 20
0.870986
  0
SEQEND
  8
LAYER01
  0
LINE
  8
LAYER01
  6
CONTINUOUS
 62
     5
 10
0.782022
 20
0.781918
 11
0.768041
 21
0.781918
  0
POLYLINE
  8
LAYER01
  6
CONTINUOUS
 62
     5
 66
     1
  0
VERTEX
  8
LAYER01
 10
0.816235
 20
0.791649
  0
VERTEX
  8
LAYER01
 10
0.810184
 20
0.812829
  0
SEQEND
  8
LAYER01
  0
POLYLINE
  8
LAYER01
  6
CONTINUOUS
 62
     5
 66
     1
  0
VERTEX
  8
LAYER01
 10
0.544854
 20
0.796772
  0
VERTEX
  8
LAYER01
 10
0.578136
 20
0.831567
  0
VERTEX
  8
LAYER01
 10
0.603854
 20
0.866363
  0
VERTEX
  8
LAYER01
 10
0.615957
 20
0.898132
  0
SEQEND
  8
LAYER01
  0
LINE
  8
LAYER01
  6
CONTINUOUS
 62
     5
 10
0.364586
 20
0.821717
 11
0.366669
 21
0.827967
  0
LINE
  8
LAYER01
  6
CONTINUOUS
 62
     5
 10
0.36042
 20
0.838383
 11
0.362503
 21
0.842029
  0
LINE
  8
LAYER01
  6
CONTINUOUS
 62
     5
 10
0.3349
 20
0.898797
 11
0.330733
 21
0.898797
  0
LINE
  8
LAYER01
  6
CONTINUOUS
 62
     5
 10
0.345316
 20
0.86859
 11
0.344274
 21
0.87484
  0
POLYLINE
  8
LAYER01
  6
CONTINUOUS
 62
     5
 66
     1
  0
VERTEX
  8
LAYER01
 10
1.963806
 20
-0.002076
  0
VERTEX
  8
LAYER01
 10
1.961433
 20
0.061987
  0
VERTEX
  8
LAYER01
 10
1.953576
 20
0.148412
  0
VERTEX
  8
LAYER01
 10
1.937862
 20
0.258408
  0
VERTEX
  8
LAYER01
 10
1.89465
 20
0.452209
  0
VERTEX
  8
LAYER01
 10
1.856675
 20
0.580537
  0
VERTEX
  8
LAYER01
 10
1.835724
 20
0.643391
  0
VERTEX
  8
LAYER01
 10
1.799059
 20
0.69577
  0
VERTEX
  8
LAYER01
 10
1.745371
 20
0.763862
  0
VERTEX
  8
LAYER01
 10
1.690373
 20
0.812313
  0
VERTEX
  8
LAYER01
 10
1.645851
 20
0.84243
  0
VERTEX
  8
LAYER01
 10
1.580378
 20
0.866001
  0
VERTEX
  8
LAYER01
 10
1.490024
 20
0.885643
  0
VERTEX
  8
LAYER01
 10
1.319793
 20
0.900047
  0
VERTEX
  8
LAYER01
 10
1.177061
 20
0.903975
  0
VERTEX
  8
LAYER01
 10
0.840528
 20
0.902666
  0
VERTEX
  8
LAYER01
 10
0.691249
 20
0.902666
  0
VERTEX
  8
LAYER01
 10
0.593039
 20
0.897428
  0
SEQEND
  8
LAYER01
  0
POLYLINE
  8
LAYER01
  6
CONTINUOUS
 62
     5
 66
     1
  0
VERTEX
  8
LAYER01
 10
1.76871
 20
-0.003271
  0
VERTEX
  8
LAYER01
 10
1.765013
 20
0.147103
  0
VERTEX
  8
LAYER01
 10
1.755846
 20
0.300311
  0
VERTEX
  8
LAYER01
 10
1.737514
 20
0.484946
  0
VERTEX
  8
LAYER01
 10
1.69692
 20
0.59756
  0
SEQEND
  8
LAYER01
  0
POLYLINE
  8
LAYER01
  6
CONTINUOUS
 62
     5
 66
     1
  0
VERTEX
  8
LAYER01
 10
1.76872
 20
0.002039
  0
VERTEX
  8
LAYER01
 10
1.765013
 20
-0.148738
  0
VERTEX
  8
LAYER01
 10
1.755846
 20
-0.301946
  0
VERTEX
  8
LAYER01
 10
1.737514
 20
-0.486581
  0
VERTEX
  8
LAYER01
 10
1.69692
 20
-0.599195
  0
SEQEND
  8
LAYER01
  0
POLYLINE
  8
LAYER01
  6
CONTINUOUS
 62
     5
 66
     1
  0
VERTEX
  8
LAYER01
 10
0.885241
 20
-0.005728
  0
VERTEX
  8
LAYER01
 10
0.876164
 20
0.242376
  0
VERTEX
  8
LAYER01
 10
0.862549
 20
0.370967
  0
VERTEX
  8
LAYER01
 10
0.821702
 20
0.529815
  0
VERTEX
  8
LAYER01
 10
0.795984
 20
0.611508
  0
VERTEX
  8
LAYER01
 10
0.770266
 20
0.647816
  0
VERTEX
  8
LAYER01
 10
0.740009
 20
0.664457
  0
VERTEX
  8
LAYER01
 10
0.705214
 20
0.668995
  0
VERTEX
  8
LAYER01
 10
0.582675
 20
0.658405
  0
VERTEX
  8
LAYER01
 10
0.31339
 20
0.608482
  0
VERTEX
  8
LAYER01
 10
0.17421
 20
0.579738
  0
VERTEX
  8
LAYER01
 10
0.157569
 20
0.570661
  0
VERTEX
  8
LAYER01
 10
0.150004
 20
0.552507
  0
VERTEX
  8
LAYER01
 10
0.204466
 20
0.210607
  0
VERTEX
  8
LAYER01
 10
0.218082
 20
0.195479
  0
VERTEX
  8
LAYER01
 10
0.255903
 20
0.177325
  0
VERTEX
  8
LAYER01
 10
0.274057
 20
0.162196
  0
VERTEX
  8
LAYER01
 10
0.284647
 20
0.083529
  0
VERTEX
  8
LAYER01
 10
0.401135
 20
0.065375
  0
VERTEX
  8
LAYER01
 10
0.413237
 20
0.044195
  0
VERTEX
  8
LAYER01
 10
0.413237
 20
0.044195
  0
VERTEX
  8
LAYER01
 10
0.416022
 20
-0.003145
  0
SEQEND
  8
LAYER01
  0
POLYLINE
  8
LAYER01
  6
CONTINUOUS
 62
     5
 66
     1
  0
VERTEX
  8
LAYER01
 10
0.885241
 20
0.004093
  0
VERTEX
  8
LAYER01
 10
0.876164
 20
-0.244012
  0
VERTEX
  8
LAYER01
 10
0.862549
 20
-0.372602
  0
VERTEX
  8
LAYER01
 10
0.821702
 20
-0.53145
  0
VERTEX
  8
LAYER01
 10
0.795984
 20
-0.613143
  0
VERTEX
  8
LAYER01
 10
0.770266
 20
-0.649451
  0
VERTEX
  8
LAYER01
 10
0.740009
 20
-0.666092
  0
VERTEX
  8
LAYER01
 10
0.705214
 20
-0.67063
  0
VERTEX
  8
LAYER01
 10
0.582675
 20
-0.66004
  0
VERTEX
  8
LAYER01
 10
0.31339
 20
-0.610117
  0
VERTEX
  8
LAYER01
 10
0.17421
 20
-0.581373
  0
VERTEX
  8
LAYER01
 10
0.157569
 20
-0.572296
  0
VERTEX
  8
LAYER01
 10
0.150004
 20
-0.554142
  0
VERTEX
  8
LAYER01
 10
0.204466
 20
-0.212242
  0
VERTEX
  8
LAYER01
 10
0.218082
 20
-0.197114
  0
VERTEX
  8
LAYER01
 10
0.255903
 20
-0.17896
  0
VERTEX
  8
LAYER01
 10
0.274057
 20
-0.163831
  0
VERTEX
  8
LAYER01
 10
0.284647
 20
-0.085164
  0
VERTEX
  8
LAYER01
 10
0.401135
 20
-0.06701
  0
VERTEX
  8
LAYER01
 10
0.413237
 20
-0.045831
  0
VERTEX
  8
LAYER01
 10
0.413237
 20
-0.045831
  0
VERTEX
  8
LAYER01
 10
0.415959
 20
0.000435
  0
SEQEND
  8
LAYER01
  0
POLYLINE
  8
LAYER01
  6
CONTINUOUS
 62
     5
 66
     1
  0
VERTEX
  8
LAYER01
 10
0.167867
 20
-0.00306
  0
VERTEX
  8
LAYER01
 10
0.157569
 20
0.198504
  0
VERTEX
  8
LAYER01
 10
0.150004
 20
0.298351
  0
VERTEX
  8
LAYER01
 10
0.121261
 20
0.420891
  0
VERTEX
  8
LAYER01
 10
0.087978
 20
0.544943
  0
VERTEX
  8
LAYER01
 10
0.080414
 20
0.578225
  0
VERTEX
  8
LAYER01
 10
0.086465
 20
0.602431
  0
VERTEX
  8
LAYER01
 10
0.127312
 20
0.619072
  0
VERTEX
  8
LAYER01
 10
0.431391
 20
0.678072
  0
VERTEX
  8
LAYER01
 10
0.465235
 20
0.684116
  0
SEQEND
  8
LAYER01
  0
POLYLINE
  8
LAYER01
  6
CONTINUOUS
 62
     5
 66
     1
  0
VERTEX
  8
LAYER01
 10
0.167878
 20
0.00163
  0
VERTEX
  8
LAYER01
 10
0.157569
 20
-0.200139
  0
VERTEX
  8
LAYER01
 10
0.150004
 20
-0.299986
  0
VERTEX
  8
LAYER01
 10
0.121261
 20
-0.422526
  0
VERTEX
  8
LAYER01
 10
0.087978
 20
-0.546578
  0
VERTEX
  8
LAYER01
 10
0.080414
 20
-0.57986
  0
VERTEX
  8
LAYER01
 10
0.086465
 20
-0.604066
  0
VERTEX
  8
LAYER01
 10
0.127312
 20
-0.620707
  0
VERTEX
  8
LAYER01
 10
0.431391
 20
-0.679707
  0
VERTEX
  8
LAYER01
 10
0.465235
 20
-0.685751
  0
SEQEND
  8
LAYER01
  0
LINE
  8
LAYER01
  6
CONTINUOUS
 62
     5
 10
2.012068
 20
-0.000818
 11
1.817875
 21
-0.000818
  0
POLYLINE
  8
LAYER01
  6
CONTINUOUS
 62
     5
 66
     1
  0
VERTEX
  8
LAYER01
 10
1.457288
 20
-0.838828
  0
VERTEX
  8
LAYER01
 10
1.410147
 20
-0.865017
  0
VERTEX
  8
LAYER01
 10
1.35384
 20
-0.887278
  0
VERTEX
  8
LAYER01
 10
1.30408
 20
-0.901682
  0
SEQEND
  8
LAYER01
  0
POLYLINE
  8
LAYER01
  6
CONTINUOUS
 62
     5
 66
     1
  0
VERTEX
  8
LAYER01
 10
0.597803
 20
-0.899068
  0
VERTEX
  8
LAYER01
 10
0.333057
 20
-0.900581
  0
SEQEND
  8
LAYER01
  0
POLYLINE
  8
LAYER01
  6
CONTINUOUS
 62
     5
 66
     1
  0
VERTEX
  8
LAYER01
 10
0.407186
 20
-0.799221
  0
VERTEX
  8
LAYER01
 10
0.369365
 20
-0.820401
  0
VERTEX
  8
LAYER01
 10
0.363314
 20
-0.843093
  0
VERTEX
  8
LAYER01
 10
0.31339
 20
-0.929325
  0
VERTEX
  8
LAYER01
 10
0.272544
 20
-0.97471
  0
VERTEX
  8
LAYER01
 10
0.23321
 20
-1.003453
  0
VERTEX
  8
LAYER01
 10
0.198415
 20
-1.015556
  0
VERTEX
  8
LAYER01
 10
0.165133
 20
-1.014043
  0
VERTEX
  8
LAYER01
 10
0.133363
 20
-1.003453
  0
VERTEX
  8
LAYER01
 10
0.266493
 20
-0.797708
  0
VERTEX
  8
LAYER01
 10
0.314903
 20
-0.800734
  0
VERTEX
  8
LAYER01
 10
0.364827
 20
-0.823426
  0
SEQEND
  8
LAYER01
  0
POLYLINE
  8
LAYER01
  6
CONTINUOUS
 62
     5
 66
     1
  0
VERTEX
  8
LAYER01
 10
0.34516
 20
-0.870324
  0
VERTEX
  8
LAYER01
 10
0.293724
 20
-0.859734
  0
VERTEX
  8
LAYER01
 10
0.227159
 20
-0.959581
  0
VERTEX
  8
LAYER01
 10
0.204466
 20
-0.979248
  0
VERTEX
  8
LAYER01
 10
0.139415
 20
-0.995889
  0
SEQEND
  8
LAYER01
  0
POLYLINE
  8
LAYER01
  6
CONTINUOUS
 62
     5
 66
     1
  0
VERTEX
  8
LAYER01
 10
0.263467
 20
-0.805272
  0
VERTEX
  8
LAYER01
 10
0.316416
 20
-0.815862
  0
VERTEX
  8
LAYER01
 10
0.360288
 20
-0.840068
  0
SEQEND
  8
LAYER01
  0
POLYLINE
  8
LAYER01
  6
CONTINUOUS
 62
     5
 66
     1
  0
VERTEX
  8
LAYER01
 10
-0.102302
 20
-0.881112
  0
VERTEX
  8
LAYER01
 10
0.210812
 20
-0.879742
  0
SEQEND
  8
LAYER01
  0
POLYLINE
  8
LAYER01
  6
CONTINUOUS
 62
     5
 66
     1
  0
VERTEX
  8
LAYER01
 10
0.346965
 20
-0.880884
  0
VERTEX
  8
LAYER01
 10
0.983258
 20
-0.872621
  0
SEQEND
  8
LAYER01
  0
LINE
  8
LAYER01
  6
CONTINUOUS
 62
     5
 10
0.782022
 20
-0.783553
 11
0.768041
 21
-0.783553
  0
POLYLINE
  8
LAYER01
  6
CONTINUOUS
 62
     5
 66
     1
  0
VERTEX
  8
LAYER01
 10
0.816235
 20
-0.793284
  0
VERTEX
  8
LAYER01
 10
0.810184
 20
-0.814464
  0
SEQEND
  8
LAYER01
  0
POLYLINE
  8
LAYER01
  6
CONTINUOUS
 62
     5
 66
     1
  0
VERTEX
  8
LAYER01
 10
0.544854
 20
-0.798407
  0
VERTEX
  8
LAYER01
 10
0.578136
 20
-0.833202
  0
VERTEX
  8
LAYER01
 10
0.603854
 20
-0.867998
  0
VERTEX
  8
LAYER01
 10
0.615957
 20
-0.899767
  0
SEQEND
  8
LAYER01
  0
LINE
  8
LAYER01
  6
CONTINUOUS
 62
     5
 10
0.364586
 20
-0.823352
 11
0.366669
 21
-0.829602
  0
LINE
  8
LAYER01
  6
CONTINUOUS
 62
     5
 10
0.36042
 20
-0.840018
 11
0.362503
 21
-0.843664
  0
LINE
  8
LAYER01
  6
CONTINUOUS
 62
     5
 10
0.3349
 20
-0.900432
 11
0.330733
 21
-0.900432
  0
LINE
  8
LAYER01
  6
CONTINUOUS
 62
     5
 10
0.345316
 20
-0.870225
 11
0.344274
 21
-0.876475
  0
POLYLINE
  8
LAYER01
  6
CONTINUOUS
 62
     5
 66
     1
  0
VERTEX
  8
LAYER01
 10
-0.426385
 20
-0.89453
  0
VERTEX
  8
LAYER01
 10
-0.46118
 20
-0.850657
  0
VERTEX
  8
LAYER01
 10
-0.495975
 20
-0.797708
  0
VERTEX
  8
LAYER01
 10
-0.553463
 20
-0.720554
  0
SEQEND
  8
LAYER01
  0
POLYLINE
  8
LAYER01
  6
CONTINUOUS
 62
     5
 66
     1
  0
VERTEX
  8
LAYER01
 10
-0.402544
 20
-0.79567
  0
VERTEX
  8
LAYER01
 10
-0.458027
 20
-0.750655
  0
VERTEX
  8
LAYER01
 10
-0.504089
 20
-0.700406
  0
VERTEX
  8
LAYER01
 10
-0.545963
 20
-0.638642
  0
SEQEND
  8
LAYER01
  0
POLYLINE
  8
LAYER01
  6
CONTINUOUS
 62
     5
 66
     1
  0
VERTEX
  8
LAYER01
 10
-0.656929
 20
-0.637595
  0
VERTEX
  8
LAYER01
 10
-0.638086
 20
-0.711922
  0
VERTEX
  8
LAYER01
 10
-0.622383
 20
-0.762171
  0
VERTEX
  8
LAYER01
 10
-0.608774
 20
-0.79567
  0
VERTEX
  8
LAYER01
 10
-0.523979
 20
-0.796717
  0
SEQEND
  8
LAYER01
  0
POLYLINE
  8
LAYER01
  6
CONTINUOUS
 62
     5
 66
     1
  0
VERTEX
  8
LAYER01
 10
-0.523843
 20
-0.806836
  0
VERTEX
  8
LAYER01
 10
-0.948129
 20
-0.798023
  0
VERTEX
  8
LAYER01
 10
-1.376191
 20
-0.782915
  0
VERTEX
  8
LAYER01
 10
-1.505869
 20
-0.774102
  0
VERTEX
  8
LAYER01
 10
-1.573855
 20
-0.760253
  0
VERTEX
  8
LAYER01
 10
-1.63051
 20
-0.742627
  0
VERTEX
  8
LAYER01
 10
-1.674576
 20
-0.723741
  0
VERTEX
  8
LAYER01
 10
-1.697238
 20
-0.708633
  0
VERTEX
  8
LAYER01
 10
-1.685907
 20
-0.691007
  0
VERTEX
  8
LAYER01
 10
-1.654431
 20
-0.678417
  0
VERTEX
  8
LAYER01
 10
-1.484466
 20
-0.654496
  0
SEQEND
  8
LAYER01
  0
POLYLINE
  8
LAYER01
  6
CONTINUOUS
 62
     5
 66
     1
  0
VERTEX
  8
LAYER01
 10
-1.455508
 20
-0.672122
  0
VERTEX
  8
LAYER01
 10
-1.619179
 20
-0.689748
  0
VERTEX
  8
LAYER01
 10
-1.650654
 20
-0.69982
  0
VERTEX
  8
LAYER01
 10
-1.661986
 20
-0.709892
  0
VERTEX
  8
LAYER01
 10
-1.641841
 20
-0.725
  0
VERTEX
  8
LAYER01
 10
-1.571337
 20
-0.748922
  0
VERTEX
  8
LAYER01
 10
-1.480689
 20
-0.762771
  0
VERTEX
  8
LAYER01
 10
-1.3145
 20
-0.774102
  0
VERTEX
  8
LAYER01
 10
-0.909099
 20
-0.786692
  0
VERTEX
  8
LAYER01
 10
-0.609456
 20
-0.795505
  0
SEQEND
  8
LAYER01
  0
POLYLINE
  8
LAYER01
  6
CONTINUOUS
 62
     5
 66
     1
  0
VERTEX
  8
LAYER01
 10
-1.223851
 20
-0.631834
  0
VERTEX
  8
LAYER01
 10
-1.260362
 20
-0.660791
  0
VERTEX
  8
LAYER01
 10
-1.332126
 20
-0.716187
  0
VERTEX
  8
LAYER01
 10
-1.417738
 20
-0.767807
  0
VERTEX
  8
LAYER01
 10
-1.424033
 20
-0.782915
  0
VERTEX
  8
LAYER01
 10
-1.442918
 20
-0.8018
  0
VERTEX
  8
LAYER01
 10
-1.460544
 20
-0.823203
  0
VERTEX
  8
LAYER01
 10
-1.459285
 20
-0.838311
  0
VERTEX
  8
LAYER01
 10
-1.442918
 20
-0.857196
  0
VERTEX
  8
LAYER01
 10
-1.374932
 20
-0.887412
  0
SEQEND
  8
LAYER01
  0
POLYLINE
  8
LAYER01
  6
CONTINUOUS
 62
     5
 66
     1
  0
VERTEX
  8
LAYER01
 10
-1.206225
 20
-0.645683
  0
VERTEX
  8
LAYER01
 10
-1.261621
 20
-0.689748
  0
VERTEX
  8
LAYER01
 10
-1.381227
 20
-0.769066
  0
SEQEND
  8
LAYER01
  0
POLYLINE
  8
LAYER01
  6
CONTINUOUS
 62
     5
 66
     1
  0
VERTEX
  8
LAYER01
 10
-1.281765
 20
-0.654496
  0
VERTEX
  8
LAYER01
 10
-1.333385
 20
-0.694784
  0
VERTEX
  8
LAYER01
 10
-1.387522
 20
-0.732554
  0
VERTEX
  8
LAYER01
 10
-1.4404
 20
-0.76403
  0
SEQEND
  8
LAYER01
  0
POLYLINE
  8
LAYER01
  6
CONTINUOUS
 62
     5
 66
     1
  0
VERTEX
  8
LAYER01
 10
-2.375404
 20
0.002858
  0
VERTEX
  8
LAYER01
 10
-2.367101
 20
-0.226864
  0
VERTEX
  8
LAYER01
 10
-2.361565
 20
-0.383242
  0
VERTEX
  8
LAYER01
 10
-2.354646
 20
-0.442748
  0
VERTEX
  8
LAYER01
 10
-2.33804
 20
-0.517477
  0
VERTEX
  8
LAYER01
 10
-2.31313
 20
-0.592206
  0
VERTEX
  8
LAYER01
 10
-2.277149
 20
-0.6614
  0
VERTEX
  8
LAYER01
 10
-2.249472
 20
-0.707067
  0
VERTEX
  8
LAYER01
 10
-2.205188
 20
-0.75827
  0
VERTEX
  8
LAYER01
 10
-2.151217
 20
-0.797019
  0
VERTEX
  8
LAYER01
 10
-2.086175
 20
-0.835767
  0
VERTEX
  8
LAYER01
 10
-2.016982
 20
-0.862061
  0
VERTEX
  8
LAYER01
 10
-1.917343
 20
-0.878667
  0
VERTEX
  8
LAYER01
 10
-1.78034
 20
-0.891122
  0
VERTEX
  8
LAYER01
 10
-1.664095
 20
-0.892506
  0
VERTEX
  8
LAYER01
 10
-1.558775
 20
-0.892506
  0
SEQEND
  8
LAYER01
  0
POLYLINE
  8
LAYER01
  6
CONTINUOUS
 62
     5
 66
     1
  0
VERTEX
  8
LAYER01
 10
-2.18968
 20
-0.637705
  0
VERTEX
  8
LAYER01
 10
-2.169207
 20
-0.690461
  0
VERTEX
  8
LAYER01
 10
-2.142914
 20
-0.736129
  0
VERTEX
  8
LAYER01
 10
-2.106933
 20
-0.773493
  0
VERTEX
  8
LAYER01
 10
-2.072337
 20
-0.794251
  0
VERTEX
  8
LAYER01
 10
-1.929798
 20
-0.813625
  0
VERTEX
  8
LAYER01
 10
-1.824624
 20
-0.830232
  0
SEQEND
  8
LAYER01
  0
POLYLINE
  8
LAYER01
  6
CONTINUOUS
 62
     5
 66
     1
  0
VERTEX
  8
LAYER01
 10
-2.30186
 20
0.000293
  0
VERTEX
  8
LAYER01
 10
-2.297907
 20
-0.215794
  0
VERTEX
  8
LAYER01
 10
-2.29514
 20
-0.350029
  0
VERTEX
  8
LAYER01
 10
-2.28822
 20
-0.43998
  0
VERTEX
  8
LAYER01
 10
-2.268846
 20
-0.539619
  0
VERTEX
  8
LAYER01
 10
-2.239785
 20
-0.610196
  0
VERTEX
  8
LAYER01
 10
-2.187198
 20
-0.712603
  0
VERTEX
  8
LAYER01
 10
-2.16644
 20
-0.751351
  0
VERTEX
  8
LAYER01
 10
-2.147066
 20
-0.776261
  0
VERTEX
  8
LAYER01
 10
-2.112469
 20
-0.799787
  0
VERTEX
  8
LAYER01
 10
-2.088943
 20
-0.809474
  0
VERTEX
  8
LAYER01
 10
-2.046043
 20
-0.819161
  0
VERTEX
  8
LAYER01
 10
-2.004527
 20
-0.82608
  0
VERTEX
  8
LAYER01
 10
-1.963011
 20
-0.830232
  0
VERTEX
  8
LAYER01
 10
-1.874443
 20
-0.828848
  0
VERTEX
  8
LAYER01
 10
-1.838463
 20
-0.824696
  0
VERTEX
  8
LAYER01
 10
-1.863372
 20
-0.797019
  0
VERTEX
  8
LAYER01
 10
-1.886898
 20
-0.776261
  0
VERTEX
  8
LAYER01
 10
-1.90904
 20
-0.766574
  0
VERTEX
  8
LAYER01
 10
-1.986537
 20
-0.749967
  0
VERTEX
  8
LAYER01
 10
-1.986537
 20
-0.749967
  0
VERTEX
  8
LAYER01
 10
-2.05573
 20
-0.731977
  0
VERTEX
  8
LAYER01
 10
-2.108317
 20
-0.709835
  0
VERTEX
  8
LAYER01
 10
-2.142914
 20
-0.678006
  0
VERTEX
  8
LAYER01
 10
-2.176127
 20
-0.633722
  0
VERTEX
  8
LAYER01
 10
-2.20242
 20
-0.599125
  0
VERTEX
  8
LAYER01
 10
-2.246704
 20
-0.466274
  0
VERTEX
  8
LAYER01
 10
-2.278533
 20
-0.344493
  0
VERTEX
  8
LAYER01
 10
-2.28822
 20
-0.219945
  0
SEQEND
  8
LAYER01
  0
POLYLINE
  8
LAYER01
  6
CONTINUOUS
 62
     5
 66
     1
  0
VERTEX
  8
LAYER01
 10
-0.522932
 20
-0.637595
  0
VERTEX
  8
LAYER01
 10
-0.723928
 20
-0.636548
  0
VERTEX
  8
LAYER01
 10
-1.009719
 20
-0.640736
  0
VERTEX
  8
LAYER01
 10
-1.236886
 20
-0.647017
  0
VERTEX
  8
LAYER01
 10
-1.454632
 20
-0.672141
  0
SEQEND
  8
LAYER01
  0
POLYLINE
  8
LAYER01
  6
CONTINUOUS
 62
     5
 66
     1
  0
VERTEX
  8
LAYER01
 10
-0.42034
 20
-0.520347
  0
VERTEX
  8
LAYER01
 10
-1.114404
 20
-0.504645
  0
VERTEX
  8
LAYER01
 10
-1.527912
 20
-0.49941
  0
SEQEND
  8
LAYER01
  0
POLYLINE
  8
LAYER01
  6
CONTINUOUS
 62
     5
 66
     1
  0
VERTEX
  8
LAYER01
 10
-0.607727
 20
-0.621892
  0
VERTEX
  8
LAYER01
 10
-0.578415
 20
-0.680516
  0
VERTEX
  8
LAYER01
 10
-0.554338
 20
-0.71925
  0
SEQEND
  8
LAYER01
  0
POLYLINE
  8
LAYER01
  6
CONTINUOUS
 62
     5
 66
     1
  0
VERTEX
  8
LAYER01
 10
-2.167824
 20
-0.689077
  0
VERTEX
  8
LAYER01
 10
-2.134611
 20
-0.676622
  0
VERTEX
  8
LAYER01
 10
-2.090327
 20
-0.635106
  0
VERTEX
  8
LAYER01
 10
-2.03774
 20
-0.625419
  0
VERTEX
  8
LAYER01
 10
-1.826008
 20
-0.590822
  0
SEQEND
  8
LAYER01
  0
POLYLINE
  8
LAYER01
  6
CONTINUOUS
 62
     5
 66
     1
  0
VERTEX
  8
LAYER01
 10
-1.517405
 20
-0.499487
  0
VERTEX
  8
LAYER01
 10
-1.709763
 20
-0.495335
  0
SEQEND
  8
LAYER01
  0
POLYLINE
  8
LAYER01
  6
CONTINUOUS
 62
     5
 66
     1
  0
VERTEX
  8
LAYER01
 10
-0.542185
 20
-0.621883
  0
VERTEX
  8
LAYER01
 10
-0.812911
 20
-0.620845
  0
VERTEX
  8
LAYER01
 10
-1.101842
 20
-0.623986
  0
VERTEX
  8
LAYER01
 10
-1.317494
 20
-0.636548
  0
VERTEX
  8
LAYER01
 10
-1.483944
 20
-0.654345
  0
SEQEND
  8
LAYER01
  0
POLYLINE
  8
LAYER01
  6
CONTINUOUS
 62
     5
 66
     1
  0
VERTEX
  8
LAYER01
 10
-0.419293
 20
-0.543378
  0
VERTEX
  8
LAYER01
 10
-0.947955
 20
-0.53291
  0
VERTEX
  8
LAYER01
 10
-1.36879
 20
-0.526629
  0
VERTEX
  8
LAYER01
 10
-1.503683
 20
-0.52765
  0
SEQEND
  8
LAYER01
  0
LINE
  8
LAYER01
  6
CONTINUOUS
 62
     5
 10
-2.203108
 20
-0.598364
 11
-2.190355
 21
-0.637296
  0
POLYLINE
  8
LAYER01
  6
CONTINUOUS
 62
     5
 66
     1
  0
VERTEX
  8
LAYER01
 10
-0.426385
 20
0.892894
  0
VERTEX
  8
LAYER01
 10
-0.46118
 20
0.849022
  0
VERTEX
  8
LAYER01
 10
-0.495975
 20
0.796073
  0
VERTEX
  8
LAYER01
 10
-0.553463
 20
0.718919
  0
SEQEND
  8
LAYER01
  0
POLYLINE
  8
LAYER01
  6
CONTINUOUS
 62
     5
 66
     1
  0
VERTEX
  8
LAYER01
 10
-0.402544
 20
0.794035
  0
VERTEX
  8
LAYER01
 10
-0.458027
 20
0.74902
  0
VERTEX
  8
LAYER01
 10
-0.504089
 20
0.698771
  0
VERTEX
  8
LAYER01
 10
-0.545963
 20
0.637007
  0
SEQEND
  8
LAYER01
  0
POLYLINE
  8
LAYER01
  6
CONTINUOUS
 62
     5
 66
     1
  0
VERTEX
  8
LAYER01
 10
-0.656929
 20
0.63596
  0
VERTEX
  8
LAYER01
 10
-0.638086
 20
0.710287
  0
VERTEX
  8
LAYER01
 10
-0.622383
 20
0.760536
  0
VERTEX
  8
LAYER01
 10
-0.608774
 20
0.794035
  0
VERTEX
  8
LAYER01
 10
-0.523979
 20
0.795082
  0
SEQEND
  8
LAYER01
  0
POLYLINE
  8
LAYER01
  6
CONTINUOUS
 62
     5
 66
     1
  0
VERTEX
  8
LAYER01
 10
-0.523843
 20
0.805201
  0
VERTEX
  8
LAYER01
 10
-0.948129
 20
0.796388
  0
VERTEX
  8
LAYER01
 10
-1.376191
 20
0.78128
  0
VERTEX
  8
LAYER01
 10
-1.505869
 20
0.772467
  0
VERTEX
  8
LAYER01
 10
-1.573855
 20
0.758618
  0
VERTEX
  8
LAYER01
 10
-1.63051
 20
0.740991
  0
VERTEX
  8
LAYER01
 10
-1.674576
 20
0.722106
  0
VERTEX
  8
LAYER01
 10
-1.697238
 20
0.706998
  0
VERTEX
  8
LAYER01
 10
-1.685907
 20
0.689372
  0
VERTEX
  8
LAYER01
 10
-1.654431
 20
0.676782
  0
VERTEX
  8
LAYER01
 10
-1.484466
 20
0.652861
  0
SEQEND
  8
LAYER01
  0
POLYLINE
  8
LAYER01
  6
CONTINUOUS
 62
     5
 66
     1
  0
VERTEX
  8
LAYER01
 10
-1.455508
 20
0.670487
  0
VERTEX
  8
LAYER01
 10
-1.619179
 20
0.688113
  0
VERTEX
  8
LAYER01
 10
-1.650654
 20
0.698185
  0
VERTEX
  8
LAYER01
 10
-1.661986
 20
0.708257
  0
VERTEX
  8
LAYER01
 10
-1.641841
 20
0.723365
  0
VERTEX
  8
LAYER01
 10
-1.571337
 20
0.747286
  0
VERTEX
  8
LAYER01
 10
-1.480689
 20
0.761136
  0
VERTEX
  8
LAYER01
 10
-1.3145
 20
0.772467
  0
VERTEX
  8
LAYER01
 10
-0.909099
 20
0.785057
  0
VERTEX
  8
LAYER01
 10
-0.609456
 20
0.79387
  0
SEQEND
  8
LAYER01
  0
POLYLINE
  8
LAYER01
  6
CONTINUOUS
 62
     5
 66
     1
  0
VERTEX
  8
LAYER01
 10
-1.223851
 20
0.630199
  0
VERTEX
  8
LAYER01
 10
-1.260362
 20
0.659156
  0
VERTEX
  8
LAYER01
 10
-1.332126
 20
0.714552
  0
VERTEX
  8
LAYER01
 10
-1.417738
 20
0.766172
  0
VERTEX
  8
LAYER01
 10
-1.424033
 20
0.78128
  0
VERTEX
  8
LAYER01
 10
-1.442918
 20
0.800165
  0
VERTEX
  8
LAYER01
 10
-1.460544
 20
0.821568
  0
VERTEX
  8
LAYER01
 10
-1.459285
 20
0.836676
  0
VERTEX
  8
LAYER01
 10
-1.442918
 20
0.855561
  0
VERTEX
  8
LAYER01
 10
-1.374932
 20
0.885777
  0
SEQEND
  8
LAYER01
  0
POLYLINE
  8
LAYER01
  6
CONTINUOUS
 62
     5
 66
     1
  0
VERTEX
  8
LAYER01
 10
-1.206225
 20
0.644048
  0
VERTEX
  8
LAYER01
 10
-1.261621
 20
0.688113
  0
VERTEX
  8
LAYER01
 10
-1.381227
 20
0.767431
  0
SEQEND
  8
LAYER01
  0
POLYLINE
  8
LAYER01
  6
CONTINUOUS
 62
     5
 66
     1
  0
VERTEX
  8
LAYER01
 10
-1.281765
 20
0.652861
  0
VERTEX
  8
LAYER01
 10
-1.333385
 20
0.693149
  0
VERTEX
  8
LAYER01
 10
-1.387522
 20
0.730919
  0
VERTEX
  8
LAYER01
 10
-1.4404
 20
0.762395
  0
SEQEND
  8
LAYER01
  0
POLYLINE
  8
LAYER01
  6
CONTINUOUS
 62
     5
 66
     1
  0
VERTEX
  8
LAYER01
 10
-2.18968
 20
0.63607
  0
VERTEX
  8
LAYER01
 10
-2.169207
 20
0.688826
  0
VERTEX
  8
LAYER01
 10
-2.142914
 20
0.734493
  0
VERTEX
  8
LAYER01
 10
-2.106933
 20
0.771858
  0
VERTEX
  8
LAYER01
 10
-2.072337
 20
0.792616
  0
VERTEX
  8
LAYER01
 10
-1.929798
 20
0.81199
  0
VERTEX
  8
LAYER01
 10
-1.824624
 20
0.828597
  0
SEQEND
  8
LAYER01
  0
POLYLINE
  8
LAYER01
  6
CONTINUOUS
 62
     5
 66
     1
  0
VERTEX
  8
LAYER01
 10
-0.522932
 20
0.63596
  0
VERTEX
  8
LAYER01
 10
-0.723928
 20
0.634913
  0
VERTEX
  8
LAYER01
 10
-1.009719
 20
0.639101
  0
VERTEX
  8
LAYER01
 10
-1.236886
 20
0.645382
  0
VERTEX
  8
LAYER01
 10
-1.454632
 20
0.670506
  0
SEQEND
  8
LAYER01
  0
POLYLINE
  8
LAYER01
  6
CONTINUOUS
 62
     5
 66
     1
  0
VERTEX
  8
LAYER01
 10
-0.42034
 20
0.518712
  0
VERTEX
  8
LAYER01
 10
-1.114404
 20
0.50301
  0
VERTEX
  8
LAYER01
 10
-1.527912
 20
0.497775
  0
SEQEND
  8
LAYER01
  0
POLYLINE
  8
LAYER01
  6
CONTINUOUS
 62
     5
 66
     1
  0
VERTEX
  8
LAYER01
 10
-0.607727
 20
0.620257
  0
VERTEX
  8
LAYER01
 10
-0.578415
 20
0.678881
  0
VERTEX
  8
LAYER01
 10
-0.554338
 20
0.717615
  0
SEQEND
  8
LAYER01
  0
POLYLINE
  8
LAYER01
  6
CONTINUOUS
 62
     5
 66
     1
  0
VERTEX
  8
LAYER01
 10
-2.167824
 20
0.687442
  0
VERTEX
  8
LAYER01
 10
-2.134611
 20
0.674987
  0
VERTEX
  8
LAYER01
 10
-2.090327
 20
0.633471
  0
VERTEX
  8
LAYER01
 10
-2.03774
 20
0.623784
  0
VERTEX
  8
LAYER01
 10
-1.826008
 20
0.589187
  0
SEQEND
  8
LAYER01
  0
POLYLINE
  8
LAYER01
  6
CONTINUOUS
 62
     5
 66
     1
  0
VERTEX
  8
LAYER01
 10
-1.517405
 20
0.497852
  0
VERTEX
  8
LAYER01
 10
-1.709763
 20
0.4937
  0
SEQEND
  8
LAYER01
  0
POLYLINE
  8
LAYER01
  6
CONTINUOUS
 62
     5
 66
     1
  0
VERTEX
  8
LAYER01
 10
-0.542185
 20
0.620248
  0
VERTEX
  8
LAYER01
 10
-0.812911
 20
0.61921
  0
VERTEX
  8
LAYER01
 10
-1.101842
 20
0.622351
  0
VERTEX
  8
LAYER01
 10
-1.317494
 20
0.634913
  0
VERTEX
  8
LAYER01
 10
-1.483944
 20
0.65271
  0
SEQEND
  8
LAYER01
  0
POLYLINE
  8
LAYER01
  6
CONTINUOUS
 62
     5
 66
     1
  0
VERTEX
  8
LAYER01
 10
-0.419293
 20
0.541743
  0
VERTEX
  8
LAYER01
 10
-0.947955
 20
0.531275
  0
VERTEX
  8
LAYER01
 10
-1.36879
 20
0.524994
  0
VERTEX
  8
LAYER01
 10
-1.503683
 20
0.526015
  0
SEQEND
  8
LAYER01
  0
LINE
  8
LAYER01
  6
CONTINUOUS
 62
     5
 10
-2.203108
 20
0.596729
 11
-2.190355
 21
0.635661
  0
POLYLINE
  8
LAYER01
  6
CONTINUOUS
 62
     5
 66
     1
  0
VERTEX
  8
LAYER01
 10
-0.509994
 20
0.874446
  0
VERTEX
  8
LAYER01
 10
-1.125649
 20
0.861856
  0
VERTEX
  8
LAYER01
 10
-1.17475
 20
0.876964
  0
VERTEX
  8
LAYER01
 10
-1.22511
 20
0.883259
  0
VERTEX
  8
LAYER01
 10
-1.317018
 20
0.880741
  0
VERTEX
  8
LAYER01
 10
-1.36486
 20
0.874446
  0
VERTEX
  8
LAYER01
 10
-1.381227
 20
0.848007
  0
VERTEX
  8
LAYER01
 10
-1.317018
 20
0.849266
  0
VERTEX
  8
LAYER01
 10
-1.299392
 20
0.861856
  0
VERTEX
  8
LAYER01
 10
-1.255326
 20
0.86941
  0
VERTEX
  8
LAYER01
 10
-1.222592
 20
0.86941
  0
VERTEX
  8
LAYER01
 10
-1.184822
 20
0.858079
  0
VERTEX
  8
LAYER01
 10
-1.129426
 20
0.858079
  0
SEQEND
  8
LAYER01
  0
POLYLINE
  8
LAYER01
  6
CONTINUOUS
 62
     5
 66
     1
  0
VERTEX
  8
LAYER01
 10
-1.126908
 20
0.861856
  0
VERTEX
  8
LAYER01
 10
-1.13698
 20
0.851784
  0
VERTEX
  8
LAYER01
 10
-1.21252
 20
0.837935
  0
VERTEX
  8
LAYER01
 10
-1.293096
 20
0.837935
  0
VERTEX
  8
LAYER01
 10
-1.379968
 20
0.845489
  0
SEQEND
  8
LAYER01
  0
POLYLINE
  8
LAYER01
  6
CONTINUOUS
 62
     5
 66
     1
  0
VERTEX
  8
LAYER01
 10
-0.538578
 20
0.894518
  0
VERTEX
  8
LAYER01
 10
-1.110217
 20
0.890345
  0
VERTEX
  8
LAYER01
 10
-1.317494
 20
0.888252
  0
VERTEX
  8
LAYER01
 10
-1.384493
 20
0.886158
  0
VERTEX
  8
LAYER01
 10
-1.55827
 20
0.890345
  0
SEQEND
  8
LAYER01
  0
LINE
  8
LAYER01
  6
CONTINUOUS
 62
     5
 10
-1.825201
 20
0.828306
 11
-1.793653
 21
0.830991
  0
POLYLINE
  8
LAYER01
  6
CONTINUOUS
 62
     5
 66
     1
  0
VERTEX
  8
LAYER01
 10
-1.379197
 20
0.851694
  0
VERTEX
  8
LAYER01
 10
-1.573855
 20
0.841712
  0
VERTEX
  8
LAYER01
 10
-1.796442
 20
0.830693
  0
SEQEND
  8
LAYER01
  0
POLYLINE
  8
LAYER01
  6
CONTINUOUS
 62
     5
 66
     1
  0
VERTEX
  8
LAYER01
 10
-1.895914
 20
0.878416
  0
VERTEX
  8
LAYER01
 10
-2.025998
 20
0.823061
  0
SEQEND
  8
LAYER01
  0
POLYLINE
  8
LAYER01
  6
CONTINUOUS
 62
     5
 66
     1
  0
VERTEX
  8
LAYER01
 10
-2.375378
 20
-0.003775
  0
VERTEX
  8
LAYER01
 10
-2.367101
 20
0.225229
  0
VERTEX
  8
LAYER01
 10
-2.361565
 20
0.381607
  0
VERTEX
  8
LAYER01
 10
-2.354646
 20
0.441113
  0
VERTEX
  8
LAYER01
 10
-2.33804
 20
0.515842
  0
VERTEX
  8
LAYER01
 10
-2.31313
 20
0.590571
  0
VERTEX
  8
LAYER01
 10
-2.277149
 20
0.659764
  0
VERTEX
  8
LAYER01
 10
-2.249472
 20
0.705432
  0
VERTEX
  8
LAYER01
 10
-2.205188
 20
0.756635
  0
VERTEX
  8
LAYER01
 10
-2.151217
 20
0.795384
  0
VERTEX
  8
LAYER01
 10
-2.086175
 20
0.834132
  0
VERTEX
  8
LAYER01
 10
-2.016982
 20
0.860426
  0
VERTEX
  8
LAYER01
 10
-1.917343
 20
0.877032
  0
VERTEX
  8
LAYER01
 10
-1.78034
 20
0.889487
  0
VERTEX
  8
LAYER01
 10
-1.664095
 20
0.890871
  0
VERTEX
  8
LAYER01
 10
-1.558775
 20
0.890871
  0
SEQEND
  8
LAYER01
  0
POLYLINE
  8
LAYER01
  6
CONTINUOUS
 62
     5
 66
     1
  0
VERTEX
  8
LAYER01
 10
-2.348762
 20
0.001528
  0
VERTEX
  8
LAYER01
 10
-2.342191
 20
-0.258693
  0
VERTEX
  8
LAYER01
 10
-2.335272
 20
-0.374939
  0
VERTEX
  8
LAYER01
 10
-2.320049
 20
-0.471809
  0
VERTEX
  8
LAYER01
 10
-2.296523
 20
-0.565913
  0
VERTEX
  8
LAYER01
 10
-2.260543
 20
-0.63649
  0
VERTEX
  8
LAYER01
 10
-2.232865
 20
-0.683541
  0
VERTEX
  8
LAYER01
 10
-2.198269
 20
-0.718138
  0
VERTEX
  8
LAYER01
 10
-2.178895
 20
-0.731977
  0
SEQEND
  8
LAYER01
  0
POLYLINE
  8
LAYER01
  6
CONTINUOUS
 62
     5
 66
     1
  0
VERTEX
  8
LAYER01
 10
-2.348774
 20
-0.003622
  0
VERTEX
  8
LAYER01
 10
-2.342191
 20
0.257058
  0
VERTEX
  8
LAYER01
 10
-2.335272
 20
0.373303
  0
VERTEX
  8
LAYER01
 10
-2.320049
 20
0.470174
  0
VERTEX
  8
LAYER01
 10
-2.296523
 20
0.564277
  0
VERTEX
  8
LAYER01
 10
-2.260543
 20
0.634855
  0
VERTEX
  8
LAYER01
 10
-2.232865
 20
0.681906
  0
VERTEX
  8
LAYER01
 10
-2.198269
 20
0.716503
  0
VERTEX
  8
LAYER01
 10
-2.178895
 20
0.730342
  0
SEQEND
  8
LAYER01
  0
POLYLINE
  8
LAYER01
  6
CONTINUOUS
 62
     5
 66
     1
  0
VERTEX
  8
LAYER01
 10
-2.301846
 20
-0.001148
  0
VERTEX
  8
LAYER01
 10
-2.297907
 20
0.214158
  0
VERTEX
  8
LAYER01
 10
-2.29514
 20
0.348394
  0
VERTEX
  8
LAYER01
 10
-2.28822
 20
0.438345
  0
VERTEX
  8
LAYER01
 10
-2.268846
 20
0.537984
  0
VERTEX
  8
LAYER01
 10
-2.239785
 20
0.608561
  0
VERTEX
  8
LAYER01
 10
-2.187198
 20
0.710968
  0
VERTEX
  8
LAYER01
 10
-2.16644
 20
0.749716
  0
VERTEX
  8
LAYER01
 10
-2.147066
 20
0.774626
  0
VERTEX
  8
LAYER01
 10
-2.112469
 20
0.798151
  0
VERTEX
  8
LAYER01
 10
-2.088943
 20
0.807839
  0
VERTEX
  8
LAYER01
 10
-2.046043
 20
0.817526
  0
VERTEX
  8
LAYER01
 10
-2.004527
 20
0.824445
  0
VERTEX
  8
LAYER01
 10
-1.963011
 20
0.828597
  0
VERTEX
  8
LAYER01
 10
-1.874443
 20
0.827213
  0
VERTEX
  8
LAYER01
 10
-1.838463
 20
0.823061
  0
VERTEX
  8
LAYER01
 10
-1.863372
 20
0.795384
  0
VERTEX
  8
LAYER01
 10
-1.886898
 20
0.774626
  0
VERTEX
  8
LAYER01
 10
-1.90904
 20
0.764939
  0
VERTEX
  8
LAYER01
 10
-1.986537
 20
0.748332
  0
VERTEX
  8
LAYER01
 10
-1.986537
 20
0.748332
  0
VERTEX
  8
LAYER01
 10
-2.05573
 20
0.730342
  0
VERTEX
  8
LAYER01
 10
-2.108317
 20
0.7082
  0
VERTEX
  8
LAYER01
 10
-2.142914
 20
0.676371
  0
VERTEX
  8
LAYER01
 10
-2.176127
 20
0.632087
  0
VERTEX
  8
LAYER01
 10
-2.20242
 20
0.59749
  0
VERTEX
  8
LAYER01
 10
-2.246704
 20
0.464639
  0
VERTEX
  8
LAYER01
 10
-2.278533
 20
0.342858
  0
VERTEX
  8
LAYER01
 10
-2.28822
 20
0.21831
  0
SEQEND
  8
LAYER01
  0
POLYLINE
  8
LAYER01
  6
CONTINUOUS
 62
     5
 66
     1
  0
VERTEX
  8
LAYER01
 10
-1.715298
 20
-0.010028
  0
VERTEX
  8
LAYER01
 10
-1.711147
 20
0.382991
  0
VERTEX
  8
LAYER01
 10
-1.709763
 20
0.533832
  0
VERTEX
  8
LAYER01
 10
-1.713914
 20
0.582268
  0
VERTEX
  8
LAYER01
 10
-1.71945
 20
0.607177
  0
VERTEX
  8
LAYER01
 10
-1.733288
 20
0.6224
  0
VERTEX
  8
LAYER01
 10
-1.820472
 20
0.639006
  0
VERTEX
  8
LAYER01
 10
-1.900737
 20
0.652845
  0
VERTEX
  8
LAYER01
 10
-1.983769
 20
0.659764
  0
VERTEX
  8
LAYER01
 10
-2.036356
 20
0.658381
  0
VERTEX
  8
LAYER01
 10
-2.079256
 20
0.651461
  0
VERTEX
  8
LAYER01
 10
-2.118004
 20
0.633471
  0
VERTEX
  8
LAYER01
 10
-2.151217
 20
0.605794
  0
VERTEX
  8
LAYER01
 10
-2.180278
 20
0.569813
  0
VERTEX
  8
LAYER01
 10
-2.217643
 20
0.471558
  0
VERTEX
  8
LAYER01
 10
-2.248088
 20
0.373303
  0
VERTEX
  8
LAYER01
 10
-2.263311
 20
0.281968
  0
VERTEX
  8
LAYER01
 10
-2.272998
 20
0.09653
  0
VERTEX
  8
LAYER01
 10
-2.274266
 20
-0.002381
  0
SEQEND
  8
LAYER01
  0
POLYLINE
  8
LAYER01
  6
CONTINUOUS
 62
     5
 66
     1
  0
VERTEX
  8
LAYER01
 10
-1.715298
 20
0.008393
  0
VERTEX
  8
LAYER01
 10
-1.711147
 20
-0.384626
  0
VERTEX
  8
LAYER01
 10
-1.709763
 20
-0.535467
  0
VERTEX
  8
LAYER01
 10
-1.713914
 20
-0.583903
  0
VERTEX
  8
LAYER01
 10
-1.71945
 20
-0.608813
  0
VERTEX
  8
LAYER01
 10
-1.733288
 20
-0.624035
  0
VERTEX
  8
LAYER01
 10
-1.820472
 20
-0.640642
  0
VERTEX
  8
LAYER01
 10
-1.900737
 20
-0.65448
  0
VERTEX
  8
LAYER01
 10
-1.983769
 20
-0.6614
  0
VERTEX
  8
LAYER01
 10
-2.036356
 20
-0.660016
  0
VERTEX
  8
LAYER01
 10
-2.079256
 20
-0.653096
  0
VERTEX
  8
LAYER01
 10
-2.118004
 20
-0.635106
  0
VERTEX
  8
LAYER01
 10
-2.151217
 20
-0.607429
  0
VERTEX
  8
LAYER01
 10
-2.180278
 20
-0.571448
  0
VERTEX
  8
LAYER01
 10
-2.217643
 20
-0.473193
  0
VERTEX
  8
LAYER01
 10
-2.248088
 20
-0.374939
  0
VERTEX
  8
LAYER01
 10
-2.263311
 20
-0.283603
  0
VERTEX
  8
LAYER01
 10
-2.272998
 20
-0.098165
  0
VERTEX
  8
LAYER01
 10
-2.274308
 20
0.004027
  0
SEQEND
  8
LAYER01
  0
POLYLINE
  8
LAYER01
  6
CONTINUOUS
 62
     5
 66
     1
  0
VERTEX
  8
LAYER01
 10
-1.503566
 20
0.525529
  0
VERTEX
  8
LAYER01
 10
-1.922879
 20
0.522761
  0
VERTEX
  8
LAYER01
 10
-2.03082
 20
0.528297
  0
VERTEX
  8
LAYER01
 10
-2.093095
 20
0.531065
  0
VERTEX
  8
LAYER01
 10
-2.126307
 20
0.526913
  0
VERTEX
  8
LAYER01
 10
-2.155369
 20
0.51861
  0
VERTEX
  8
LAYER01
 10
-2.173359
 20
0.4937
  0
VERTEX
  8
LAYER01
 10
-2.195501
 20
0.454952
  0
VERTEX
  8
LAYER01
 10
-2.212107
 20
0.400981
  0
VERTEX
  8
LAYER01
 10
-2.231482
 20
0.30411
  0
VERTEX
  8
LAYER01
 10
-2.241169
 20
0.161571
  0
VERTEX
  8
LAYER01
 10
-2.244838
 20
-0.002335
  0
SEQEND
  8
LAYER01
  0
POLYLINE
  8
LAYER01
  6
CONTINUOUS
 62
     5
 66
     1
  0
VERTEX
  8
LAYER01
 10
-1.503566
 20
-0.527164
  0
VERTEX
  8
LAYER01
 10
-1.922879
 20
-0.524396
  0
VERTEX
  8
LAYER01
 10
-2.03082
 20
-0.529932
  0
VERTEX
  8
LAYER01
 10
-2.093095
 20
-0.5327
  0
VERTEX
  8
LAYER01
 10
-2.126307
 20
-0.528548
  0
VERTEX
  8
LAYER01
 10
-2.155369
 20
-0.520245
  0
VERTEX
  8
LAYER01
 10
-2.173359
 20
-0.495335
  0
VERTEX
  8
LAYER01
 10
-2.195501
 20
-0.456587
  0
VERTEX
  8
LAYER01
 10
-2.212107
 20
-0.402616
  0
VERTEX
  8
LAYER01
 10
-2.231482
 20
-0.305745
  0
VERTEX
  8
LAYER01
 10
-2.241169
 20
-0.163206
  0
VERTEX
  8
LAYER01
 10
-2.244875
 20
0.002336
  0
SEQEND
  8
LAYER01
  0
POLYLINE
  8
LAYER01
  6
CONTINUOUS
 62
     5
 66
     1
  0
VERTEX
  8
LAYER01
 10
-2.045694
 20
-0.002148
  0
VERTEX
  8
LAYER01
 10
-2.036356
 20
0.208623
  0
VERTEX
  8
LAYER01
 10
-2.029437
 20
0.32902
  0
VERTEX
  8
LAYER01
 10
-2.022517
 20
0.376071
  0
VERTEX
  8
LAYER01
 10
-2.003143
 20
0.421739
  0
VERTEX
  8
LAYER01
 10
-1.967162
 20
0.486781
  0
VERTEX
  8
LAYER01
 10
-1.928414
 20
0.529681
  0
VERTEX
  8
LAYER01
 10
-1.834311
 20
0.585036
  0
VERTEX
  8
LAYER01
 10
-1.747127
 20
0.623784
  0
SEQEND
  8
LAYER01
  0
POLYLINE
  8
LAYER01
  6
CONTINUOUS
 62
     5
 66
     1
  0
VERTEX
  8
LAYER01
 10
-2.045732
 20
0.001375
  0
VERTEX
  8
LAYER01
 10
-2.036356
 20
-0.210258
  0
VERTEX
  8
LAYER01
 10
-2.029437
 20
-0.330655
  0
VERTEX
  8
LAYER01
 10
-2.022517
 20
-0.377706
  0
VERTEX
  8
LAYER01
 10
-2.003143
 20
-0.423374
  0
VERTEX
  8
LAYER01
 10
-1.967162
 20
-0.488416
  0
VERTEX
  8
LAYER01
 10
-1.928414
 20
-0.531316
  0
VERTEX
  8
LAYER01
 10
-1.834311
 20
-0.586671
  0
VERTEX
  8
LAYER01
 10
-1.747127
 20
-0.625419
  0
SEQEND
  8
LAYER01
  0
LINE
  8
LAYER01
  6
CONTINUOUS
 62
     5
 10
-2.189941
 20
-0.000818
 11
-2.429583
 21
-0.000818
  0
POLYLINE
  8
LAYER01
  6
CONTINUOUS
 62
     5
 66
     1
  0
VERTEX
  8
LAYER01
 10
-0.509994
 20
-0.876081
  0
VERTEX
  8
LAYER01
 10
-1.125649
 20
-0.863491
  0
VERTEX
  8
LAYER01
 10
-1.17475
 20
-0.878599
  0
VERTEX
  8
LAYER01
 10
-1.22511
 20
-0.884894
  0
VERTEX
  8
LAYER01
 10
-1.317018
 20
-0.882376
  0
VERTEX
  8
LAYER01
 10
-1.36486
 20
-0.876081
  0
VERTEX
  8
LAYER01
 10
-1.381227
 20
-0.849642
  0
VERTEX
  8
LAYER01
 10
-1.317018
 20
-0.850901
  0
VERTEX
  8
LAYER01
 10
-1.299392
 20
-0.863491
  0
VERTEX
  8
LAYER01
 10
-1.255326
 20
-0.871045
  0
VERTEX
  8
LAYER01
 10
-1.222592
 20
-0.871045
  0
VERTEX
  8
LAYER01
 10
-1.184822
 20
-0.859714
  0
VERTEX
  8
LAYER01
 10
-1.129426
 20
-0.859714
  0
SEQEND
  8
LAYER01
  0
POLYLINE
  8
LAYER01
  6
CONTINUOUS
 62
     5
 66
     1
  0
VERTEX
  8
LAYER01
 10
-1.126908
 20
-0.863491
  0
VERTEX
  8
LAYER01
 10
-1.13698
 20
-0.853419
  0
VERTEX
  8
LAYER01
 10
-1.21252
 20
-0.83957
  0
VERTEX
  8
LAYER01
 10
-1.293096
 20
-0.83957
  0
VERTEX
  8
LAYER01
 10
-1.379968
 20
-0.847124
  0
SEQEND
  8
LAYER01
  0
POLYLINE
  8
LAYER01
  6
CONTINUOUS
 62
     5
 66
     1
  0
VERTEX
  8
LAYER01
 10
-0.538578
 20
-0.896153
  0
VERTEX
  8
LAYER01
 10
-1.110217
 20
-0.891981
  0
VERTEX
  8
LAYER01
 10
-1.317494
 20
-0.889887
  0
VERTEX
  8
LAYER01
 10
-1.384493
 20
-0.887793
  0
VERTEX
  8
LAYER01
 10
-1.55827
 20
-0.891981
  0
SEQEND
  8
LAYER01
  0
LINE
  8
LAYER01
  6
CONTINUOUS
 62
     5
 10
-1.825201
 20
-0.829941
 11
-1.793653
 21
-0.832626
  0
POLYLINE
  8
LAYER01
  6
CONTINUOUS
 62
     5
 66
     1
  0
VERTEX
  8
LAYER01
 10
-1.379197
 20
-0.85333
  0
VERTEX
  8
LAYER01
 10
-1.573855
 20
-0.843347
  0
VERTEX
  8
LAYER01
 10
-1.796442
 20
-0.832328
  0
SEQEND
  8
LAYER01
  0
POLYLINE
  8
LAYER01
  6
CONTINUOUS
 62
     5
 66
     1
  0
VERTEX
  8
LAYER01
 10
-1.895914
 20
-0.880051
  0
VERTEX
  8
LAYER01
 10
-2.025998
 20
-0.824696
  0
SEQEND
  8
LAYER01
  0
ENDBLK
  8
0
  0
ENDSEC
  0
SECTION
  2
ENTITIES
  0
INSERT
  8
LAYER01
  2
SKETCH-G1
 10
0.0
 20
0.0
  0
ENDSEC
  0
EOF
