  0
SECTION
  2
HEADER
  9
$ACADVER
  1
AC1004
  9
$INSBASE
 10
88.330872
 20
-300.760538
  9
$EXTMIN
 10
-1.981138
 20
-0.98946
  9
$EXTMAX
 10
2.536869
 20
0.983918
  9
$LIMMIN
 10
-2.85362
 20
-2.271814
  9
$LIMMAX
 10
3.712477
 20
2.410339
  9
$VIEWCTR
 10
6.0
 20
4.5
  9
$VIEWSIZE
 40
9.0
  9
$SNAPMODE
 70
     0
  9
$SNAPUNIT
 10
98.330872
 20
-290.760538
  9
$SNAPBASE
 10
0.0
 20
0.0
  9
$SNAPANG
 50
0.0
  9
$SNAPSTYLE
 70
     0
  9
$SNAPISOPAIR
 70
     0
  9
$GRIDMODE
 70
     0
  9
$GRIDUNIT
 10
98.330872
 20
-290.760538
  9
$ORTHOMODE
 70
     0
  9
$REGENMODE
 70
     1
  9
$FILLMODE
 70
     1
  9
$QTEXTMODE
 70
     0
  9
$DRAGMODE
 70
     2
  9
$LTSCALE
 40
1.0
  9
$OSMODE
 70
     0
  9
$ATTMODE
 70
     1
  9
$TEXTSIZE
 40
0.2
  9
$TRACEWID
 40
0.05
  9
$TEXTSTYLE
  7
STANDARD
  9
$CLAYER
  8
LAYER01
  9
$CELTYPE
  6
CONTINUOUS
  9
$CECOLOR
 62
     7
  9
$DIMSCALE
 40
1.0
  9
$DIMASZ
 40
0.18
  9
$DIMEXO
 40
0.0625
  9
$DIMDLI
 40
0.38
  9
$DIMRND
 40
0.0
  9
$DIMDLE
 40
0.0
  9
$DIMEXE
 40
0.18
  9
$DIMTP
 40
0.0
  9
$DIMTM
 40
0.0
  9
$DIMTXT
 40
0.18
  9
$DIMCEN
 40
0.09
  9
$DIMTSZ
 40
0.0
  9
$DIMTOL
 70
     0
  9
$DIMLIM
 70
     0
  9
$DIMTIH
 70
     1
  9
$DIMTOH
 70
     1
  9
$DIMSE1
 70
     0
  9
$DIMSE2
 70
     0
  9
$DIMTAD
 70
     0
  9
$DIMZIN
 70
     0
  9
$DIMBLK
  1

  9
$DIMASO
 70
     1
  9
$DIMSHO
 70
     1
  9
$DIMPOST
  1

  9
$DIMAPOST
  1

  9
$DIMALT
 70
     0
  9
$DIMALTD
 70
     2
  9
$DIMALTF
 40
25.4
  9
$DIMLFAC
 40
1.0
  9
$LUNITS
 70
     2
  9
$LUPREC
 70
     4
  9
$AXISMODE
 70
     0
  9
$AXISUNIT
 10
0.0
 20
0.0
  9
$SKETCHINC
 40
0.1
  9
$FILLETRAD
 40
10.0
  9
$AUNITS
 70
     0
  9
$AUPREC
 70
     0
  9
$MENU
  1
acad
  9
$ELEVATION
 40
0.0
  9
$THICKNESS
 40
0.0
  9
$VIEWDIR
 10
0.0
 20
0.0
 30
1.0
  9
$LIMCHECK
 70
     0
  9
$BLIPMODE
 70
     1
  9
$CHAMFERA
 40
10.0
  9
$CHAMFERB
 40
10.0
  9
$FASTZOOM
 70
     1
  9
$SKPOLY
 70
     0
  9
$TDCREATE
 40
0.0
  9
$TDUPDATE
 40
0.0
  9
$TDINDWG
 40
0.0
  9
$TDUSRTIMER
 40
0.0
  9
$USRTIMER
 70
     1
  9
$ANGBASE
 50
0.0
  9
$ANGDIR
 70
     0
  9
$PDMODE
 70
     0
  9
$PDSIZE
 40
0.0
  9
$PLINEWID
 40
0.0
  9
$COORDS
 70
     1
  9
$SPLFRAME
 70
     0
  9
$SPLINESEGS
 70
    10
  9
$ATTDIA
 70
     0
  9
$ATTREQ
 70
     1
  9
$USERI1
 70
     0
  9
$USERI2
 70
     0
  9
$USERI3
 70
     0
  9
$USERI4
 70
     0
  9
$USERI5
 70
     0
  9
$USERR1
 40
0.0
  9
$USERR2
 40
0.0
  9
$USERR3
 40
0.0
  9
$USERR4
 40
0.0
  9
$USERR5
 40
0.0
  0
ENDSEC
  0
SECTION
  2
TABLES
  0
TABLE
  2
LTYPE
 70
    11
  0
LTYPE
  2
CONTINUOUS
 70
     0
  3
Solid line
 72
    65
 73
     0
 40
0.0
  0
LTYPE
  2
GESTRICHELT
 70
     0
  3
__ __ __ __ __ __ __ __ __ __ __ __ __ __ __
 72
    65
 73
     2
 40
0.75
 49
0.5
 49
-0.25
  0
LTYPE
  2
VERDECKT
 70
     0
  3
_ _ _ _ _ _ _ _ _ _ _ _ _ _ _ _ _ _ _ _ _ _ 
 72
    65
 73
     2
 40
0.25
 49
0.125
 49
-0.125
  0
LTYPE
  2
MITTELLINIE
 70
     0
  3
____ _ ____ _ ____ _ ____ _ ____ _ ____ _ __
 72
    65
 73
     4
 40
2.0
 49
1.25
 49
-0.25
 49
0.25
 49
-0.25
  0
LTYPE
  2
PHANTOM
 70
     0
  3
_____ _ _ _____ _ _ _____ _ _ _____ _ _ ____
 72
    65
 73
     6
 40
2.5
 49
1.25
 49
-0.25
 49
0.25
 49
-0.25
 49
0.25
 49
-0.25
  0
LTYPE
  2
PUNKTIERT
 70
     0
  3
............................................
 72
    65
 73
     2
 40
0.25
 49
0.0
 49
-0.25
  0
LTYPE
  2
STRICHPUNKTIERT
 70
     0
  3
__ . __ . __ . __ . __ . __ . __ . __ . __ .
 72
    65
 73
     4
 40
1.0
 49
0.5
 49
-0.25
 49
0.0
 49
-0.25
  0
LTYPE
  2
RAND
 70
     0
  3
__ __ . __ __ . __ __ . __ __ . __ __ . __ _
 72
    65
 73
     6
 40
1.75
 49
0.5
 49
-0.25
 49
0.5
 49
-0.25
 49
0.0
 49
-0.25
  0
LTYPE
  2
TRENNLINIE
 70
     0
  3
__ . . __ . . __ . . __ . . __ . . __ . . __
 72
    65
 73
     6
 40
1.25
 49
0.5
 49
-0.25
 49
0.0
 49
-0.25
 49
0.0
 49
-0.25
  0
LTYPE
  2
ENG_PUNKTIERT
 70
     0
  3
Schließen                                   
 72
    65
 73
     2
 40
0.1
 49
0.05
 49
-0.05
  0
LTYPE
  2
CLOSE
 70
     0
  3
                                            
 72
    65
 73
     0
 40
0.0
  0
ENDTAB
  0
TABLE
  2
LAYER
 70
    11
  0
LAYER
  2
0
 70
     0
 62
     7
  6
CONTINUOUS
  0
LAYER
  2
LAYER01
 70
     0
 62
     7
  6
CONTINUOUS
  0
LAYER
  2
LAYER02
 70
     0
 62
     7
  6
CONTINUOUS
  0
LAYER
  2
LAYER03
 70
     0
 62
     7
  6
CONTINUOUS
  0
LAYER
  2
LAYER04
 70
     0
 62
     7
  6
CONTINUOUS
  0
LAYER
  2
LAYER05
 70
     0
 62
     7
  6
CONTINUOUS
  0
LAYER
  2
LAYER06
 70
     0
 62
     7
  6
CONTINUOUS
  0
LAYER
  2
LAYER07
 70
     0
 62
     7
  6
CONTINUOUS
  0
LAYER
  2
LAYER08
 70
     0
 62
     7
  6
CONTINUOUS
  0
LAYER
  2
LAYER09
 70
     0
 62
     7
  6
CONTINUOUS
  0
LAYER
  2
LAYER10
 70
     0
 62
     7
  6
CONTINUOUS
  0
ENDTAB
  0
TABLE
  2
STYLE
 70
     1
  0
STYLE
  2
STANDARD
 70
     0
 40
0.0
 41
1.0
 50
0.0
 71
     0
 42
0.2
  3
txt
  4

  0
ENDTAB
  0
TABLE
  2
VIEW
 70
     0
  0
ENDTAB
  0
ENDSEC
  0
SECTION
  2
BLOCKS
  0
BLOCK
  8
0
  2
SKETCH-G1
 70
     0
 10
0.0
 20
0.0
  0
POLYLINE
  8
LAYER01
  6
CONTINUOUS
 62
     1
 66
     1
  0
VERTEX
  8
LAYER01
 10
-0.232747
 20
-0.427809
  0
VERTEX
  8
LAYER01
 10
-0.473356
 20
-0.427137
  0
VERTEX
  8
LAYER01
 10
-0.808083
 20
-0.427137
  0
VERTEX
  8
LAYER01
 10
-1.515497
 20
-0.428862
  0
VERTEX
  8
LAYER01
 10
-1.550005
 20
-0.428862
  0
VERTEX
  8
LAYER01
 10
-1.563317
 20
-0.432871
  0
VERTEX
  8
LAYER01
 10
-1.569712
 20
-0.437134
  0
VERTEX
  8
LAYER01
 10
-1.574211
 20
-0.442818
  0
VERTEX
  8
LAYER01
 10
-1.577763
 20
-0.452054
  0
VERTEX
  8
LAYER01
 10
-1.577763
 20
-0.470052
  0
VERTEX
  8
LAYER01
 10
-1.576343
 20
-0.485919
  0
VERTEX
  8
LAYER01
 10
-1.574211
 20
-0.504864
  0
VERTEX
  8
LAYER01
 10
-1.489903
 20
-0.504864
  0
VERTEX
  8
LAYER01
 10
-1.492035
 20
-0.496102
  0
VERTEX
  8
LAYER01
 10
-1.495113
 20
-0.487103
  0
VERTEX
  8
LAYER01
 10
-1.495113
 20
-0.480709
  0
VERTEX
  8
LAYER01
 10
-1.491798
 20
-0.476209
  0
VERTEX
  8
LAYER01
 10
-1.483746
 20
-0.474315
  0
VERTEX
  8
LAYER01
 10
-1.465037
 20
-0.470762
  0
VERTEX
  8
LAYER01
 10
-1.465037
 20
-0.470762
  0
VERTEX
  8
LAYER01
 10
-0.344662
 20
-0.465426
  0
VERTEX
  8
LAYER01
 10
-0.227398
 20
-0.465426
  0
SEQEND
  8
LAYER01
  0
POLYLINE
  8
LAYER01
  6
CONTINUOUS
 62
     1
 66
     1
  0
VERTEX
  8
LAYER01
 10
2.202669
 20
-0.7089
  0
VERTEX
  8
LAYER01
 10
2.010115
 20
-0.721001
  0
VERTEX
  8
LAYER01
 10
1.439191
 20
-0.738407
  0
VERTEX
  8
LAYER01
 10
1.370726
 20
-0.738407
  0
VERTEX
  8
LAYER01
 10
1.276733
 20
-0.729124
  0
VERTEX
  8
LAYER01
 10
1.167654
 20
-0.710557
  0
VERTEX
  8
LAYER01
 10
1.034206
 20
-0.686189
  0
VERTEX
  8
LAYER01
 10
0.890277
 20
-0.661023
  0
VERTEX
  8
LAYER01
 10
0.80941
 20
-0.645244
  0
VERTEX
  8
LAYER01
 10
0.718681
 20
-0.629465
  0
VERTEX
  8
LAYER01
 10
0.614146
 20
-0.615659
  0
VERTEX
  8
LAYER01
 10
0.347876
 20
-0.601852
  0
VERTEX
  8
LAYER01
 10
0.024408
 20
-0.59199
  0
VERTEX
  8
LAYER01
 10
-0.604777
 20
-0.59199
  0
VERTEX
  8
LAYER01
 10
-1.626446
 20
-0.58144
  0
SEQEND
  8
LAYER01
  0
POLYLINE
  8
LAYER01
  6
CONTINUOUS
 62
     1
 66
     1
  0
VERTEX
  8
LAYER01
 10
1.08217
 20
-0.85688
  0
VERTEX
  8
LAYER01
 10
0.502458
 20
-0.861151
  0
VERTEX
  8
LAYER01
 10
0.130736
 20
-0.859882
  0
VERTEX
  8
LAYER01
 10
-0.583653
 20
-0.860626
  0
VERTEX
  8
LAYER01
 10
-0.716035
 20
-0.848407
  0
VERTEX
  8
LAYER01
 10
-0.716035
 20
-0.848407
  0
VERTEX
  8
LAYER01
 10
-0.836197
 20
-0.848407
  0
VERTEX
  8
LAYER01
 10
-1.048797
 20
-0.858495
  0
VERTEX
  8
LAYER01
 10
-1.208839
 20
-0.865102
  0
VERTEX
  8
LAYER01
 10
-1.334377
 20
-0.865102
  0
VERTEX
  8
LAYER01
 10
-1.379048
 20
-0.860153
  0
VERTEX
  8
LAYER01
 10
-1.440364
 20
-0.853488
  0
VERTEX
  8
LAYER01
 10
-1.510344
 20
-0.844824
  0
VERTEX
  8
LAYER01
 10
-1.579658
 20
-0.835493
  0
VERTEX
  8
LAYER01
 10
-1.636309
 20
-0.827495
  0
VERTEX
  8
LAYER01
 10
-1.683629
 20
-0.819498
  0
VERTEX
  8
LAYER01
 10
-1.714286
 20
-0.810833
  0
VERTEX
  8
LAYER01
 10
-1.73828
 20
-0.803502
  0
VERTEX
  8
LAYER01
 10
-1.756941
 20
-0.795504
  0
VERTEX
  8
LAYER01
 10
-1.774269
 20
-0.787507
  0
VERTEX
  8
LAYER01
 10
-1.793597
 20
-0.778176
  0
VERTEX
  8
LAYER01
 10
-1.808926
 20
-0.764847
  0
VERTEX
  8
LAYER01
 10
-1.820256
 20
-0.751517
  0
VERTEX
  8
LAYER01
 10
-1.832253
 20
-0.73019
  0
VERTEX
  8
LAYER01
 10
-1.844916
 20
-0.700865
  0
VERTEX
  8
LAYER01
 10
-1.844916
 20
-0.700865
  0
VERTEX
  8
LAYER01
 10
-1.853329
 20
-0.674171
  0
VERTEX
  8
LAYER01
 10
-1.857884
 20
-0.649121
  0
VERTEX
  8
LAYER01
 10
-1.857884
 20
-0.621034
  0
VERTEX
  8
LAYER01
 10
-1.865475
 20
-0.58232
  0
VERTEX
  8
LAYER01
 10
-1.875343
 20
-0.534496
  0
VERTEX
  8
LAYER01
 10
-1.886729
 20
-0.479082
  0
VERTEX
  8
LAYER01
 10
-1.900393
 20
-0.406967
  0
VERTEX
  8
LAYER01
 10
-1.911021
 20
-0.328779
  0
VERTEX
  8
LAYER01
 10
-1.920889
 20
-0.233892
  0
VERTEX
  8
LAYER01
 10
-1.929382
 20
-0.165193
  0
VERTEX
  8
LAYER01
 10
-1.936
 20
-0.081359
  0
VERTEX
  8
LAYER01
 10
-1.936
 20
-0.010763
  0
SEQEND
  8
LAYER01
  0
POLYLINE
  8
LAYER01
  6
CONTINUOUS
 62
     1
 66
     1
  0
VERTEX
  8
LAYER01
 10
-0.80514
 20
-0.79013
  0
VERTEX
  8
LAYER01
 10
-0.727193
 20
-0.705687
  0
VERTEX
  8
LAYER01
 10
-0.727193
 20
-0.6862
  0
VERTEX
  8
LAYER01
 10
-0.729842
 20
-0.677289
  0
VERTEX
  8
LAYER01
 10
-0.732826
 20
-0.672387
  0
VERTEX
  8
LAYER01
 10
-0.736449
 20
-0.669403
  0
VERTEX
  8
LAYER01
 10
-0.742843
 20
-0.666206
  0
VERTEX
  8
LAYER01
 10
-0.753713
 20
-0.663862
  0
VERTEX
  8
LAYER01
 10
-0.778011
 20
-0.661943
  0
VERTEX
  8
LAYER01
 10
-0.919686
 20
-0.660375
  0
VERTEX
  8
LAYER01
 10
-1.010463
 20
-0.660375
  0
VERTEX
  8
LAYER01
 10
-1.332544
 20
-0.662994
  0
VERTEX
  8
LAYER01
 10
-1.425066
 20
-0.669104
  0
VERTEX
  8
LAYER01
 10
-1.478309
 20
-0.673468
  0
VERTEX
  8
LAYER01
 10
-1.485719
 20
-0.676382
  0
VERTEX
  8
LAYER01
 10
-1.487712
 20
-0.678774
  0
VERTEX
  8
LAYER01
 10
-1.489106
 20
-0.684154
  0
VERTEX
  8
LAYER01
 10
-1.488907
 20
-0.689932
  0
VERTEX
  8
LAYER01
 10
-1.488907
 20
-0.697704
  0
VERTEX
  8
LAYER01
 10
-1.484523
 20
-0.703881
  0
VERTEX
  8
LAYER01
 10
-1.484523
 20
-0.703881
  0
VERTEX
  8
LAYER01
 10
-1.470376
 20
-0.715239
  0
VERTEX
  8
LAYER01
 10
-1.453272
 20
-0.727233
  0
VERTEX
  8
LAYER01
 10
-1.430034
 20
-0.742235
  0
VERTEX
  8
LAYER01
 10
-1.396206
 20
-0.763119
  0
VERTEX
  8
LAYER01
 10
-1.38297
 20
-0.770179
  0
SEQEND
  8
LAYER01
  0
POLYLINE
  8
LAYER01
  6
CONTINUOUS
 62
     1
 66
     1
  0
VERTEX
  8
LAYER01
 10
1.102698
 20
-0.796093
  0
VERTEX
  8
LAYER01
 10
0.953149
 20
-0.803147
  0
VERTEX
  8
LAYER01
 10
0.590342
 20
-0.803147
  0
VERTEX
  8
LAYER01
 10
-0.262255
 20
-0.805738
  0
VERTEX
  8
LAYER01
 10
-0.7961
 20
-0.79019
  0
VERTEX
  8
LAYER01
 10
-1.272933
 20
-0.785007
  0
VERTEX
  8
LAYER01
 10
-1.329265
 20
-0.779973
  0
VERTEX
  8
LAYER01
 10
-1.358821
 20
-0.775804
  0
VERTEX
  8
LAYER01
 10
-1.379661
 20
-0.770879
  0
VERTEX
  8
LAYER01
 10
-1.402016
 20
-0.764058
  0
VERTEX
  8
LAYER01
 10
-1.433466
 20
-0.752691
  0
VERTEX
  8
LAYER01
 10
-1.463779
 20
-0.738292
  0
VERTEX
  8
LAYER01
 10
-1.491439
 20
-0.722378
  0
VERTEX
  8
LAYER01
 10
-1.509248
 20
-0.708737
  0
VERTEX
  8
LAYER01
 10
-1.516826
 20
-0.70078
  0
VERTEX
  8
LAYER01
 10
-1.520994
 20
-0.693581
  0
VERTEX
  8
LAYER01
 10
-1.524026
 20
-0.68335
  0
VERTEX
  8
LAYER01
 10
-1.524026
 20
-0.671604
  0
VERTEX
  8
LAYER01
 10
-1.522889
 20
-0.662131
  0
VERTEX
  8
LAYER01
 10
-1.518721
 20
-0.657584
  0
VERTEX
  8
LAYER01
 10
-1.518721
 20
-0.657584
  0
VERTEX
  8
LAYER01
 10
-1.506596
 20
-0.653037
  0
VERTEX
  8
LAYER01
 10
-1.470599
 20
-0.651901
  0
VERTEX
  8
LAYER01
 10
-1.334817
 20
-0.640731
  0
VERTEX
  8
LAYER01
 10
-0.83773
 20
-0.635785
  0
VERTEX
  8
LAYER01
 10
-0.004305
 20
-0.633312
  0
VERTEX
  8
LAYER01
 10
0.20096
 20
-0.633312
  0
VERTEX
  8
LAYER01
 10
0.364274
 20
-0.633444
  0
VERTEX
  8
LAYER01
 10
0.503605
 20
-0.637341
  0
VERTEX
  8
LAYER01
 10
0.590322
 20
-0.641239
  0
VERTEX
  8
LAYER01
 10
0.640988
 20
-0.648059
  0
VERTEX
  8
LAYER01
 10
0.716012
 20
-0.656828
  0
VERTEX
  8
LAYER01
 10
0.869958
 20
-0.686058
  0
VERTEX
  8
LAYER01
 10
1.048263
 20
-0.729904
  0
VERTEX
  8
LAYER01
 10
1.085288
 20
-0.741596
  0
VERTEX
  8
LAYER01
 10
1.098844
 20
-0.748826
  0
VERTEX
  8
LAYER01
 10
1.101645
 20
-0.75116
  0
VERTEX
  8
LAYER01
 10
1.104758
 20
-0.754739
  0
VERTEX
  8
LAYER01
 10
1.106937
 20
-0.758008
  0
SEQEND
  8
LAYER01
  0
POLYLINE
  8
LAYER01
  6
CONTINUOUS
 62
     1
 66
     1
  0
VERTEX
  8
LAYER01
 10
-0.232747
 20
0.422266
  0
VERTEX
  8
LAYER01
 10
-0.473356
 20
0.421594
  0
VERTEX
  8
LAYER01
 10
-0.808083
 20
0.421594
  0
VERTEX
  8
LAYER01
 10
-1.515497
 20
0.42332
  0
VERTEX
  8
LAYER01
 10
-1.550005
 20
0.42332
  0
VERTEX
  8
LAYER01
 10
-1.563317
 20
0.427329
  0
VERTEX
  8
LAYER01
 10
-1.569712
 20
0.431591
  0
VERTEX
  8
LAYER01
 10
-1.574211
 20
0.437275
  0
VERTEX
  8
LAYER01
 10
-1.577763
 20
0.446511
  0
VERTEX
  8
LAYER01
 10
-1.577763
 20
0.464509
  0
VERTEX
  8
LAYER01
 10
-1.576343
 20
0.480376
  0
VERTEX
  8
LAYER01
 10
-1.574211
 20
0.499322
  0
VERTEX
  8
LAYER01
 10
-1.489903
 20
0.499322
  0
VERTEX
  8
LAYER01
 10
-1.492035
 20
0.49056
  0
VERTEX
  8
LAYER01
 10
-1.495113
 20
0.48156
  0
VERTEX
  8
LAYER01
 10
-1.495113
 20
0.475166
  0
VERTEX
  8
LAYER01
 10
-1.491798
 20
0.470667
  0
VERTEX
  8
LAYER01
 10
-1.483746
 20
0.468772
  0
VERTEX
  8
LAYER01
 10
-1.465037
 20
0.46522
  0
VERTEX
  8
LAYER01
 10
-1.465037
 20
0.46522
  0
VERTEX
  8
LAYER01
 10
-0.344662
 20
0.459883
  0
VERTEX
  8
LAYER01
 10
-0.227398
 20
0.459883
  0
SEQEND
  8
LAYER01
  0
POLYLINE
  8
LAYER01
  6
CONTINUOUS
 62
     1
 66
     1
  0
VERTEX
  8
LAYER01
 10
2.202669
 20
0.703358
  0
VERTEX
  8
LAYER01
 10
2.010115
 20
0.715458
  0
VERTEX
  8
LAYER01
 10
1.439191
 20
0.732865
  0
VERTEX
  8
LAYER01
 10
1.370726
 20
0.732865
  0
VERTEX
  8
LAYER01
 10
1.276733
 20
0.723581
  0
VERTEX
  8
LAYER01
 10
1.167654
 20
0.705015
  0
VERTEX
  8
LAYER01
 10
1.034206
 20
0.680646
  0
VERTEX
  8
LAYER01
 10
0.890277
 20
0.655481
  0
VERTEX
  8
LAYER01
 10
0.80941
 20
0.639702
  0
VERTEX
  8
LAYER01
 10
0.718681
 20
0.623923
  0
VERTEX
  8
LAYER01
 10
0.614146
 20
0.610116
  0
VERTEX
  8
LAYER01
 10
0.347876
 20
0.59631
  0
VERTEX
  8
LAYER01
 10
0.024408
 20
0.586448
  0
VERTEX
  8
LAYER01
 10
-0.604777
 20
0.586448
  0
VERTEX
  8
LAYER01
 10
-1.626446
 20
0.575898
  0
SEQEND
  8
LAYER01
  0
POLYLINE
  8
LAYER01
  6
CONTINUOUS
 62
     1
 66
     1
  0
VERTEX
  8
LAYER01
 10
1.08217
 20
0.851338
  0
VERTEX
  8
LAYER01
 10
0.502458
 20
0.855608
  0
VERTEX
  8
LAYER01
 10
0.130736
 20
0.85434
  0
VERTEX
  8
LAYER01
 10
-0.583653
 20
0.855084
  0
VERTEX
  8
LAYER01
 10
-0.716035
 20
0.842864
  0
VERTEX
  8
LAYER01
 10
-0.716035
 20
0.842864
  0
VERTEX
  8
LAYER01
 10
-0.836197
 20
0.842864
  0
VERTEX
  8
LAYER01
 10
-1.048797
 20
0.852952
  0
VERTEX
  8
LAYER01
 10
-1.208839
 20
0.85956
  0
VERTEX
  8
LAYER01
 10
-1.334377
 20
0.85956
  0
VERTEX
  8
LAYER01
 10
-1.379048
 20
0.85461
  0
VERTEX
  8
LAYER01
 10
-1.440364
 20
0.847945
  0
VERTEX
  8
LAYER01
 10
-1.510344
 20
0.839281
  0
VERTEX
  8
LAYER01
 10
-1.579658
 20
0.82995
  0
VERTEX
  8
LAYER01
 10
-1.636309
 20
0.821953
  0
VERTEX
  8
LAYER01
 10
-1.683629
 20
0.813955
  0
VERTEX
  8
LAYER01
 10
-1.714286
 20
0.805291
  0
VERTEX
  8
LAYER01
 10
-1.73828
 20
0.79796
  0
VERTEX
  8
LAYER01
 10
-1.756941
 20
0.789962
  0
VERTEX
  8
LAYER01
 10
-1.774269
 20
0.781964
  0
VERTEX
  8
LAYER01
 10
-1.793597
 20
0.772633
  0
VERTEX
  8
LAYER01
 10
-1.808926
 20
0.759304
  0
VERTEX
  8
LAYER01
 10
-1.820256
 20
0.745974
  0
VERTEX
  8
LAYER01
 10
-1.832253
 20
0.724647
  0
VERTEX
  8
LAYER01
 10
-1.844916
 20
0.695322
  0
VERTEX
  8
LAYER01
 10
-1.844916
 20
0.695322
  0
VERTEX
  8
LAYER01
 10
-1.853329
 20
0.668629
  0
VERTEX
  8
LAYER01
 10
-1.857884
 20
0.643578
  0
VERTEX
  8
LAYER01
 10
-1.857884
 20
0.615492
  0
VERTEX
  8
LAYER01
 10
-1.865475
 20
0.576777
  0
VERTEX
  8
LAYER01
 10
-1.875343
 20
0.528954
  0
VERTEX
  8
LAYER01
 10
-1.886729
 20
0.473539
  0
VERTEX
  8
LAYER01
 10
-1.900393
 20
0.401424
  0
VERTEX
  8
LAYER01
 10
-1.911021
 20
0.323237
  0
VERTEX
  8
LAYER01
 10
-1.920889
 20
0.228349
  0
VERTEX
  8
LAYER01
 10
-1.929382
 20
0.15965
  0
VERTEX
  8
LAYER01
 10
-1.936
 20
0.075817
  0
VERTEX
  8
LAYER01
 10
-1.936
 20
0.00522
  0
SEQEND
  8
LAYER01
  0
POLYLINE
  8
LAYER01
  6
CONTINUOUS
 62
     1
 66
     1
  0
VERTEX
  8
LAYER01
 10
-0.80514
 20
0.784588
  0
VERTEX
  8
LAYER01
 10
-0.727193
 20
0.700145
  0
VERTEX
  8
LAYER01
 10
-0.727193
 20
0.680658
  0
VERTEX
  8
LAYER01
 10
-0.729842
 20
0.671747
  0
VERTEX
  8
LAYER01
 10
-0.732826
 20
0.666845
  0
VERTEX
  8
LAYER01
 10
-0.736449
 20
0.663861
  0
VERTEX
  8
LAYER01
 10
-0.742843
 20
0.660664
  0
VERTEX
  8
LAYER01
 10
-0.753713
 20
0.658319
  0
VERTEX
  8
LAYER01
 10
-0.778011
 20
0.656401
  0
VERTEX
  8
LAYER01
 10
-0.919686
 20
0.654833
  0
VERTEX
  8
LAYER01
 10
-1.010463
 20
0.654833
  0
VERTEX
  8
LAYER01
 10
-1.332544
 20
0.657451
  0
VERTEX
  8
LAYER01
 10
-1.425066
 20
0.663561
  0
VERTEX
  8
LAYER01
 10
-1.478309
 20
0.667925
  0
VERTEX
  8
LAYER01
 10
-1.485719
 20
0.67084
  0
VERTEX
  8
LAYER01
 10
-1.487712
 20
0.673231
  0
VERTEX
  8
LAYER01
 10
-1.489106
 20
0.678611
  0
VERTEX
  8
LAYER01
 10
-1.488907
 20
0.68439
  0
VERTEX
  8
LAYER01
 10
-1.488907
 20
0.692161
  0
VERTEX
  8
LAYER01
 10
-1.484523
 20
0.698338
  0
VERTEX
  8
LAYER01
 10
-1.484523
 20
0.698338
  0
VERTEX
  8
LAYER01
 10
-1.470376
 20
0.709696
  0
VERTEX
  8
LAYER01
 10
-1.453272
 20
0.72169
  0
VERTEX
  8
LAYER01
 10
-1.430034
 20
0.736692
  0
VERTEX
  8
LAYER01
 10
-1.396206
 20
0.757577
  0
VERTEX
  8
LAYER01
 10
-1.38297
 20
0.764636
  0
SEQEND
  8
LAYER01
  0
POLYLINE
  8
LAYER01
  6
CONTINUOUS
 62
     1
 66
     1
  0
VERTEX
  8
LAYER01
 10
1.102698
 20
0.790551
  0
VERTEX
  8
LAYER01
 10
0.953149
 20
0.797604
  0
VERTEX
  8
LAYER01
 10
0.590342
 20
0.797604
  0
VERTEX
  8
LAYER01
 10
-0.262255
 20
0.800196
  0
VERTEX
  8
LAYER01
 10
-0.7961
 20
0.784647
  0
VERTEX
  8
LAYER01
 10
-1.272933
 20
0.779464
  0
VERTEX
  8
LAYER01
 10
-1.329265
 20
0.77443
  0
VERTEX
  8
LAYER01
 10
-1.358821
 20
0.770262
  0
VERTEX
  8
LAYER01
 10
-1.379661
 20
0.765336
  0
VERTEX
  8
LAYER01
 10
-1.402016
 20
0.758516
  0
VERTEX
  8
LAYER01
 10
-1.433466
 20
0.747148
  0
VERTEX
  8
LAYER01
 10
-1.463779
 20
0.73275
  0
VERTEX
  8
LAYER01
 10
-1.491439
 20
0.716835
  0
VERTEX
  8
LAYER01
 10
-1.509248
 20
0.703195
  0
VERTEX
  8
LAYER01
 10
-1.516826
 20
0.695237
  0
VERTEX
  8
LAYER01
 10
-1.520994
 20
0.688038
  0
VERTEX
  8
LAYER01
 10
-1.524026
 20
0.677808
  0
VERTEX
  8
LAYER01
 10
-1.524026
 20
0.666061
  0
VERTEX
  8
LAYER01
 10
-1.522889
 20
0.656589
  0
VERTEX
  8
LAYER01
 10
-1.518721
 20
0.652042
  0
VERTEX
  8
LAYER01
 10
-1.518721
 20
0.652042
  0
VERTEX
  8
LAYER01
 10
-1.506596
 20
0.647495
  0
VERTEX
  8
LAYER01
 10
-1.470599
 20
0.646358
  0
VERTEX
  8
LAYER01
 10
-1.334817
 20
0.635189
  0
VERTEX
  8
LAYER01
 10
-0.83773
 20
0.630242
  0
VERTEX
  8
LAYER01
 10
-0.004305
 20
0.627769
  0
VERTEX
  8
LAYER01
 10
0.20096
 20
0.627769
  0
VERTEX
  8
LAYER01
 10
0.364274
 20
0.627901
  0
VERTEX
  8
LAYER01
 10
0.503605
 20
0.631799
  0
VERTEX
  8
LAYER01
 10
0.590322
 20
0.635696
  0
VERTEX
  8
LAYER01
 10
0.640988
 20
0.642516
  0
VERTEX
  8
LAYER01
 10
0.716012
 20
0.651285
  0
VERTEX
  8
LAYER01
 10
0.869958
 20
0.680516
  0
VERTEX
  8
LAYER01
 10
1.048263
 20
0.724361
  0
VERTEX
  8
LAYER01
 10
1.085288
 20
0.736053
  0
VERTEX
  8
LAYER01
 10
1.098844
 20
0.743283
  0
VERTEX
  8
LAYER01
 10
1.101645
 20
0.745617
  0
VERTEX
  8
LAYER01
 10
1.104758
 20
0.749197
  0
VERTEX
  8
LAYER01
 10
1.106937
 20
0.752465
  0
SEQEND
  8
LAYER01
  0
LINE
  8
LAYER01
  6
CONTINUOUS
 62
     1
 10
-0.197145
 20
-0.428074
 11
-0.232828
 21
-0.427837
  0
POLYLINE
  8
LAYER01
  6
CONTINUOUS
 62
     1
 66
     1
  0
VERTEX
  8
LAYER01
 10
-0.248974
 20
-0.465426
  0
VERTEX
  8
LAYER01
 10
-0.022466
 20
-0.465426
  0
VERTEX
  8
LAYER01
 10
-0.006694
 20
-0.476585
  0
VERTEX
  8
LAYER01
 10
-0.00101
 20
-0.482553
  0
VERTEX
  8
LAYER01
 10
0.005242
 20
-0.489089
  0
VERTEX
  8
LAYER01
 10
0.010357
 20
-0.494773
  0
VERTEX
  8
LAYER01
 10
0.016894
 20
-0.502446
  0
VERTEX
  8
LAYER01
 10
0.180015
 20
-0.503014
  0
VERTEX
  8
LAYER01
 10
0.184846
 20
-0.497046
  0
VERTEX
  8
LAYER01
 10
0.191666
 20
-0.488236
  0
VERTEX
  8
LAYER01
 10
0.198202
 20
-0.47829
  0
VERTEX
  8
LAYER01
 10
0.202181
 20
-0.470617
  0
VERTEX
  8
LAYER01
 10
0.20417
 20
-0.46266
  0
VERTEX
  8
LAYER01
 10
0.20417
 20
-0.443051
  0
VERTEX
  8
LAYER01
 10
0.202465
 20
-0.435378
  0
VERTEX
  8
LAYER01
 10
0.197066
 20
-0.431684
  0
VERTEX
  8
LAYER01
 10
0.185698
 20
-0.429126
  0
VERTEX
  8
LAYER01
 10
0.169764
 20
-0.428862
  0
VERTEX
  8
LAYER01
 10
0.090395
 20
-0.428862
  0
VERTEX
  8
LAYER01
 10
-0.197205
 20
-0.428059
  0
SEQEND
  8
LAYER01
  0
POLYLINE
  8
LAYER01
  6
CONTINUOUS
 62
     1
 66
     1
  0
VERTEX
  8
LAYER01
 10
-0.610556
 20
-0.784369
  0
VERTEX
  8
LAYER01
 10
-0.610556
 20
-0.771014
  0
VERTEX
  8
LAYER01
 10
-0.607427
 20
-0.747686
  0
VERTEX
  8
LAYER01
 10
-0.603508
 20
-0.738169
  0
VERTEX
  8
LAYER01
 10
-0.59511
 20
-0.723333
  0
VERTEX
  8
LAYER01
 10
-0.581394
 20
-0.70038
  0
VERTEX
  8
LAYER01
 10
-0.568518
 20
-0.680505
  0
VERTEX
  8
LAYER01
 10
-0.56152
 20
-0.670428
  0
VERTEX
  8
LAYER01
 10
-0.555642
 20
-0.666229
  0
VERTEX
  8
LAYER01
 10
-0.547244
 20
-0.662031
  0
VERTEX
  8
LAYER01
 10
-0.534648
 20
-0.660071
  0
VERTEX
  8
LAYER01
 10
-0.512534
 20
-0.656992
  0
VERTEX
  8
LAYER01
 10
0.083542
 20
-0.660463
  0
VERTEX
  8
LAYER01
 10
0.102382
 20
-0.661912
  0
VERTEX
  8
LAYER01
 10
0.110225
 20
-0.663805
  0
VERTEX
  8
LAYER01
 10
0.116445
 20
-0.666239
  0
VERTEX
  8
LAYER01
 10
0.121312
 20
-0.669754
  0
VERTEX
  8
LAYER01
 10
0.12618
 20
-0.673811
  0
VERTEX
  8
LAYER01
 10
0.130507
 20
-0.677867
  0
VERTEX
  8
LAYER01
 10
0.134563
 20
-0.684087
  0
VERTEX
  8
LAYER01
 10
0.134563
 20
-0.684087
  0
VERTEX
  8
LAYER01
 10
0.13862
 20
-0.694634
  0
VERTEX
  8
LAYER01
 10
0.153494
 20
-0.760078
  0
VERTEX
  8
LAYER01
 10
0.153494
 20
-0.794801
  0
SEQEND
  8
LAYER01
  0
POLYLINE
  8
LAYER01
  6
CONTINUOUS
 62
     1
 66
     1
  0
VERTEX
  8
LAYER01
 10
0.153473
 20
-0.794838
  0
VERTEX
  8
LAYER01
 10
-0.610376
 20
-0.784374
  0
SEQEND
  8
LAYER01
  0
POLYLINE
  8
LAYER01
  6
CONTINUOUS
 62
     1
 66
     1
  0
VERTEX
  8
LAYER01
 10
0.807993
 20
-0.010525
  0
VERTEX
  8
LAYER01
 10
0.807993
 20
-0.084538
  0
VERTEX
  8
LAYER01
 10
0.802442
 20
-0.203883
  0
VERTEX
  8
LAYER01
 10
0.795965
 20
-0.284372
  0
VERTEX
  8
LAYER01
 10
0.783938
 20
-0.388915
  0
VERTEX
  8
LAYER01
 10
0.765435
 20
-0.486056
  0
VERTEX
  8
LAYER01
 10
0.746007
 20
-0.551742
  0
VERTEX
  8
LAYER01
 10
0.727504
 20
-0.598925
  0
VERTEX
  8
LAYER01
 10
0.716473
 20
-0.629261
  0
SEQEND
  8
LAYER01
  0
POLYLINE
  8
LAYER01
  6
CONTINUOUS
 62
     1
 66
     1
  0
VERTEX
  8
LAYER01
 10
1.06506
 20
-0.785923
  0
VERTEX
  8
LAYER01
 10
0.322256
 20
-0.791587
  0
VERTEX
  8
LAYER01
 10
0.316025
 20
-0.788393
  0
VERTEX
  8
LAYER01
 10
0.311641
 20
-0.782913
  0
VERTEX
  8
LAYER01
 10
0.302143
 20
-0.766474
  0
VERTEX
  8
LAYER01
 10
0.268899
 20
-0.706196
  0
VERTEX
  8
LAYER01
 10
0.25867
 20
-0.687565
  0
VERTEX
  8
LAYER01
 10
0.25867
 20
-0.676971
  0
VERTEX
  8
LAYER01
 10
0.260131
 20
-0.670395
  0
VERTEX
  8
LAYER01
 10
0.264515
 20
-0.664915
  0
VERTEX
  8
LAYER01
 10
0.270725
 20
-0.661262
  0
VERTEX
  8
LAYER01
 10
0.286799
 20
-0.659435
  0
VERTEX
  8
LAYER01
 10
0.391789
 20
-0.659142
  0
VERTEX
  8
LAYER01
 10
0.541578
 20
-0.662566
  0
VERTEX
  8
LAYER01
 10
0.583518
 20
-0.668557
  0
VERTEX
  8
LAYER01
 10
0.64429
 20
-0.678829
  0
VERTEX
  8
LAYER01
 10
0.772679
 20
-0.698515
  0
VERTEX
  8
LAYER01
 10
0.908773
 20
-0.725905
  0
VERTEX
  8
LAYER01
 10
1.026892
 20
-0.753295
  0
VERTEX
  8
LAYER01
 10
1.041642
 20
-0.758883
  0
VERTEX
  8
LAYER01
 10
1.041642
 20
-0.758883
  0
VERTEX
  8
LAYER01
 10
1.045627
 20
-0.761065
  0
VERTEX
  8
LAYER01
 10
1.048379
 20
-0.764007
  0
VERTEX
  8
LAYER01
 10
1.0517
 20
-0.767802
  0
VERTEX
  8
LAYER01
 10
1.055021
 20
-0.771882
  0
VERTEX
  8
LAYER01
 10
1.058058
 20
-0.775962
  0
VERTEX
  8
LAYER01
 10
1.064985
 20
-0.785926
  0
SEQEND
  8
LAYER01
  0
POLYLINE
  8
LAYER01
  6
CONTINUOUS
 62
     1
 66
     1
  0
VERTEX
  8
LAYER01
 10
2.514137
 20
-0.011142
  0
VERTEX
  8
LAYER01
 10
2.514137
 20
-0.087622
  0
VERTEX
  8
LAYER01
 10
2.509819
 20
-0.164101
  0
VERTEX
  8
LAYER01
 10
2.503035
 20
-0.218994
  0
VERTEX
  8
LAYER01
 10
2.491316
 20
-0.285605
  0
VERTEX
  8
LAYER01
 10
2.480214
 20
-0.338648
  0
VERTEX
  8
LAYER01
 10
2.465412
 20
-0.392307
  0
VERTEX
  8
LAYER01
 10
2.45431
 20
-0.42993
  0
VERTEX
  8
LAYER01
 10
2.444752
 20
-0.472018
  0
VERTEX
  8
LAYER01
 10
2.435852
 20
-0.506984
  0
VERTEX
  8
LAYER01
 10
2.423137
 20
-0.555301
  0
VERTEX
  8
LAYER01
 10
2.411057
 20
-0.59281
  0
VERTEX
  8
LAYER01
 10
2.399614
 20
-0.628412
  0
VERTEX
  8
LAYER01
 10
2.390078
 20
-0.655749
  0
VERTEX
  8
LAYER01
 10
2.383085
 20
-0.675457
  0
VERTEX
  8
LAYER01
 10
2.375456
 20
-0.688172
  0
VERTEX
  8
LAYER01
 10
2.365284
 20
-0.705337
  0
VERTEX
  8
LAYER01
 10
2.355112
 20
-0.719324
  0
VERTEX
  8
LAYER01
 10
2.339854
 20
-0.735218
  0
VERTEX
  8
LAYER01
 10
2.321417
 20
-0.750476
  0
VERTEX
  8
LAYER01
 10
2.321417
 20
-0.750476
  0
VERTEX
  8
LAYER01
 10
2.299166
 20
-0.763826
  0
VERTEX
  8
LAYER01
 10
2.266107
 20
-0.778449
  0
VERTEX
  8
LAYER01
 10
2.201896
 20
-0.801971
  0
VERTEX
  8
LAYER01
 10
2.157704
 20
-0.820771
  0
VERTEX
  8
LAYER01
 10
2.127446
 20
-0.832734
  0
VERTEX
  8
LAYER01
 10
2.09015
 20
-0.844697
  0
VERTEX
  8
LAYER01
 10
2.033151
 20
-0.855252
  0
VERTEX
  8
LAYER01
 10
1.9473
 20
-0.862289
  0
VERTEX
  8
LAYER01
 10
1.74711
 20
-0.872809
  0
VERTEX
  8
LAYER01
 10
1.548537
 20
-0.872809
  0
VERTEX
  8
LAYER01
 10
1.454851
 20
-0.866699
  0
VERTEX
  8
LAYER01
 10
1.41921
 20
-0.861608
  0
VERTEX
  8
LAYER01
 10
1.364221
 20
-0.857534
  0
VERTEX
  8
LAYER01
 10
1.254242
 20
-0.856516
  0
VERTEX
  8
LAYER01
 10
1.191349
 20
-0.856076
  0
VERTEX
  8
LAYER01
 10
1.164965
 20
-0.85627
  0
SEQEND
  8
LAYER01
  0
POLYLINE
  8
LAYER01
  6
CONTINUOUS
 62
     1
 66
     1
  0
VERTEX
  8
LAYER01
 10
1.478767
 20
-0.010872
  0
VERTEX
  8
LAYER01
 10
1.478767
 20
-0.115144
  0
VERTEX
  8
LAYER01
 10
1.476661
 20
-0.239428
  0
VERTEX
  8
LAYER01
 10
1.465075
 20
-0.361606
  0
VERTEX
  8
LAYER01
 10
1.448223
 20
-0.474304
  0
VERTEX
  8
LAYER01
 10
1.431371
 20
-0.558565
  0
VERTEX
  8
LAYER01
 10
1.413465
 20
-0.62492
  0
VERTEX
  8
LAYER01
 10
1.399773
 20
-0.66389
  0
VERTEX
  8
LAYER01
 10
1.389581
 20
-0.678781
  0
VERTEX
  8
LAYER01
 10
1.381542
 20
-0.685926
  0
VERTEX
  8
LAYER01
 10
1.363084
 20
-0.695751
  0
VERTEX
  8
LAYER01
 10
1.341053
 20
-0.70498
  0
VERTEX
  8
LAYER01
 10
1.291632
 20
-0.719866
  0
VERTEX
  8
LAYER01
 10
1.26499
 20
-0.727106
  0
SEQEND
  8
LAYER01
  0
POLYLINE
  8
LAYER01
  6
CONTINUOUS
 62
     1
 66
     1
  0
VERTEX
  8
LAYER01
 10
1.590377
 20
-0.010914
  0
VERTEX
  8
LAYER01
 10
1.590377
 20
-0.091123
  0
VERTEX
  8
LAYER01
 10
1.582254
 20
-0.202806
  0
VERTEX
  8
LAYER01
 10
1.575147
 20
-0.288092
  0
VERTEX
  8
LAYER01
 10
1.560933
 20
-0.389622
  0
VERTEX
  8
LAYER01
 10
1.545703
 20
-0.470846
  0
VERTEX
  8
LAYER01
 10
1.526413
 20
-0.551054
  0
VERTEX
  8
LAYER01
 10
1.503061
 20
-0.61908
  0
VERTEX
  8
LAYER01
 10
1.477678
 20
-0.67289
  0
VERTEX
  8
LAYER01
 10
1.44925
 20
-0.72264
  0
VERTEX
  8
LAYER01
 10
1.436219
 20
-0.738464
  0
SEQEND
  8
LAYER01
  0
POLYLINE
  8
LAYER01
  6
CONTINUOUS
 62
     1
 66
     1
  0
VERTEX
  8
LAYER01
 10
2.285204
 20
-0.53155
  0
VERTEX
  8
LAYER01
 10
2.238264
 20
-0.552413
  0
VERTEX
  8
LAYER01
 10
2.193058
 20
-0.57014
  0
VERTEX
  8
LAYER01
 10
2.107966
 20
-0.594959
  0
VERTEX
  8
LAYER01
 10
2.010464
 20
-0.622437
  0
VERTEX
  8
LAYER01
 10
1.891688
 20
-0.651687
  0
VERTEX
  8
LAYER01
 10
1.75164
 20
-0.684484
  0
VERTEX
  8
LAYER01
 10
1.606274
 20
-0.71728
  0
VERTEX
  8
LAYER01
 10
1.522954
 20
-0.732348
  0
VERTEX
  8
LAYER01
 10
1.486612
 20
-0.73678
  0
VERTEX
  8
LAYER01
 10
1.535363
 20
-0.71728
  0
VERTEX
  8
LAYER01
 10
1.598296
 20
-0.691575
  0
VERTEX
  8
LAYER01
 10
1.694025
 20
-0.657006
  0
VERTEX
  8
LAYER01
 10
1.752527
 20
-0.637505
  0
VERTEX
  8
LAYER01
 10
1.88637
 20
-0.599391
  0
VERTEX
  8
LAYER01
 10
2.041487
 20
-0.553299
  0
VERTEX
  8
LAYER01
 10
2.200149
 20
-0.501003
  0
VERTEX
  8
LAYER01
 10
2.281696
 20
-0.466434
  0
VERTEX
  8
LAYER01
 10
2.308288
 20
-0.452252
  0
VERTEX
  8
LAYER01
 10
2.33222
 20
-0.436297
  0
VERTEX
  8
LAYER01
 10
2.33222
 20
-0.436297
  0
VERTEX
  8
LAYER01
 10
2.342366
 20
-0.428687
  0
SEQEND
  8
LAYER01
  0
POLYLINE
  8
LAYER01
  6
CONTINUOUS
 62
     1
 66
     1
  0
VERTEX
  8
LAYER01
 10
2.20145
 20
-0.726075
  0
VERTEX
  8
LAYER01
 10
2.214639
 20
-0.725416
  0
VERTEX
  8
LAYER01
 10
2.226982
 20
-0.723181
  0
VERTEX
  8
LAYER01
 10
2.233814
 20
-0.718911
  0
VERTEX
  8
LAYER01
 10
2.24577
 20
-0.70909
  0
VERTEX
  8
LAYER01
 10
2.259861
 20
-0.694572
  0
VERTEX
  8
LAYER01
 10
2.274379
 20
-0.676639
  0
VERTEX
  8
LAYER01
 10
2.290604
 20
-0.653581
  0
VERTEX
  8
LAYER01
 10
2.304268
 20
-0.629242
  0
VERTEX
  8
LAYER01
 10
2.316224
 20
-0.599779
  0
VERTEX
  8
LAYER01
 10
2.329888
 20
-0.568182
  0
VERTEX
  8
LAYER01
 10
2.337147
 20
-0.54427
  0
VERTEX
  8
LAYER01
 10
2.343125
 20
-0.519931
  0
VERTEX
  8
LAYER01
 10
2.343125
 20
-0.502851
  0
VERTEX
  8
LAYER01
 10
2.341417
 20
-0.499008
  0
VERTEX
  8
LAYER01
 10
2.335866
 20
-0.493884
  0
VERTEX
  8
LAYER01
 10
2.327753
 20
-0.491749
  0
VERTEX
  8
LAYER01
 10
2.315721
 20
-0.491749
  0
SEQEND
  8
LAYER01
  0
POLYLINE
  8
LAYER01
  6
CONTINUOUS
 62
     1
 66
     1
  0
VERTEX
  8
LAYER01
 10
2.365585
 20
-0.506234
  0
VERTEX
  8
LAYER01
 10
2.362454
 20
-0.500911
  0
VERTEX
  8
LAYER01
 10
2.358383
 20
-0.496527
  0
VERTEX
  8
LAYER01
 10
2.35306
 20
-0.492456
  0
VERTEX
  8
LAYER01
 10
2.34805
 20
-0.489012
  0
VERTEX
  8
LAYER01
 10
2.340221
 20
-0.485568
  0
VERTEX
  8
LAYER01
 10
2.332706
 20
-0.485568
  0
VERTEX
  8
LAYER01
 10
2.317961
 20
-0.487103
  0
SEQEND
  8
LAYER01
  0
POLYLINE
  8
LAYER01
  6
CONTINUOUS
 62
     1
 66
     1
  0
VERTEX
  8
LAYER01
 10
2.353593
 20
-0.345886
  0
VERTEX
  8
LAYER01
 10
2.367499
 20
-0.339265
  0
VERTEX
  8
LAYER01
 10
2.379033
 20
-0.330445
  0
VERTEX
  8
LAYER01
 10
2.392602
 20
-0.31484
  0
VERTEX
  8
LAYER01
 10
2.406171
 20
-0.292452
  0
VERTEX
  8
LAYER01
 10
2.424489
 20
-0.260565
  0
VERTEX
  8
LAYER01
 10
2.438058
 20
-0.232748
  0
VERTEX
  8
LAYER01
 10
2.458411
 20
-0.188649
  0
VERTEX
  8
LAYER01
 10
2.470623
 20
-0.154048
  0
VERTEX
  8
LAYER01
 10
2.477408
 20
-0.120126
  0
VERTEX
  8
LAYER01
 10
2.483514
 20
-0.083489
  0
VERTEX
  8
LAYER01
 10
2.483514
 20
-0.010895
  0
SEQEND
  8
LAYER01
  0
POLYLINE
  8
LAYER01
  6
CONTINUOUS
 62
     1
 66
     1
  0
VERTEX
  8
LAYER01
 10
-0.72091
 20
-0.467173
  0
VERTEX
  8
LAYER01
 10
-0.720261
 20
-0.472369
  0
VERTEX
  8
LAYER01
 10
-0.718312
 20
-0.478865
  0
VERTEX
  8
LAYER01
 10
-0.715064
 20
-0.484278
  0
VERTEX
  8
LAYER01
 10
-0.710734
 20
-0.489908
  0
VERTEX
  8
LAYER01
 10
-0.706403
 20
-0.492722
  0
VERTEX
  8
LAYER01
 10
-0.697526
 20
-0.496403
  0
VERTEX
  8
LAYER01
 10
-0.690164
 20
-0.498135
  0
VERTEX
  8
LAYER01
 10
-0.644045
 20
-0.498135
  0
VERTEX
  8
LAYER01
 10
-0.6369
 20
-0.495754
  0
VERTEX
  8
LAYER01
 10
-0.633003
 20
-0.492939
  0
VERTEX
  8
LAYER01
 10
-0.629105
 20
-0.488392
  0
VERTEX
  8
LAYER01
 10
-0.625208
 20
-0.482762
  0
VERTEX
  8
LAYER01
 10
-0.622177
 20
-0.477566
  0
VERTEX
  8
LAYER01
 10
-0.619579
 20
-0.472369
  0
VERTEX
  8
LAYER01
 10
-0.618496
 20
-0.46674
  0
SEQEND
  8
LAYER01
  0
POLYLINE
  8
LAYER01
  6
CONTINUOUS
 62
     1
 66
     1
  0
VERTEX
  8
LAYER01
 10
0.255064
 20
-0.860318
  0
VERTEX
  8
LAYER01
 10
0.255064
 20
-0.847963
  0
VERTEX
  8
LAYER01
 10
0.252417
 20
-0.828991
  0
VERTEX
  8
LAYER01
 10
0.247563
 20
-0.810459
  0
VERTEX
  8
LAYER01
 10
0.236974
 20
-0.787074
  0
VERTEX
  8
LAYER01
 10
0.221531
 20
-0.758835
  0
VERTEX
  8
LAYER01
 10
0.198587
 20
-0.711624
  0
VERTEX
  8
LAYER01
 10
0.184909
 20
-0.681179
  0
VERTEX
  8
LAYER01
 10
0.172113
 20
-0.647646
  0
VERTEX
  8
LAYER01
 10
0.167259
 20
-0.629996
  0
VERTEX
  8
LAYER01
 10
0.167259
 20
-0.596463
  0
SEQEND
  8
LAYER01
  0
POLYLINE
  8
LAYER01
  6
CONTINUOUS
 62
     1
 66
     1
  0
VERTEX
  8
LAYER01
 10
-0.757094
 20
-0.848343
  0
VERTEX
  8
LAYER01
 10
-0.757094
 20
-0.834821
  0
VERTEX
  8
LAYER01
 10
-0.74844
 20
-0.815891
  0
VERTEX
  8
LAYER01
 10
-0.721397
 20
-0.774786
  0
VERTEX
  8
LAYER01
 10
-0.658657
 20
-0.690952
  0
VERTEX
  8
LAYER01
 10
-0.644054
 20
-0.672022
  0
VERTEX
  8
LAYER01
 10
-0.633236
 20
-0.653092
  0
VERTEX
  8
LAYER01
 10
-0.625123
 20
-0.631999
  0
VERTEX
  8
LAYER01
 10
-0.618092
 20
-0.591975
  0
SEQEND
  8
LAYER01
  0
POLYLINE
  8
LAYER01
  6
CONTINUOUS
 62
     1
 66
     1
  0
VERTEX
  8
LAYER01
 10
1.298176
 20
-0.856973
  0
VERTEX
  8
LAYER01
 10
1.296336
 20
-0.841786
  0
VERTEX
  8
LAYER01
 10
1.289432
 20
-0.817856
  0
VERTEX
  8
LAYER01
 10
1.282069
 20
-0.799907
  0
VERTEX
  8
LAYER01
 10
1.274246
 20
-0.784721
  0
VERTEX
  8
LAYER01
 10
1.274246
 20
-0.769534
  0
VERTEX
  8
LAYER01
 10
1.274246
 20
-0.728575
  0
SEQEND
  8
LAYER01
  0
POLYLINE
  8
LAYER01
  6
CONTINUOUS
 62
     1
 66
     1
  0
VERTEX
  8
LAYER01
 10
2.347824
 20
-0.395576
  0
VERTEX
  8
LAYER01
 10
2.362072
 20
-0.386078
  0
VERTEX
  8
LAYER01
 10
2.375641
 20
-0.376579
  0
VERTEX
  8
LAYER01
 10
2.388531
 20
-0.365046
  0
VERTEX
  8
LAYER01
 10
2.400065
 20
-0.352155
  0
VERTEX
  8
LAYER01
 10
2.412955
 20
-0.335872
  0
VERTEX
  8
LAYER01
 10
2.427881
 20
-0.31077
  0
VERTEX
  8
LAYER01
 10
2.443485
 20
-0.281596
  0
VERTEX
  8
LAYER01
 10
2.458411
 20
-0.248352
  0
VERTEX
  8
LAYER01
 10
2.472659
 20
-0.212395
  0
VERTEX
  8
LAYER01
 10
2.484871
 20
-0.177115
  0
VERTEX
  8
LAYER01
 10
2.490298
 20
-0.147264
  0
VERTEX
  8
LAYER01
 10
2.495048
 20
-0.116055
  0
VERTEX
  8
LAYER01
 10
2.497083
 20
-0.079419
  0
VERTEX
  8
LAYER01
 10
2.497083
 20
-0.010895
  0
SEQEND
  8
LAYER01
  0
POLYLINE
  8
LAYER01
  6
CONTINUOUS
 62
     1
 66
     1
  0
VERTEX
  8
LAYER01
 10
2.372403
 20
-0.010929
  0
VERTEX
  8
LAYER01
 10
2.372403
 20
-0.113294
  0
VERTEX
  8
LAYER01
 10
2.356283
 20
-0.323077
  0
VERTEX
  8
LAYER01
 10
2.351254
 20
-0.365321
  0
VERTEX
  8
LAYER01
 10
2.347231
 20
-0.399518
  0
VERTEX
  8
LAYER01
 10
2.342202
 20
-0.430699
  0
VERTEX
  8
LAYER01
 10
2.335638
 20
-0.450601
  0
VERTEX
  8
LAYER01
 10
2.326534
 20
-0.469769
  0
VERTEX
  8
LAYER01
 10
2.315512
 20
-0.49229
  0
VERTEX
  8
LAYER01
 10
2.300179
 20
-0.514333
  0
VERTEX
  8
LAYER01
 10
2.280053
 20
-0.537813
  0
VERTEX
  8
LAYER01
 10
2.266636
 20
-0.554584
  0
VERTEX
  8
LAYER01
 10
2.254656
 20
-0.571835
  0
VERTEX
  8
LAYER01
 10
2.244114
 20
-0.58669
  0
VERTEX
  8
LAYER01
 10
2.235489
 20
-0.600586
  0
VERTEX
  8
LAYER01
 10
2.228301
 20
-0.613045
  0
VERTEX
  8
LAYER01
 10
2.217759
 20
-0.630774
  0
VERTEX
  8
LAYER01
 10
2.212488
 20
-0.639879
  0
VERTEX
  8
LAYER01
 10
2.206738
 20
-0.651379
  0
VERTEX
  8
LAYER01
 10
2.202904
 20
-0.663359
  0
VERTEX
  8
LAYER01
 10
2.202904
 20
-0.663359
  0
VERTEX
  8
LAYER01
 10
2.202904
 20
-0.68013
  0
VERTEX
  8
LAYER01
 10
2.203058
 20
-0.702676
  0
VERTEX
  8
LAYER01
 10
2.201502
 20
-0.727185
  0
VERTEX
  8
LAYER01
 10
2.19839
 20
-0.734188
  0
VERTEX
  8
LAYER01
 10
2.190609
 20
-0.738468
  0
VERTEX
  8
LAYER01
 10
2.178549
 20
-0.743525
  0
VERTEX
  8
LAYER01
 10
2.1661
 20
-0.748583
  0
VERTEX
  8
LAYER01
 10
2.158708
 20
-0.753251
  0
VERTEX
  8
LAYER01
 10
2.158708
 20
-0.762199
  0
VERTEX
  8
LAYER01
 10
2.163765
 20
-0.768035
  0
VERTEX
  8
LAYER01
 10
2.18633
 20
-0.783985
  0
SEQEND
  8
LAYER01
  0
POLYLINE
  8
LAYER01
  6
CONTINUOUS
 62
     1
 66
     1
  0
VERTEX
  8
LAYER01
 10
2.01065
 20
-0.857079
  0
VERTEX
  8
LAYER01
 10
2.050026
 20
-0.840005
  0
VERTEX
  8
LAYER01
 10
2.084401
 20
-0.827131
  0
VERTEX
  8
LAYER01
 10
2.115856
 20
-0.815412
  0
VERTEX
  8
LAYER01
 10
2.147312
 20
-0.803693
  0
VERTEX
  8
LAYER01
 10
2.170749
 20
-0.791358
  0
VERTEX
  8
LAYER01
 10
2.213306
 20
-0.771621
  0
VERTEX
  8
LAYER01
 10
2.230576
 20
-0.761753
  0
VERTEX
  8
LAYER01
 10
2.245995
 20
-0.752501
  0
VERTEX
  8
LAYER01
 10
2.263265
 20
-0.738932
  0
VERTEX
  8
LAYER01
 10
2.279301
 20
-0.726597
  0
VERTEX
  8
LAYER01
 10
2.29102
 20
-0.713028
  0
VERTEX
  8
LAYER01
 10
2.306439
 20
-0.692058
  0
VERTEX
  8
LAYER01
 10
2.317541
 20
-0.671088
  0
VERTEX
  8
LAYER01
 10
2.328026
 20
-0.644566
  0
VERTEX
  8
LAYER01
 10
2.341595
 20
-0.610644
  0
VERTEX
  8
LAYER01
 10
2.348996
 20
-0.579189
  0
VERTEX
  8
LAYER01
 10
2.361948
 20
-0.523062
  0
VERTEX
  8
LAYER01
 10
2.371385
 20
-0.479765
  0
VERTEX
  8
LAYER01
 10
2.379156
 20
-0.440909
  0
VERTEX
  8
LAYER01
 10
2.379156
 20
-0.440909
  0
VERTEX
  8
LAYER01
 10
2.383474
 20
-0.415868
  0
VERTEX
  8
LAYER01
 10
2.392108
 20
-0.397735
  0
VERTEX
  8
LAYER01
 10
2.411968
 20
-0.370103
  0
VERTEX
  8
LAYER01
 10
2.427511
 20
-0.345062
  0
VERTEX
  8
LAYER01
 10
2.441327
 20
-0.319158
  0
VERTEX
  8
LAYER01
 10
2.45946
 20
-0.282892
  0
VERTEX
  8
LAYER01
 10
2.471549
 20
-0.251806
  0
VERTEX
  8
LAYER01
 10
2.487955
 20
-0.203451
  0
VERTEX
  8
LAYER01
 10
2.495726
 20
-0.166322
  0
VERTEX
  8
LAYER01
 10
2.500907
 20
-0.123148
  0
VERTEX
  8
LAYER01
 10
2.505224
 20
-0.084291
  0
VERTEX
  8
LAYER01
 10
2.505224
 20
-0.010895
  0
SEQEND
  8
LAYER01
  0
POLYLINE
  8
LAYER01
  6
CONTINUOUS
 62
     1
 66
     1
  0
VERTEX
  8
LAYER01
 10
1.096298
 20
-0.834034
  0
VERTEX
  8
LAYER01
 10
1.096298
 20
-0.820085
  0
VERTEX
  8
LAYER01
 10
1.100283
 20
-0.808794
  0
VERTEX
  8
LAYER01
 10
1.10294
 20
-0.793517
  0
VERTEX
  8
LAYER01
 10
1.103604
 20
-0.784218
  0
VERTEX
  8
LAYER01
 10
1.103604
 20
-0.772926
  0
VERTEX
  8
LAYER01
 10
1.098954
 20
-0.767612
  0
VERTEX
  8
LAYER01
 10
1.090984
 20
-0.756321
  0
SEQEND
  8
LAYER01
  0
POLYLINE
  8
LAYER01
  6
CONTINUOUS
 62
     1
 66
     1
  0
VERTEX
  8
LAYER01
 10
1.141464
 20
-0.837355
  0
VERTEX
  8
LAYER01
 10
1.163383
 20
-0.821414
  0
VERTEX
  8
LAYER01
 10
1.179325
 20
-0.804808
  0
VERTEX
  8
LAYER01
 10
1.179325
 20
-0.793517
  0
VERTEX
  8
LAYER01
 10
1.176003
 20
-0.784218
  0
VERTEX
  8
LAYER01
 10
1.167369
 20
-0.774919
  0
VERTEX
  8
LAYER01
 10
1.149435
 20
-0.767612
  0
VERTEX
  8
LAYER01
 10
1.099619
 20
-0.756321
  0
VERTEX
  8
LAYER01
 10
1.090984
 20
-0.756321
  0
SEQEND
  8
LAYER01
  0
POLYLINE
  8
LAYER01
  6
CONTINUOUS
 62
     1
 66
     1
 70
     1
  0
VERTEX
  8
LAYER01
 10
1.027883
 20
-0.986139
  0
VERTEX
  8
LAYER01
 10
1.027883
 20
-0.972191
  0
VERTEX
  8
LAYER01
 10
1.031869
 20
-0.961563
  0
VERTEX
  8
LAYER01
 10
1.040504
 20
-0.947615
  0
VERTEX
  8
LAYER01
 10
1.052459
 20
-0.931009
  0
VERTEX
  8
LAYER01
 10
1.062423
 20
-0.916397
  0
VERTEX
  8
LAYER01
 10
1.070393
 20
-0.902448
  0
VERTEX
  8
LAYER01
 10
1.075707
 20
-0.885178
  0
VERTEX
  8
LAYER01
 10
1.080356
 20
-0.867245
  0
VERTEX
  8
LAYER01
 10
1.082349
 20
-0.855289
  0
VERTEX
  8
LAYER01
 10
1.082349
 20
-0.844661
  0
VERTEX
  8
LAYER01
 10
1.08567
 20
-0.838019
  0
VERTEX
  8
LAYER01
 10
1.095633
 20
-0.834034
  0
VERTEX
  8
LAYER01
 10
1.118217
 20
-0.834034
  0
VERTEX
  8
LAYER01
 10
1.137479
 20
-0.836027
  0
VERTEX
  8
LAYER01
 10
1.148771
 20
-0.840012
  0
VERTEX
  8
LAYER01
 10
1.160727
 20
-0.848647
  0
VERTEX
  8
LAYER01
 10
1.166704
 20
-0.859274
  0
VERTEX
  8
LAYER01
 10
1.172682
 20
-0.875879
  0
VERTEX
  8
LAYER01
 10
1.172682
 20
-0.897799
  0
VERTEX
  8
LAYER01
 10
1.172682
 20
-0.897799
  0
VERTEX
  8
LAYER01
 10
1.16604
 20
-0.919718
  0
VERTEX
  8
LAYER01
 10
1.159398
 20
-0.934995
  0
VERTEX
  8
LAYER01
 10
1.148771
 20
-0.950936
  0
VERTEX
  8
LAYER01
 10
1.131501
 20
-0.967541
  0
VERTEX
  8
LAYER01
 10
1.11556
 20
-0.980161
  0
VERTEX
  8
LAYER01
 10
1.101611
 20
-0.987468
  0
VERTEX
  8
LAYER01
 10
1.085006
 20
-0.98946
  0
VERTEX
  8
LAYER01
 10
1.065079
 20
-0.98946
  0
VERTEX
  8
LAYER01
 10
1.041832
 20
-0.986139
  0
SEQEND
  8
LAYER01
  0
POLYLINE
  8
LAYER01
  6
CONTINUOUS
 62
     1
 66
     1
 70
     1
  0
VERTEX
  8
LAYER01
 10
0.316994
 20
-0.846874
 42
0.349117
 70
     2
 50
270.0
  0
VERTEX
  8
LAYER01
 10
0.318603
 20
-0.848897
 42
0.03295
 70
     2
 50
338.642418
  0
VERTEX
  8
LAYER01
 10
0.342722
 20
-0.852823
 42
0.01396
 70
     2
 50
354.528794
  0
VERTEX
  8
LAYER01
 10
0.368484
 20
-0.854567
 42
0.009914
 70
     2
 50
357.517754
  0
VERTEX
  8
LAYER01
 10
0.404834
 20
-0.855287
 42
0.009914
 70
     2
 50
0.0
  0
VERTEX
  8
LAYER01
 10
0.441184
 20
-0.854567
 42
0.01396
 70
     2
 50
2.482246
  0
VERTEX
  8
LAYER01
 10
0.466946
 20
-0.852823
 42
0.03295
 70
     2
 50
5.471206
  0
VERTEX
  8
LAYER01
 10
0.491066
 20
-0.848897
 42
0.349117
 70
     2
 50
21.357582
  0
VERTEX
  8
LAYER01
 10
0.492674
 20
-0.846874
 42
0.349117
 70
     2
 50
90.0
  0
VERTEX
  8
LAYER01
 10
0.491066
 20
-0.844851
 42
0.03295
 70
     2
 50
158.642418
  0
VERTEX
  8
LAYER01
 10
0.466946
 20
-0.840925
 42
0.01396
 70
     2
 50
174.528794
  0
VERTEX
  8
LAYER01
 10
0.441184
 20
-0.839181
 42
0.009914
 70
     2
 50
177.517754
  0
VERTEX
  8
LAYER01
 10
0.404834
 20
-0.838461
 42
0.009914
 70
     2
 50
180.0
  0
VERTEX
  8
LAYER01
 10
0.368484
 20
-0.839181
 42
0.01396
 70
     2
 50
182.482246
  0
VERTEX
  8
LAYER01
 10
0.342722
 20
-0.840925
 42
0.03295
 70
     2
 50
185.471206
  0
VERTEX
  8
LAYER01
 10
0.318603
 20
-0.844851
 42
0.349117
 70
     2
 50
201.357582
  0
SEQEND
  8
LAYER01
  0
POLYLINE
  8
LAYER01
  6
CONTINUOUS
 62
     1
 66
     1
 70
     1
  0
VERTEX
  8
LAYER01
 10
-0.708529
 20
-0.836607
 42
0.349117
 70
     2
 50
270.0
  0
VERTEX
  8
LAYER01
 10
-0.706921
 20
-0.83863
 42
0.03295
 70
     2
 50
338.642418
  0
VERTEX
  8
LAYER01
 10
-0.682802
 20
-0.842557
 42
0.01396
 70
     2
 50
354.528794
  0
VERTEX
  8
LAYER01
 10
-0.65704
 20
-0.8443
 42
0.009914
 70
     2
 50
357.517754
  0
VERTEX
  8
LAYER01
 10
-0.620689
 20
-0.845021
 42
0.009914
 70
     2
 50
0.0
  0
VERTEX
  8
LAYER01
 10
-0.584339
 20
-0.8443
 42
0.01396
 70
     2
 50
2.482246
  0
VERTEX
  8
LAYER01
 10
-0.558577
 20
-0.842557
 42
0.03295
 70
     2
 50
5.471206
  0
VERTEX
  8
LAYER01
 10
-0.534458
 20
-0.83863
 42
0.349117
 70
     2
 50
21.357582
  0
VERTEX
  8
LAYER01
 10
-0.53285
 20
-0.836607
 42
0.349117
 70
     2
 50
90.0
  0
VERTEX
  8
LAYER01
 10
-0.534458
 20
-0.834584
 42
0.03295
 70
     2
 50
158.642418
  0
VERTEX
  8
LAYER01
 10
-0.558577
 20
-0.830658
 42
0.01396
 70
     2
 50
174.528794
  0
VERTEX
  8
LAYER01
 10
-0.584339
 20
-0.828915
 42
0.009914
 70
     2
 50
177.517754
  0
VERTEX
  8
LAYER01
 10
-0.620689
 20
-0.828194
 42
0.009914
 70
     2
 50
180.0
  0
VERTEX
  8
LAYER01
 10
-0.65704
 20
-0.828915
 42
0.01396
 70
     2
 50
182.482246
  0
VERTEX
  8
LAYER01
 10
-0.682802
 20
-0.830658
 42
0.03295
 70
     2
 50
185.471206
  0
VERTEX
  8
LAYER01
 10
-0.706921
 20
-0.834584
 42
0.349117
 70
     2
 50
201.357582
  0
SEQEND
  8
LAYER01
  0
LINE
  8
LAYER01
  6
CONTINUOUS
 62
     1
 10
-0.197145
 20
0.422531
 11
-0.232828
 21
0.422295
  0
POLYLINE
  8
LAYER01
  6
CONTINUOUS
 62
     1
 66
     1
  0
VERTEX
  8
LAYER01
 10
-0.248974
 20
0.459883
  0
VERTEX
  8
LAYER01
 10
-0.022466
 20
0.459883
  0
VERTEX
  8
LAYER01
 10
-0.006694
 20
0.471042
  0
VERTEX
  8
LAYER01
 10
-0.00101
 20
0.47701
  0
VERTEX
  8
LAYER01
 10
0.005242
 20
0.483546
  0
VERTEX
  8
LAYER01
 10
0.010357
 20
0.48923
  0
VERTEX
  8
LAYER01
 10
0.016894
 20
0.496903
  0
VERTEX
  8
LAYER01
 10
0.180015
 20
0.497471
  0
VERTEX
  8
LAYER01
 10
0.184846
 20
0.491503
  0
VERTEX
  8
LAYER01
 10
0.191666
 20
0.482694
  0
VERTEX
  8
LAYER01
 10
0.198202
 20
0.472747
  0
VERTEX
  8
LAYER01
 10
0.202181
 20
0.465074
  0
VERTEX
  8
LAYER01
 10
0.20417
 20
0.457117
  0
VERTEX
  8
LAYER01
 10
0.20417
 20
0.437509
  0
VERTEX
  8
LAYER01
 10
0.202465
 20
0.429836
  0
VERTEX
  8
LAYER01
 10
0.197066
 20
0.426141
  0
VERTEX
  8
LAYER01
 10
0.185698
 20
0.423584
  0
VERTEX
  8
LAYER01
 10
0.169764
 20
0.42332
  0
VERTEX
  8
LAYER01
 10
0.090395
 20
0.42332
  0
VERTEX
  8
LAYER01
 10
-0.197205
 20
0.422516
  0
SEQEND
  8
LAYER01
  0
POLYLINE
  8
LAYER01
  6
CONTINUOUS
 62
     1
 66
     1
  0
VERTEX
  8
LAYER01
 10
-0.610556
 20
0.778826
  0
VERTEX
  8
LAYER01
 10
-0.610556
 20
0.765471
  0
VERTEX
  8
LAYER01
 10
-0.607427
 20
0.742143
  0
VERTEX
  8
LAYER01
 10
-0.603508
 20
0.732626
  0
VERTEX
  8
LAYER01
 10
-0.59511
 20
0.71779
  0
VERTEX
  8
LAYER01
 10
-0.581394
 20
0.694837
  0
VERTEX
  8
LAYER01
 10
-0.568518
 20
0.674963
  0
VERTEX
  8
LAYER01
 10
-0.56152
 20
0.664886
  0
VERTEX
  8
LAYER01
 10
-0.555642
 20
0.660687
  0
VERTEX
  8
LAYER01
 10
-0.547244
 20
0.656488
  0
VERTEX
  8
LAYER01
 10
-0.534648
 20
0.654528
  0
VERTEX
  8
LAYER01
 10
-0.512534
 20
0.651449
  0
VERTEX
  8
LAYER01
 10
0.083542
 20
0.654921
  0
VERTEX
  8
LAYER01
 10
0.102382
 20
0.656369
  0
VERTEX
  8
LAYER01
 10
0.110225
 20
0.658262
  0
VERTEX
  8
LAYER01
 10
0.116445
 20
0.660696
  0
VERTEX
  8
LAYER01
 10
0.121312
 20
0.664212
  0
VERTEX
  8
LAYER01
 10
0.12618
 20
0.668268
  0
VERTEX
  8
LAYER01
 10
0.130507
 20
0.672325
  0
VERTEX
  8
LAYER01
 10
0.134563
 20
0.678545
  0
VERTEX
  8
LAYER01
 10
0.134563
 20
0.678545
  0
VERTEX
  8
LAYER01
 10
0.13862
 20
0.689091
  0
VERTEX
  8
LAYER01
 10
0.153494
 20
0.754536
  0
VERTEX
  8
LAYER01
 10
0.153494
 20
0.789259
  0
SEQEND
  8
LAYER01
  0
POLYLINE
  8
LAYER01
  6
CONTINUOUS
 62
     1
 66
     1
  0
VERTEX
  8
LAYER01
 10
0.153473
 20
0.789295
  0
VERTEX
  8
LAYER01
 10
-0.610376
 20
0.778831
  0
SEQEND
  8
LAYER01
  0
POLYLINE
  8
LAYER01
  6
CONTINUOUS
 62
     1
 66
     1
  0
VERTEX
  8
LAYER01
 10
0.807993
 20
0.004983
  0
VERTEX
  8
LAYER01
 10
0.807993
 20
0.078995
  0
VERTEX
  8
LAYER01
 10
0.802442
 20
0.198341
  0
VERTEX
  8
LAYER01
 10
0.795965
 20
0.278829
  0
VERTEX
  8
LAYER01
 10
0.783938
 20
0.383372
  0
VERTEX
  8
LAYER01
 10
0.765435
 20
0.480514
  0
VERTEX
  8
LAYER01
 10
0.746007
 20
0.5462
  0
VERTEX
  8
LAYER01
 10
0.727504
 20
0.593383
  0
VERTEX
  8
LAYER01
 10
0.716473
 20
0.623718
  0
SEQEND
  8
LAYER01
  0
POLYLINE
  8
LAYER01
  6
CONTINUOUS
 62
     1
 66
     1
  0
VERTEX
  8
LAYER01
 10
1.06506
 20
0.78038
  0
VERTEX
  8
LAYER01
 10
0.322256
 20
0.786044
  0
VERTEX
  8
LAYER01
 10
0.316025
 20
0.78285
  0
VERTEX
  8
LAYER01
 10
0.311641
 20
0.77737
  0
VERTEX
  8
LAYER01
 10
0.302143
 20
0.760931
  0
VERTEX
  8
LAYER01
 10
0.268899
 20
0.700654
  0
VERTEX
  8
LAYER01
 10
0.25867
 20
0.682022
  0
VERTEX
  8
LAYER01
 10
0.25867
 20
0.671428
  0
VERTEX
  8
LAYER01
 10
0.260131
 20
0.664852
  0
VERTEX
  8
LAYER01
 10
0.264515
 20
0.659373
  0
VERTEX
  8
LAYER01
 10
0.270725
 20
0.655719
  0
VERTEX
  8
LAYER01
 10
0.286799
 20
0.653893
  0
VERTEX
  8
LAYER01
 10
0.391789
 20
0.6536
  0
VERTEX
  8
LAYER01
 10
0.541578
 20
0.657023
  0
VERTEX
  8
LAYER01
 10
0.583518
 20
0.663015
  0
VERTEX
  8
LAYER01
 10
0.64429
 20
0.673286
  0
VERTEX
  8
LAYER01
 10
0.772679
 20
0.692972
  0
VERTEX
  8
LAYER01
 10
0.908773
 20
0.720362
  0
VERTEX
  8
LAYER01
 10
1.026892
 20
0.747752
  0
VERTEX
  8
LAYER01
 10
1.041642
 20
0.75334
  0
VERTEX
  8
LAYER01
 10
1.041642
 20
0.75334
  0
VERTEX
  8
LAYER01
 10
1.045627
 20
0.755522
  0
VERTEX
  8
LAYER01
 10
1.048379
 20
0.758464
  0
VERTEX
  8
LAYER01
 10
1.0517
 20
0.762259
  0
VERTEX
  8
LAYER01
 10
1.055021
 20
0.76634
  0
VERTEX
  8
LAYER01
 10
1.058058
 20
0.77042
  0
VERTEX
  8
LAYER01
 10
1.064985
 20
0.780383
  0
SEQEND
  8
LAYER01
  0
POLYLINE
  8
LAYER01
  6
CONTINUOUS
 62
     1
 66
     1
  0
VERTEX
  8
LAYER01
 10
2.514137
 20
0.0056
  0
VERTEX
  8
LAYER01
 10
2.514137
 20
0.082079
  0
VERTEX
  8
LAYER01
 10
2.509819
 20
0.158559
  0
VERTEX
  8
LAYER01
 10
2.503035
 20
0.213451
  0
VERTEX
  8
LAYER01
 10
2.491316
 20
0.280063
  0
VERTEX
  8
LAYER01
 10
2.480214
 20
0.333105
  0
VERTEX
  8
LAYER01
 10
2.465412
 20
0.386764
  0
VERTEX
  8
LAYER01
 10
2.45431
 20
0.424387
  0
VERTEX
  8
LAYER01
 10
2.444752
 20
0.466475
  0
VERTEX
  8
LAYER01
 10
2.435852
 20
0.501441
  0
VERTEX
  8
LAYER01
 10
2.423137
 20
0.549758
  0
VERTEX
  8
LAYER01
 10
2.411057
 20
0.587267
  0
VERTEX
  8
LAYER01
 10
2.399614
 20
0.622869
  0
VERTEX
  8
LAYER01
 10
2.390078
 20
0.650206
  0
VERTEX
  8
LAYER01
 10
2.383085
 20
0.669915
  0
VERTEX
  8
LAYER01
 10
2.375456
 20
0.68263
  0
VERTEX
  8
LAYER01
 10
2.365284
 20
0.699795
  0
VERTEX
  8
LAYER01
 10
2.355112
 20
0.713781
  0
VERTEX
  8
LAYER01
 10
2.339854
 20
0.729675
  0
VERTEX
  8
LAYER01
 10
2.321417
 20
0.744933
  0
VERTEX
  8
LAYER01
 10
2.321417
 20
0.744933
  0
VERTEX
  8
LAYER01
 10
2.299166
 20
0.758284
  0
VERTEX
  8
LAYER01
 10
2.266107
 20
0.772906
  0
VERTEX
  8
LAYER01
 10
2.201896
 20
0.796429
  0
VERTEX
  8
LAYER01
 10
2.157704
 20
0.815229
  0
VERTEX
  8
LAYER01
 10
2.127446
 20
0.827192
  0
VERTEX
  8
LAYER01
 10
2.09015
 20
0.839154
  0
VERTEX
  8
LAYER01
 10
2.033151
 20
0.84971
  0
VERTEX
  8
LAYER01
 10
1.9473
 20
0.856747
  0
VERTEX
  8
LAYER01
 10
1.74711
 20
0.867266
  0
VERTEX
  8
LAYER01
 10
1.548537
 20
0.867266
  0
VERTEX
  8
LAYER01
 10
1.454851
 20
0.861157
  0
VERTEX
  8
LAYER01
 10
1.41921
 20
0.856065
  0
VERTEX
  8
LAYER01
 10
1.364221
 20
0.851992
  0
VERTEX
  8
LAYER01
 10
1.254242
 20
0.850973
  0
VERTEX
  8
LAYER01
 10
1.191349
 20
0.850533
  0
VERTEX
  8
LAYER01
 10
1.164965
 20
0.850728
  0
SEQEND
  8
LAYER01
  0
POLYLINE
  8
LAYER01
  6
CONTINUOUS
 62
     1
 66
     1
  0
VERTEX
  8
LAYER01
 10
1.478767
 20
0.005329
  0
VERTEX
  8
LAYER01
 10
1.478767
 20
0.109601
  0
VERTEX
  8
LAYER01
 10
1.476661
 20
0.233886
  0
VERTEX
  8
LAYER01
 10
1.465075
 20
0.356063
  0
VERTEX
  8
LAYER01
 10
1.448223
 20
0.468762
  0
VERTEX
  8
LAYER01
 10
1.431371
 20
0.553022
  0
VERTEX
  8
LAYER01
 10
1.413465
 20
0.619377
  0
VERTEX
  8
LAYER01
 10
1.399773
 20
0.658348
  0
VERTEX
  8
LAYER01
 10
1.389581
 20
0.673239
  0
VERTEX
  8
LAYER01
 10
1.381542
 20
0.680384
  0
VERTEX
  8
LAYER01
 10
1.363084
 20
0.690208
  0
VERTEX
  8
LAYER01
 10
1.341053
 20
0.699438
  0
VERTEX
  8
LAYER01
 10
1.291632
 20
0.714323
  0
VERTEX
  8
LAYER01
 10
1.26499
 20
0.721563
  0
SEQEND
  8
LAYER01
  0
POLYLINE
  8
LAYER01
  6
CONTINUOUS
 62
     1
 66
     1
  0
VERTEX
  8
LAYER01
 10
1.590377
 20
0.005372
  0
VERTEX
  8
LAYER01
 10
1.590377
 20
0.085581
  0
VERTEX
  8
LAYER01
 10
1.582254
 20
0.197264
  0
VERTEX
  8
LAYER01
 10
1.575147
 20
0.282549
  0
VERTEX
  8
LAYER01
 10
1.560933
 20
0.384079
  0
VERTEX
  8
LAYER01
 10
1.545703
 20
0.465303
  0
VERTEX
  8
LAYER01
 10
1.526413
 20
0.545512
  0
VERTEX
  8
LAYER01
 10
1.503061
 20
0.613537
  0
VERTEX
  8
LAYER01
 10
1.477678
 20
0.667348
  0
VERTEX
  8
LAYER01
 10
1.44925
 20
0.717098
  0
VERTEX
  8
LAYER01
 10
1.436219
 20
0.732921
  0
SEQEND
  8
LAYER01
  0
POLYLINE
  8
LAYER01
  6
CONTINUOUS
 62
     1
 66
     1
  0
VERTEX
  8
LAYER01
 10
2.285204
 20
0.526008
  0
VERTEX
  8
LAYER01
 10
2.238264
 20
0.54687
  0
VERTEX
  8
LAYER01
 10
2.193058
 20
0.564598
  0
VERTEX
  8
LAYER01
 10
2.107966
 20
0.589416
  0
VERTEX
  8
LAYER01
 10
2.010464
 20
0.616894
  0
VERTEX
  8
LAYER01
 10
1.891688
 20
0.646145
  0
VERTEX
  8
LAYER01
 10
1.75164
 20
0.678941
  0
VERTEX
  8
LAYER01
 10
1.606274
 20
0.711737
  0
VERTEX
  8
LAYER01
 10
1.522954
 20
0.726805
  0
VERTEX
  8
LAYER01
 10
1.486612
 20
0.731237
  0
VERTEX
  8
LAYER01
 10
1.535363
 20
0.711737
  0
VERTEX
  8
LAYER01
 10
1.598296
 20
0.686032
  0
VERTEX
  8
LAYER01
 10
1.694025
 20
0.651463
  0
VERTEX
  8
LAYER01
 10
1.752527
 20
0.631963
  0
VERTEX
  8
LAYER01
 10
1.88637
 20
0.593848
  0
VERTEX
  8
LAYER01
 10
2.041487
 20
0.547756
  0
VERTEX
  8
LAYER01
 10
2.200149
 20
0.49546
  0
VERTEX
  8
LAYER01
 10
2.281696
 20
0.460891
  0
VERTEX
  8
LAYER01
 10
2.308288
 20
0.446709
  0
VERTEX
  8
LAYER01
 10
2.33222
 20
0.430754
  0
VERTEX
  8
LAYER01
 10
2.33222
 20
0.430754
  0
VERTEX
  8
LAYER01
 10
2.342366
 20
0.423145
  0
SEQEND
  8
LAYER01
  0
POLYLINE
  8
LAYER01
  6
CONTINUOUS
 62
     1
 66
     1
  0
VERTEX
  8
LAYER01
 10
2.20145
 20
0.720533
  0
VERTEX
  8
LAYER01
 10
2.214639
 20
0.719873
  0
VERTEX
  8
LAYER01
 10
2.226982
 20
0.717638
  0
VERTEX
  8
LAYER01
 10
2.233814
 20
0.713368
  0
VERTEX
  8
LAYER01
 10
2.24577
 20
0.703548
  0
VERTEX
  8
LAYER01
 10
2.259861
 20
0.68903
  0
VERTEX
  8
LAYER01
 10
2.274379
 20
0.671096
  0
VERTEX
  8
LAYER01
 10
2.290604
 20
0.648038
  0
VERTEX
  8
LAYER01
 10
2.304268
 20
0.623699
  0
VERTEX
  8
LAYER01
 10
2.316224
 20
0.594237
  0
VERTEX
  8
LAYER01
 10
2.329888
 20
0.562639
  0
VERTEX
  8
LAYER01
 10
2.337147
 20
0.538727
  0
VERTEX
  8
LAYER01
 10
2.343125
 20
0.514389
  0
VERTEX
  8
LAYER01
 10
2.343125
 20
0.497309
  0
VERTEX
  8
LAYER01
 10
2.341417
 20
0.493466
  0
VERTEX
  8
LAYER01
 10
2.335866
 20
0.488342
  0
VERTEX
  8
LAYER01
 10
2.327753
 20
0.486207
  0
VERTEX
  8
LAYER01
 10
2.315721
 20
0.486207
  0
SEQEND
  8
LAYER01
  0
POLYLINE
  8
LAYER01
  6
CONTINUOUS
 62
     1
 66
     1
  0
VERTEX
  8
LAYER01
 10
2.365585
 20
0.500691
  0
VERTEX
  8
LAYER01
 10
2.362454
 20
0.495368
  0
VERTEX
  8
LAYER01
 10
2.358383
 20
0.490984
  0
VERTEX
  8
LAYER01
 10
2.35306
 20
0.486914
  0
VERTEX
  8
LAYER01
 10
2.34805
 20
0.483469
  0
VERTEX
  8
LAYER01
 10
2.340221
 20
0.480025
  0
VERTEX
  8
LAYER01
 10
2.332706
 20
0.480025
  0
VERTEX
  8
LAYER01
 10
2.317961
 20
0.481561
  0
SEQEND
  8
LAYER01
  0
POLYLINE
  8
LAYER01
  6
CONTINUOUS
 62
     1
 66
     1
  0
VERTEX
  8
LAYER01
 10
2.353593
 20
0.340344
  0
VERTEX
  8
LAYER01
 10
2.367499
 20
0.333722
  0
VERTEX
  8
LAYER01
 10
2.379033
 20
0.324902
  0
VERTEX
  8
LAYER01
 10
2.392602
 20
0.309298
  0
VERTEX
  8
LAYER01
 10
2.406171
 20
0.286909
  0
VERTEX
  8
LAYER01
 10
2.424489
 20
0.255022
  0
VERTEX
  8
LAYER01
 10
2.438058
 20
0.227206
  0
VERTEX
  8
LAYER01
 10
2.458411
 20
0.183106
  0
VERTEX
  8
LAYER01
 10
2.470623
 20
0.148505
  0
VERTEX
  8
LAYER01
 10
2.477408
 20
0.114583
  0
VERTEX
  8
LAYER01
 10
2.483514
 20
0.077947
  0
VERTEX
  8
LAYER01
 10
2.483514
 20
0.005353
  0
SEQEND
  8
LAYER01
  0
POLYLINE
  8
LAYER01
  6
CONTINUOUS
 62
     1
 66
     1
  0
VERTEX
  8
LAYER01
 10
-0.72091
 20
0.46163
  0
VERTEX
  8
LAYER01
 10
-0.720261
 20
0.466827
  0
VERTEX
  8
LAYER01
 10
-0.718312
 20
0.473322
  0
VERTEX
  8
LAYER01
 10
-0.715064
 20
0.478735
  0
VERTEX
  8
LAYER01
 10
-0.710734
 20
0.484365
  0
VERTEX
  8
LAYER01
 10
-0.706403
 20
0.48718
  0
VERTEX
  8
LAYER01
 10
-0.697526
 20
0.490861
  0
VERTEX
  8
LAYER01
 10
-0.690164
 20
0.492593
  0
VERTEX
  8
LAYER01
 10
-0.644045
 20
0.492593
  0
VERTEX
  8
LAYER01
 10
-0.6369
 20
0.490211
  0
VERTEX
  8
LAYER01
 10
-0.633003
 20
0.487396
  0
VERTEX
  8
LAYER01
 10
-0.629105
 20
0.482849
  0
VERTEX
  8
LAYER01
 10
-0.625208
 20
0.47722
  0
VERTEX
  8
LAYER01
 10
-0.622177
 20
0.472023
  0
VERTEX
  8
LAYER01
 10
-0.619579
 20
0.466827
  0
VERTEX
  8
LAYER01
 10
-0.618496
 20
0.461197
  0
SEQEND
  8
LAYER01
  0
POLYLINE
  8
LAYER01
  6
CONTINUOUS
 62
     1
 66
     1
  0
VERTEX
  8
LAYER01
 10
0.255064
 20
0.854775
  0
VERTEX
  8
LAYER01
 10
0.255064
 20
0.842421
  0
VERTEX
  8
LAYER01
 10
0.252417
 20
0.823448
  0
VERTEX
  8
LAYER01
 10
0.247563
 20
0.804916
  0
VERTEX
  8
LAYER01
 10
0.236974
 20
0.781531
  0
VERTEX
  8
LAYER01
 10
0.221531
 20
0.753293
  0
VERTEX
  8
LAYER01
 10
0.198587
 20
0.706081
  0
VERTEX
  8
LAYER01
 10
0.184909
 20
0.675636
  0
VERTEX
  8
LAYER01
 10
0.172113
 20
0.642103
  0
VERTEX
  8
LAYER01
 10
0.167259
 20
0.624454
  0
VERTEX
  8
LAYER01
 10
0.167259
 20
0.59092
  0
SEQEND
  8
LAYER01
  0
POLYLINE
  8
LAYER01
  6
CONTINUOUS
 62
     1
 66
     1
  0
VERTEX
  8
LAYER01
 10
-0.757094
 20
0.8428
  0
VERTEX
  8
LAYER01
 10
-0.757094
 20
0.829279
  0
VERTEX
  8
LAYER01
 10
-0.74844
 20
0.810349
  0
VERTEX
  8
LAYER01
 10
-0.721397
 20
0.769243
  0
VERTEX
  8
LAYER01
 10
-0.658657
 20
0.68541
  0
VERTEX
  8
LAYER01
 10
-0.644054
 20
0.66648
  0
VERTEX
  8
LAYER01
 10
-0.633236
 20
0.647549
  0
VERTEX
  8
LAYER01
 10
-0.625123
 20
0.626456
  0
VERTEX
  8
LAYER01
 10
-0.618092
 20
0.586432
  0
SEQEND
  8
LAYER01
  0
POLYLINE
  8
LAYER01
  6
CONTINUOUS
 62
     1
 66
     1
  0
VERTEX
  8
LAYER01
 10
1.298176
 20
0.85143
  0
VERTEX
  8
LAYER01
 10
1.296336
 20
0.836244
  0
VERTEX
  8
LAYER01
 10
1.289432
 20
0.812313
  0
VERTEX
  8
LAYER01
 10
1.282069
 20
0.794365
  0
VERTEX
  8
LAYER01
 10
1.274246
 20
0.779178
  0
VERTEX
  8
LAYER01
 10
1.274246
 20
0.763991
  0
VERTEX
  8
LAYER01
 10
1.274246
 20
0.723033
  0
SEQEND
  8
LAYER01
  0
POLYLINE
  8
LAYER01
  6
CONTINUOUS
 62
     1
 66
     1
  0
VERTEX
  8
LAYER01
 10
2.347824
 20
0.390033
  0
VERTEX
  8
LAYER01
 10
2.362072
 20
0.380535
  0
VERTEX
  8
LAYER01
 10
2.375641
 20
0.371037
  0
VERTEX
  8
LAYER01
 10
2.388531
 20
0.359503
  0
VERTEX
  8
LAYER01
 10
2.400065
 20
0.346612
  0
VERTEX
  8
LAYER01
 10
2.412955
 20
0.33033
  0
VERTEX
  8
LAYER01
 10
2.427881
 20
0.305227
  0
VERTEX
  8
LAYER01
 10
2.443485
 20
0.276054
  0
VERTEX
  8
LAYER01
 10
2.458411
 20
0.24281
  0
VERTEX
  8
LAYER01
 10
2.472659
 20
0.206852
  0
VERTEX
  8
LAYER01
 10
2.484871
 20
0.171573
  0
VERTEX
  8
LAYER01
 10
2.490298
 20
0.141721
  0
VERTEX
  8
LAYER01
 10
2.495048
 20
0.110512
  0
VERTEX
  8
LAYER01
 10
2.497083
 20
0.073876
  0
VERTEX
  8
LAYER01
 10
2.497083
 20
0.005353
  0
SEQEND
  8
LAYER01
  0
POLYLINE
  8
LAYER01
  6
CONTINUOUS
 62
     1
 66
     1
  0
VERTEX
  8
LAYER01
 10
2.372403
 20
0.005386
  0
VERTEX
  8
LAYER01
 10
2.372403
 20
0.107751
  0
VERTEX
  8
LAYER01
 10
2.356283
 20
0.317534
  0
VERTEX
  8
LAYER01
 10
2.351254
 20
0.359778
  0
VERTEX
  8
LAYER01
 10
2.347231
 20
0.393976
  0
VERTEX
  8
LAYER01
 10
2.342202
 20
0.425156
  0
VERTEX
  8
LAYER01
 10
2.335638
 20
0.445059
  0
VERTEX
  8
LAYER01
 10
2.326534
 20
0.464226
  0
VERTEX
  8
LAYER01
 10
2.315512
 20
0.486748
  0
VERTEX
  8
LAYER01
 10
2.300179
 20
0.50879
  0
VERTEX
  8
LAYER01
 10
2.280053
 20
0.53227
  0
VERTEX
  8
LAYER01
 10
2.266636
 20
0.549042
  0
VERTEX
  8
LAYER01
 10
2.254656
 20
0.566292
  0
VERTEX
  8
LAYER01
 10
2.244114
 20
0.581147
  0
VERTEX
  8
LAYER01
 10
2.235489
 20
0.595043
  0
VERTEX
  8
LAYER01
 10
2.228301
 20
0.607502
  0
VERTEX
  8
LAYER01
 10
2.217759
 20
0.625232
  0
VERTEX
  8
LAYER01
 10
2.212488
 20
0.634336
  0
VERTEX
  8
LAYER01
 10
2.206738
 20
0.645837
  0
VERTEX
  8
LAYER01
 10
2.202904
 20
0.657816
  0
VERTEX
  8
LAYER01
 10
2.202904
 20
0.657816
  0
VERTEX
  8
LAYER01
 10
2.202904
 20
0.674588
  0
VERTEX
  8
LAYER01
 10
2.203058
 20
0.697133
  0
VERTEX
  8
LAYER01
 10
2.201502
 20
0.721643
  0
VERTEX
  8
LAYER01
 10
2.19839
 20
0.728645
  0
VERTEX
  8
LAYER01
 10
2.190609
 20
0.732925
  0
VERTEX
  8
LAYER01
 10
2.178549
 20
0.737982
  0
VERTEX
  8
LAYER01
 10
2.1661
 20
0.74304
  0
VERTEX
  8
LAYER01
 10
2.158708
 20
0.747708
  0
VERTEX
  8
LAYER01
 10
2.158708
 20
0.756656
  0
VERTEX
  8
LAYER01
 10
2.163765
 20
0.762492
  0
VERTEX
  8
LAYER01
 10
2.18633
 20
0.778443
  0
SEQEND
  8
LAYER01
  0
POLYLINE
  8
LAYER01
  6
CONTINUOUS
 62
     1
 66
     1
  0
VERTEX
  8
LAYER01
 10
2.01065
 20
0.851537
  0
VERTEX
  8
LAYER01
 10
2.050026
 20
0.834462
  0
VERTEX
  8
LAYER01
 10
2.084401
 20
0.821588
  0
VERTEX
  8
LAYER01
 10
2.115856
 20
0.80987
  0
VERTEX
  8
LAYER01
 10
2.147312
 20
0.798151
  0
VERTEX
  8
LAYER01
 10
2.170749
 20
0.785815
  0
VERTEX
  8
LAYER01
 10
2.213306
 20
0.766079
  0
VERTEX
  8
LAYER01
 10
2.230576
 20
0.75621
  0
VERTEX
  8
LAYER01
 10
2.245995
 20
0.746959
  0
VERTEX
  8
LAYER01
 10
2.263265
 20
0.73339
  0
VERTEX
  8
LAYER01
 10
2.279301
 20
0.721054
  0
VERTEX
  8
LAYER01
 10
2.29102
 20
0.707485
  0
VERTEX
  8
LAYER01
 10
2.306439
 20
0.686515
  0
VERTEX
  8
LAYER01
 10
2.317541
 20
0.665545
  0
VERTEX
  8
LAYER01
 10
2.328026
 20
0.639024
  0
VERTEX
  8
LAYER01
 10
2.341595
 20
0.605101
  0
VERTEX
  8
LAYER01
 10
2.348996
 20
0.573646
  0
VERTEX
  8
LAYER01
 10
2.361948
 20
0.51752
  0
VERTEX
  8
LAYER01
 10
2.371385
 20
0.474222
  0
VERTEX
  8
LAYER01
 10
2.379156
 20
0.435366
  0
VERTEX
  8
LAYER01
 10
2.379156
 20
0.435366
  0
VERTEX
  8
LAYER01
 10
2.383474
 20
0.410325
  0
VERTEX
  8
LAYER01
 10
2.392108
 20
0.392192
  0
VERTEX
  8
LAYER01
 10
2.411968
 20
0.364561
  0
VERTEX
  8
LAYER01
 10
2.427511
 20
0.33952
  0
VERTEX
  8
LAYER01
 10
2.441327
 20
0.313615
  0
VERTEX
  8
LAYER01
 10
2.45946
 20
0.277349
  0
VERTEX
  8
LAYER01
 10
2.471549
 20
0.246264
  0
VERTEX
  8
LAYER01
 10
2.487955
 20
0.197909
  0
VERTEX
  8
LAYER01
 10
2.495726
 20
0.160779
  0
VERTEX
  8
LAYER01
 10
2.500907
 20
0.117605
  0
VERTEX
  8
LAYER01
 10
2.505224
 20
0.078749
  0
VERTEX
  8
LAYER01
 10
2.505224
 20
0.005353
  0
SEQEND
  8
LAYER01
  0
POLYLINE
  8
LAYER01
  6
CONTINUOUS
 62
     1
 66
     1
  0
VERTEX
  8
LAYER01
 10
1.096298
 20
0.828491
  0
VERTEX
  8
LAYER01
 10
1.096298
 20
0.814543
  0
VERTEX
  8
LAYER01
 10
1.100283
 20
0.803251
  0
VERTEX
  8
LAYER01
 10
1.10294
 20
0.787974
  0
VERTEX
  8
LAYER01
 10
1.103604
 20
0.778675
  0
VERTEX
  8
LAYER01
 10
1.103604
 20
0.767383
  0
VERTEX
  8
LAYER01
 10
1.098954
 20
0.76207
  0
VERTEX
  8
LAYER01
 10
1.090984
 20
0.750778
  0
SEQEND
  8
LAYER01
  0
POLYLINE
  8
LAYER01
  6
CONTINUOUS
 62
     1
 66
     1
  0
VERTEX
  8
LAYER01
 10
1.141464
 20
0.831812
  0
VERTEX
  8
LAYER01
 10
1.163383
 20
0.815871
  0
VERTEX
  8
LAYER01
 10
1.179325
 20
0.799266
  0
VERTEX
  8
LAYER01
 10
1.179325
 20
0.787974
  0
VERTEX
  8
LAYER01
 10
1.176003
 20
0.778675
  0
VERTEX
  8
LAYER01
 10
1.167369
 20
0.769376
  0
VERTEX
  8
LAYER01
 10
1.149435
 20
0.76207
  0
VERTEX
  8
LAYER01
 10
1.099619
 20
0.750778
  0
VERTEX
  8
LAYER01
 10
1.090984
 20
0.750778
  0
SEQEND
  8
LAYER01
  0
POLYLINE
  8
LAYER01
  6
CONTINUOUS
 62
     1
 66
     1
 70
     1
  0
VERTEX
  8
LAYER01
 10
1.027883
 20
0.980597
  0
VERTEX
  8
LAYER01
 10
1.027883
 20
0.966648
  0
VERTEX
  8
LAYER01
 10
1.031869
 20
0.956021
  0
VERTEX
  8
LAYER01
 10
1.040504
 20
0.942072
  0
VERTEX
  8
LAYER01
 10
1.052459
 20
0.925467
  0
VERTEX
  8
LAYER01
 10
1.062423
 20
0.910854
  0
VERTEX
  8
LAYER01
 10
1.070393
 20
0.896905
  0
VERTEX
  8
LAYER01
 10
1.075707
 20
0.879636
  0
VERTEX
  8
LAYER01
 10
1.080356
 20
0.861702
  0
VERTEX
  8
LAYER01
 10
1.082349
 20
0.849746
  0
VERTEX
  8
LAYER01
 10
1.082349
 20
0.839119
  0
VERTEX
  8
LAYER01
 10
1.08567
 20
0.832477
  0
VERTEX
  8
LAYER01
 10
1.095633
 20
0.828491
  0
VERTEX
  8
LAYER01
 10
1.118217
 20
0.828491
  0
VERTEX
  8
LAYER01
 10
1.137479
 20
0.830484
  0
VERTEX
  8
LAYER01
 10
1.148771
 20
0.834469
  0
VERTEX
  8
LAYER01
 10
1.160727
 20
0.843104
  0
VERTEX
  8
LAYER01
 10
1.166704
 20
0.853731
  0
VERTEX
  8
LAYER01
 10
1.172682
 20
0.870337
  0
VERTEX
  8
LAYER01
 10
1.172682
 20
0.892256
  0
VERTEX
  8
LAYER01
 10
1.172682
 20
0.892256
  0
VERTEX
  8
LAYER01
 10
1.16604
 20
0.914175
  0
VERTEX
  8
LAYER01
 10
1.159398
 20
0.929452
  0
VERTEX
  8
LAYER01
 10
1.148771
 20
0.945393
  0
VERTEX
  8
LAYER01
 10
1.131501
 20
0.961999
  0
VERTEX
  8
LAYER01
 10
1.11556
 20
0.974619
  0
VERTEX
  8
LAYER01
 10
1.101611
 20
0.981925
  0
VERTEX
  8
LAYER01
 10
1.085006
 20
0.983918
  0
VERTEX
  8
LAYER01
 10
1.065079
 20
0.983918
  0
VERTEX
  8
LAYER01
 10
1.041832
 20
0.980597
  0
SEQEND
  8
LAYER01
  0
POLYLINE
  8
LAYER01
  6
CONTINUOUS
 62
     1
 66
     1
 70
     1
  0
VERTEX
  8
LAYER01
 10
0.316994
 20
0.841331
 42
0.349117
 70
     2
 50
270.0
  0
VERTEX
  8
LAYER01
 10
0.318603
 20
0.839308
 42
0.03295
 70
     2
 50
338.642418
  0
VERTEX
  8
LAYER01
 10
0.342722
 20
0.835382
 42
0.01396
 70
     2
 50
354.528794
  0
VERTEX
  8
LAYER01
 10
0.368484
 20
0.833639
 42
0.009914
 70
     2
 50
357.517754
  0
VERTEX
  8
LAYER01
 10
0.404834
 20
0.832918
 42
0.009914
 70
     2
 50
0.0
  0
VERTEX
  8
LAYER01
 10
0.441184
 20
0.833639
 42
0.01396
 70
     2
 50
2.482246
  0
VERTEX
  8
LAYER01
 10
0.466946
 20
0.835382
 42
0.03295
 70
     2
 50
5.471206
  0
VERTEX
  8
LAYER01
 10
0.491066
 20
0.839308
 42
0.349117
 70
     2
 50
21.357582
  0
VERTEX
  8
LAYER01
 10
0.492674
 20
0.841331
 42
0.349117
 70
     2
 50
90.0
  0
VERTEX
  8
LAYER01
 10
0.491066
 20
0.843354
 42
0.03295
 70
     2
 50
158.642418
  0
VERTEX
  8
LAYER01
 10
0.466946
 20
0.847281
 42
0.01396
 70
     2
 50
174.528794
  0
VERTEX
  8
LAYER01
 10
0.441184
 20
0.849024
 42
0.009914
 70
     2
 50
177.517754
  0
VERTEX
  8
LAYER01
 10
0.404834
 20
0.849745
 42
0.009914
 70
     2
 50
180.0
  0
VERTEX
  8
LAYER01
 10
0.368484
 20
0.849024
 42
0.01396
 70
     2
 50
182.482246
  0
VERTEX
  8
LAYER01
 10
0.342722
 20
0.847281
 42
0.03295
 70
     2
 50
185.471206
  0
VERTEX
  8
LAYER01
 10
0.318603
 20
0.843354
 42
0.349117
 70
     2
 50
201.357582
  0
SEQEND
  8
LAYER01
  0
POLYLINE
  8
LAYER01
  6
CONTINUOUS
 62
     1
 66
     1
 70
     1
  0
VERTEX
  8
LAYER01
 10
-0.708529
 20
0.831065
 42
0.349117
 70
     2
 50
270.0
  0
VERTEX
  8
LAYER01
 10
-0.706921
 20
0.829042
 42
0.03295
 70
     2
 50
338.642418
  0
VERTEX
  8
LAYER01
 10
-0.682802
 20
0.825115
 42
0.01396
 70
     2
 50
354.528794
  0
VERTEX
  8
LAYER01
 10
-0.65704
 20
0.823372
 42
0.009914
 70
     2
 50
357.517754
  0
VERTEX
  8
LAYER01
 10
-0.620689
 20
0.822651
 42
0.009914
 70
     2
 50
0.0
  0
VERTEX
  8
LAYER01
 10
-0.584339
 20
0.823372
 42
0.01396
 70
     2
 50
2.482246
  0
VERTEX
  8
LAYER01
 10
-0.558577
 20
0.825115
 42
0.03295
 70
     2
 50
5.471206
  0
VERTEX
  8
LAYER01
 10
-0.534458
 20
0.829042
 42
0.349117
 70
     2
 50
21.357582
  0
VERTEX
  8
LAYER01
 10
-0.53285
 20
0.831065
 42
0.349117
 70
     2
 50
90.0
  0
VERTEX
  8
LAYER01
 10
-0.534458
 20
0.833088
 42
0.03295
 70
     2
 50
158.642418
  0
VERTEX
  8
LAYER01
 10
-0.558577
 20
0.837014
 42
0.01396
 70
     2
 50
174.528794
  0
VERTEX
  8
LAYER01
 10
-0.584339
 20
0.838757
 42
0.009914
 70
     2
 50
177.517754
  0
VERTEX
  8
LAYER01
 10
-0.620689
 20
0.839478
 42
0.009914
 70
     2
 50
180.0
  0
VERTEX
  8
LAYER01
 10
-0.65704
 20
0.838757
 42
0.01396
 70
     2
 50
182.482246
  0
VERTEX
  8
LAYER01
 10
-0.682802
 20
0.837014
 42
0.03295
 70
     2
 50
185.471206
  0
VERTEX
  8
LAYER01
 10
-0.706921
 20
0.833088
 42
0.349117
 70
     2
 50
201.357582
  0
SEQEND
  8
LAYER01
  0
LINE
  8
LAYER01
  6
CONTINUOUS
 62
     1
 10
2.505228
 20
-0.012183
 11
2.505228
 21
0.007153
  0
LINE
  8
LAYER01
  6
CONTINUOUS
 62
     1
 10
2.483474
 20
-0.011744
 11
2.483474
 21
0.006494
  0
LINE
  8
LAYER01
  6
CONTINUOUS
 62
     1
 10
1.590395
 20
-0.011203
 11
1.590395
 21
0.005977
  0
LINE
  8
LAYER01
  6
CONTINUOUS
 62
     1
 10
1.478794
 20
-0.011123
 11
1.478794
 21
0.006247
  0
LINE
  8
LAYER01
  6
CONTINUOUS
 62
     1
 10
0.807984
 20
-0.010686
 11
0.807984
 21
0.005456
  0
LINE
  8
LAYER01
  6
CONTINUOUS
 62
     1
 10
2.372405
 20
-0.011304
 11
2.372405
 21
0.006274
  0
LINE
  8
LAYER01
  6
CONTINUOUS
 62
     1
 10
2.514123
 20
-0.011963
 11
2.514123
 21
0.007373
  0
LINE
  8
LAYER01
  6
CONTINUOUS
 62
     1
 10
2.497059
 20
-0.011963
 11
2.497059
 21
0.006494
  0
POLYLINE
  8
LAYER01
  6
CONTINUOUS
 62
     1
 66
     1
  0
VERTEX
  8
LAYER01
 10
2.372513
 20
-0.040686
  0
VERTEX
  8
LAYER01
 10
2.383436
 20
-0.040686
  0
VERTEX
  8
LAYER01
 10
2.403233
 20
-0.037614
  0
VERTEX
  8
LAYER01
 10
2.415862
 20
-0.032835
  0
VERTEX
  8
LAYER01
 10
2.424054
 20
-0.027715
  0
VERTEX
  8
LAYER01
 10
2.43054
 20
-0.022254
  0
VERTEX
  8
LAYER01
 10
2.435318
 20
-0.016451
  0
VERTEX
  8
LAYER01
 10
2.438049
 20
-0.01099
  0
VERTEX
  8
LAYER01
 10
2.438049
 20
-0.002457
  0
SEQEND
  8
LAYER01
  0
POLYLINE
  8
LAYER01
  6
CONTINUOUS
 62
     1
 66
     1
  0
VERTEX
  8
LAYER01
 10
2.372513
 20
0.035772
  0
VERTEX
  8
LAYER01
 10
2.383436
 20
0.035772
  0
VERTEX
  8
LAYER01
 10
2.403233
 20
0.0327
  0
VERTEX
  8
LAYER01
 10
2.415862
 20
0.027922
  0
VERTEX
  8
LAYER01
 10
2.424054
 20
0.022802
  0
VERTEX
  8
LAYER01
 10
2.43054
 20
0.017341
  0
VERTEX
  8
LAYER01
 10
2.435318
 20
0.011538
  0
VERTEX
  8
LAYER01
 10
2.438049
 20
0.006077
  0
VERTEX
  8
LAYER01
 10
2.438049
 20
-0.002457
  0
SEQEND
  8
LAYER01
  0
POLYLINE
  8
LAYER01
  6
CONTINUOUS
 62
     1
 66
     1
  0
VERTEX
  8
LAYER01
 10
-1.766563
 20
-0.01109
  0
VERTEX
  8
LAYER01
 10
-1.766563
 20
-0.097822
  0
VERTEX
  8
LAYER01
 10
-1.761411
 20
-0.20774
  0
VERTEX
  8
LAYER01
 10
-1.753682
 20
-0.304778
  0
VERTEX
  8
LAYER01
 10
-1.744236
 20
-0.410402
  0
VERTEX
  8
LAYER01
 10
-1.73479
 20
-0.491982
  0
VERTEX
  8
LAYER01
 10
-1.72121
 20
-0.584495
  0
SEQEND
  8
LAYER01
  0
LINE
  8
LAYER01
  6
CONTINUOUS
 62
     1
 10
-1.626447
 20
-0.576644
 11
-1.626068
 21
-0.576644
  0
POLYLINE
  8
LAYER01
  6
CONTINUOUS
 62
     1
 66
     1
  0
VERTEX
  8
LAYER01
 10
-1.788871
 20
-0.637889
  0
VERTEX
  8
LAYER01
 10
-1.808188
 20
-0.589475
  0
VERTEX
  8
LAYER01
 10
-1.821938
 20
-0.538406
  0
VERTEX
  8
LAYER01
 10
-1.842562
 20
-0.422519
  0
VERTEX
  8
LAYER01
 10
-1.863185
 20
-0.280116
  0
VERTEX
  8
LAYER01
 10
-1.877917
 20
-0.104322
  0
VERTEX
  8
LAYER01
 10
-1.877917
 20
-0.011024
  0
SEQEND
  8
LAYER01
  0
POLYLINE
  8
LAYER01
  6
CONTINUOUS
 62
     1
 66
     1
  0
VERTEX
  8
LAYER01
 10
-1.857867
 20
-0.649054
  0
VERTEX
  8
LAYER01
 10
-1.788871
 20
-0.647491
  0
SEQEND
  8
LAYER01
  0
POLYLINE
  8
LAYER01
  6
CONTINUOUS
 62
     1
 66
     1
  0
VERTEX
  8
LAYER01
 10
-1.617876
 20
-0.010535
  0
VERTEX
  8
LAYER01
 10
-1.617876
 20
-0.333244
  0
VERTEX
  8
LAYER01
 10
-1.62125
 20
-0.521022
  0
VERTEX
  8
LAYER01
 10
-1.626872
 20
-0.586239
  0
VERTEX
  8
LAYER01
 10
-1.626872
 20
-0.605354
  0
VERTEX
  8
LAYER01
 10
-1.641492
 20
-0.64886
  0
VERTEX
  8
LAYER01
 10
-1.657433
 20
-0.687219
  0
VERTEX
  8
LAYER01
 10
-1.670883
 20
-0.717108
  0
VERTEX
  8
LAYER01
 10
-1.67985
 20
-0.733548
  0
VERTEX
  8
LAYER01
 10
-1.687323
 20
-0.73554
  0
VERTEX
  8
LAYER01
 10
-1.716714
 20
-0.736038
  0
VERTEX
  8
LAYER01
 10
-1.738135
 20
-0.731057
  0
VERTEX
  8
LAYER01
 10
-1.751087
 20
-0.726075
  0
VERTEX
  8
LAYER01
 10
-1.76105
 20
-0.718603
  0
VERTEX
  8
LAYER01
 10
-1.770017
 20
-0.705651
  0
VERTEX
  8
LAYER01
 10
-1.776493
 20
-0.6922
  0
VERTEX
  8
LAYER01
 10
-1.782471
 20
-0.676259
  0
VERTEX
  8
LAYER01
 10
-1.788947
 20
-0.657329
  0
VERTEX
  8
LAYER01
 10
-1.788947
 20
-0.637901
  0
VERTEX
  8
LAYER01
 10
-1.78546
 20
-0.627439
  0
VERTEX
  8
LAYER01
 10
-1.78546
 20
-0.627439
  0
VERTEX
  8
LAYER01
 10
-1.774501
 20
-0.617476
  0
VERTEX
  8
LAYER01
 10
-1.756567
 20
-0.607513
  0
VERTEX
  8
LAYER01
 10
-1.735146
 20
-0.592568
  0
VERTEX
  8
LAYER01
 10
-1.721696
 20
-0.584597
  0
VERTEX
  8
LAYER01
 10
-1.702766
 20
-0.579118
  0
VERTEX
  8
LAYER01
 10
-1.683337
 20
-0.577125
  0
VERTEX
  8
LAYER01
 10
-1.626547
 20
-0.576627
  0
SEQEND
  8
LAYER01
  0
POLYLINE
  8
LAYER01
  6
CONTINUOUS
 62
     1
 66
     1
  0
VERTEX
  8
LAYER01
 10
-1.766563
 20
0.005547
  0
VERTEX
  8
LAYER01
 10
-1.766563
 20
0.09228
  0
VERTEX
  8
LAYER01
 10
-1.761411
 20
0.202198
  0
VERTEX
  8
LAYER01
 10
-1.753682
 20
0.299235
  0
VERTEX
  8
LAYER01
 10
-1.744236
 20
0.404859
  0
VERTEX
  8
LAYER01
 10
-1.73479
 20
0.486439
  0
VERTEX
  8
LAYER01
 10
-1.72121
 20
0.578952
  0
SEQEND
  8
LAYER01
  0
LINE
  8
LAYER01
  6
CONTINUOUS
 62
     1
 10
-1.626447
 20
0.571102
 11
-1.626068
 21
0.571102
  0
POLYLINE
  8
LAYER01
  6
CONTINUOUS
 62
     1
 66
     1
  0
VERTEX
  8
LAYER01
 10
-1.788871
 20
0.632347
  0
VERTEX
  8
LAYER01
 10
-1.808188
 20
0.583932
  0
VERTEX
  8
LAYER01
 10
-1.821938
 20
0.532863
  0
VERTEX
  8
LAYER01
 10
-1.842562
 20
0.416977
  0
VERTEX
  8
LAYER01
 10
-1.863185
 20
0.274574
  0
VERTEX
  8
LAYER01
 10
-1.877917
 20
0.098779
  0
VERTEX
  8
LAYER01
 10
-1.877917
 20
0.005481
  0
SEQEND
  8
LAYER01
  0
POLYLINE
  8
LAYER01
  6
CONTINUOUS
 62
     1
 66
     1
  0
VERTEX
  8
LAYER01
 10
-1.857867
 20
0.643511
  0
VERTEX
  8
LAYER01
 10
-1.788871
 20
0.641948
  0
SEQEND
  8
LAYER01
  0
POLYLINE
  8
LAYER01
  6
CONTINUOUS
 62
     1
 66
     1
  0
VERTEX
  8
LAYER01
 10
-1.617876
 20
0.004992
  0
VERTEX
  8
LAYER01
 10
-1.617876
 20
0.327701
  0
VERTEX
  8
LAYER01
 10
-1.62125
 20
0.51548
  0
VERTEX
  8
LAYER01
 10
-1.626872
 20
0.580696
  0
VERTEX
  8
LAYER01
 10
-1.626872
 20
0.599811
  0
VERTEX
  8
LAYER01
 10
-1.641492
 20
0.643317
  0
VERTEX
  8
LAYER01
 10
-1.657433
 20
0.681676
  0
VERTEX
  8
LAYER01
 10
-1.670883
 20
0.711566
  0
VERTEX
  8
LAYER01
 10
-1.67985
 20
0.728005
  0
VERTEX
  8
LAYER01
 10
-1.687323
 20
0.729998
  0
VERTEX
  8
LAYER01
 10
-1.716714
 20
0.730496
  0
VERTEX
  8
LAYER01
 10
-1.738135
 20
0.725514
  0
VERTEX
  8
LAYER01
 10
-1.751087
 20
0.720533
  0
VERTEX
  8
LAYER01
 10
-1.76105
 20
0.71306
  0
VERTEX
  8
LAYER01
 10
-1.770017
 20
0.700108
  0
VERTEX
  8
LAYER01
 10
-1.776493
 20
0.686658
  0
VERTEX
  8
LAYER01
 10
-1.782471
 20
0.670716
  0
VERTEX
  8
LAYER01
 10
-1.788947
 20
0.651786
  0
VERTEX
  8
LAYER01
 10
-1.788947
 20
0.632358
  0
VERTEX
  8
LAYER01
 10
-1.78546
 20
0.621897
  0
VERTEX
  8
LAYER01
 10
-1.78546
 20
0.621897
  0
VERTEX
  8
LAYER01
 10
-1.774501
 20
0.611933
  0
VERTEX
  8
LAYER01
 10
-1.756567
 20
0.60197
  0
VERTEX
  8
LAYER01
 10
-1.735146
 20
0.587025
  0
VERTEX
  8
LAYER01
 10
-1.721696
 20
0.579055
  0
VERTEX
  8
LAYER01
 10
-1.702766
 20
0.573575
  0
VERTEX
  8
LAYER01
 10
-1.683337
 20
0.571582
  0
VERTEX
  8
LAYER01
 10
-1.626547
 20
0.571084
  0
SEQEND
  8
LAYER01
  0
LINE
  8
LAYER01
  6
CONTINUOUS
 62
     1
 10
-1.617858
 20
-0.010691
 11
-1.617858
 21
0.005294
  0
LINE
  8
LAYER01
  6
CONTINUOUS
 62
     1
 10
-1.766545
 20
-0.011085
 11
-1.766545
 21
0.005925
  0
LINE
  8
LAYER01
  6
CONTINUOUS
 62
     1
 10
-1.877919
 20
-0.011104
 11
-1.877919
 21
0.00574
  0
LINE
  8
LAYER01
  6
CONTINUOUS
 62
     1
 10
-1.936018
 20
-0.0109
 11
-1.936018
 21
0.00574
  0
LINE
  8
LAYER01
  6
CONTINUOUS
 62
     1
 10
2.536869
 20
-0.002295
 11
2.454667
 21
-0.002295
  0
LINE
  8
LAYER01
  6
CONTINUOUS
 62
     1
 10
-1.86732
 20
-0.002295
 11
-1.981138
 21
-0.002295
  0
ENDBLK
  8
0
  0
ENDSEC
  0
SECTION
  2
ENTITIES
  0
INSERT
  8
LAYER01
  2
SKETCH-G1
 10
0.0
 20
0.0
  0
ENDSEC
  0
EOF
