  0
SECTION
  2
HEADER
  9
$ACADVER
  1
AC1004
  9
$INSBASE
 10
68.047823
 20
-286.032551
  9
$EXTMIN
 10
-2.598112
 20
-1.083166
  9
$EXTMAX
 10
2.533695
 20
1.078068
  9
$LIMMIN
 10
-4.701661
 20
-3.434066
  9
$LIMMAX
 10
5.093466
 20
3.434066
  9
$VIEWCTR
 10
6.0
 20
4.5
  9
$VIEWSIZE
 40
9.0
  9
$SNAPMODE
 70
     0
  9
$SNAPUNIT
 10
78.047823
 20
-276.032551
  9
$SNAPBASE
 10
0.0
 20
0.0
  9
$SNAPANG
 50
0.0
  9
$SNAPSTYLE
 70
     0
  9
$SNAPISOPAIR
 70
     0
  9
$GRIDMODE
 70
     0
  9
$GRIDUNIT
 10
78.047823
 20
-276.032551
  9
$ORTHOMODE
 70
     0
  9
$REGENMODE
 70
     1
  9
$FILLMODE
 70
     1
  9
$QTEXTMODE
 70
     0
  9
$DRAGMODE
 70
     2
  9
$LTSCALE
 40
1.0
  9
$OSMODE
 70
     0
  9
$ATTMODE
 70
     1
  9
$TEXTSIZE
 40
0.2
  9
$TRACEWID
 40
0.05
  9
$TEXTSTYLE
  7
STANDARD
  9
$CLAYER
  8
LAYER01
  9
$CELTYPE
  6
CONTINUOUS
  9
$CECOLOR
 62
     7
  9
$DIMSCALE
 40
1.0
  9
$DIMASZ
 40
0.18
  9
$DIMEXO
 40
0.0625
  9
$DIMDLI
 40
0.38
  9
$DIMRND
 40
0.0
  9
$DIMDLE
 40
0.0
  9
$DIMEXE
 40
0.18
  9
$DIMTP
 40
0.0
  9
$DIMTM
 40
0.0
  9
$DIMTXT
 40
0.18
  9
$DIMCEN
 40
0.09
  9
$DIMTSZ
 40
0.0
  9
$DIMTOL
 70
     0
  9
$DIMLIM
 70
     0
  9
$DIMTIH
 70
     1
  9
$DIMTOH
 70
     1
  9
$DIMSE1
 70
     0
  9
$DIMSE2
 70
     0
  9
$DIMTAD
 70
     0
  9
$DIMZIN
 70
     0
  9
$DIMBLK
  1

  9
$DIMASO
 70
     1
  9
$DIMSHO
 70
     1
  9
$DIMPOST
  1

  9
$DIMAPOST
  1

  9
$DIMALT
 70
     0
  9
$DIMALTD
 70
     2
  9
$DIMALTF
 40
25.4
  9
$DIMLFAC
 40
1.0
  9
$LUNITS
 70
     2
  9
$LUPREC
 70
     4
  9
$AXISMODE
 70
     0
  9
$AXISUNIT
 10
0.0
 20
0.0
  9
$SKETCHINC
 40
0.1
  9
$FILLETRAD
 40
10.0
  9
$AUNITS
 70
     0
  9
$AUPREC
 70
     0
  9
$MENU
  1
acad
  9
$ELEVATION
 40
0.0
  9
$THICKNESS
 40
0.0
  9
$VIEWDIR
 10
0.0
 20
0.0
 30
1.0
  9
$LIMCHECK
 70
     0
  9
$BLIPMODE
 70
     1
  9
$CHAMFERA
 40
10.0
  9
$CHAMFERB
 40
10.0
  9
$FASTZOOM
 70
     1
  9
$SKPOLY
 70
     0
  9
$TDCREATE
 40
0.0
  9
$TDUPDATE
 40
0.0
  9
$TDINDWG
 40
0.0
  9
$TDUSRTIMER
 40
0.0
  9
$USRTIMER
 70
     1
  9
$ANGBASE
 50
0.0
  9
$ANGDIR
 70
     0
  9
$PDMODE
 70
     0
  9
$PDSIZE
 40
0.0
  9
$PLINEWID
 40
0.0
  9
$COORDS
 70
     1
  9
$SPLFRAME
 70
     0
  9
$SPLINESEGS
 70
    10
  9
$ATTDIA
 70
     0
  9
$ATTREQ
 70
     1
  9
$USERI1
 70
     0
  9
$USERI2
 70
     0
  9
$USERI3
 70
     0
  9
$USERI4
 70
     0
  9
$USERI5
 70
     0
  9
$USERR1
 40
0.0
  9
$USERR2
 40
0.0
  9
$USERR3
 40
0.0
  9
$USERR4
 40
0.0
  9
$USERR5
 40
0.0
  0
ENDSEC
  0
SECTION
  2
TABLES
  0
TABLE
  2
LTYPE
 70
    11
  0
LTYPE
  2
CONTINUOUS
 70
     0
  3
Solid line
 72
    65
 73
     0
 40
0.0
  0
LTYPE
  2
GESTRICHELT
 70
     0
  3
__ __ __ __ __ __ __ __ __ __ __ __ __ __ __
 72
    65
 73
     2
 40
0.75
 49
0.5
 49
-0.25
  0
LTYPE
  2
VERDECKT
 70
     0
  3
_ _ _ _ _ _ _ _ _ _ _ _ _ _ _ _ _ _ _ _ _ _ 
 72
    65
 73
     2
 40
0.25
 49
0.125
 49
-0.125
  0
LTYPE
  2
MITTELLINIE
 70
     0
  3
____ _ ____ _ ____ _ ____ _ ____ _ ____ _ __
 72
    65
 73
     4
 40
2.0
 49
1.25
 49
-0.25
 49
0.25
 49
-0.25
  0
LTYPE
  2
PHANTOM
 70
     0
  3
_____ _ _ _____ _ _ _____ _ _ _____ _ _ ____
 72
    65
 73
     6
 40
2.5
 49
1.25
 49
-0.25
 49
0.25
 49
-0.25
 49
0.25
 49
-0.25
  0
LTYPE
  2
PUNKTIERT
 70
     0
  3
............................................
 72
    65
 73
     2
 40
0.25
 49
0.0
 49
-0.25
  0
LTYPE
  2
STRICHPUNKTIERT
 70
     0
  3
__ . __ . __ . __ . __ . __ . __ . __ . __ .
 72
    65
 73
     4
 40
1.0
 49
0.5
 49
-0.25
 49
0.0
 49
-0.25
  0
LTYPE
  2
RAND
 70
     0
  3
__ __ . __ __ . __ __ . __ __ . __ __ . __ _
 72
    65
 73
     6
 40
1.75
 49
0.5
 49
-0.25
 49
0.5
 49
-0.25
 49
0.0
 49
-0.25
  0
LTYPE
  2
TRENNLINIE
 70
     0
  3
__ . . __ . . __ . . __ . . __ . . __ . . __
 72
    65
 73
     6
 40
1.25
 49
0.5
 49
-0.25
 49
0.0
 49
-0.25
 49
0.0
 49
-0.25
  0
LTYPE
  2
ENG_PUNKTIERT
 70
     0
  3
Schließen                                   
 72
    65
 73
     2
 40
0.1
 49
0.05
 49
-0.05
  0
LTYPE
  2
CLOSE
 70
     0
  3
                                            
 72
    65
 73
     0
 40
0.0
  0
ENDTAB
  0
TABLE
  2
LAYER
 70
    11
  0
LAYER
  2
0
 70
     0
 62
     7
  6
CONTINUOUS
  0
LAYER
  2
LAYER01
 70
     0
 62
     7
  6
CONTINUOUS
  0
LAYER
  2
LAYER02
 70
     0
 62
     7
  6
CONTINUOUS
  0
LAYER
  2
LAYER03
 70
     0
 62
     7
  6
CONTINUOUS
  0
LAYER
  2
LAYER04
 70
     0
 62
     7
  6
CONTINUOUS
  0
LAYER
  2
LAYER05
 70
     0
 62
     7
  6
CONTINUOUS
  0
LAYER
  2
LAYER06
 70
     0
 62
     7
  6
CONTINUOUS
  0
LAYER
  2
LAYER07
 70
     0
 62
     7
  6
CONTINUOUS
  0
LAYER
  2
LAYER08
 70
     0
 62
     7
  6
CONTINUOUS
  0
LAYER
  2
LAYER09
 70
     0
 62
     7
  6
CONTINUOUS
  0
LAYER
  2
LAYER10
 70
     0
 62
     7
  6
CONTINUOUS
  0
ENDTAB
  0
TABLE
  2
STYLE
 70
     1
  0
STYLE
  2
STANDARD
 70
     0
 40
0.0
 41
1.0
 50
0.0
 71
     0
 42
0.2
  3
txt
  4

  0
ENDTAB
  0
TABLE
  2
VIEW
 70
     0
  0
ENDTAB
  0
ENDSEC
  0
SECTION
  2
BLOCKS
  0
BLOCK
  8
0
  2
SKETCH-G1
 70
     0
 10
0.0
 20
0.0
  0
POLYLINE
  8
LAYER01
  6
CONTINUOUS
 62
     5
 66
     1
  0
VERTEX
  8
LAYER01
 10
0.465794
 20
-0.844438
  0
VERTEX
  8
LAYER01
 10
-0.40776
 20
-0.841141
  0
VERTEX
  8
LAYER01
 10
-0.664881
 20
-0.834548
  0
VERTEX
  8
LAYER01
 10
-0.893983
 20
-0.823011
  0
VERTEX
  8
LAYER01
 10
-1.147808
 20
-0.796639
  0
SEQEND
  8
LAYER01
  0
POLYLINE
  8
LAYER01
  6
CONTINUOUS
 62
     5
 66
     1
  0
VERTEX
  8
LAYER01
 10
0.47898
 20
-0.885643
  0
VERTEX
  8
LAYER01
 10
-0.247883
 20
-0.87905
  0
VERTEX
  8
LAYER01
 10
-0.683011
 20
-0.869161
  0
VERTEX
  8
LAYER01
 10
-0.994524
 20
-0.86092
  0
SEQEND
  8
LAYER01
  0
POLYLINE
  8
LAYER01
  6
CONTINUOUS
 62
     5
 66
     1
  0
VERTEX
  8
LAYER01
 10
-1.218846
 20
-0.77241
  0
VERTEX
  8
LAYER01
 10
-1.248813
 20
-0.81736
  0
VERTEX
  8
LAYER01
 10
-1.275451
 20
-0.850657
  0
VERTEX
  8
LAYER01
 10
-1.28544
 20
-0.892278
  0
VERTEX
  8
LAYER01
 10
-1.277116
 20
-0.937229
  0
VERTEX
  8
LAYER01
 10
-1.252143
 20
-0.953878
  0
VERTEX
  8
LAYER01
 10
-1.193873
 20
-0.968861
  0
VERTEX
  8
LAYER01
 10
-0.96912
 20
-0.947218
  0
VERTEX
  8
LAYER01
 10
-0.273215
 20
-0.942224
  0
SEQEND
  8
LAYER01
  0
POLYLINE
  8
LAYER01
  6
CONTINUOUS
 62
     5
 66
     1
  0
VERTEX
  8
LAYER01
 10
-0.156021
 20
-0.511276
  0
VERTEX
  8
LAYER01
 10
-0.323354
 20
-0.502992
  0
VERTEX
  8
LAYER01
 10
-0.54039
 20
-0.502992
  0
VERTEX
  8
LAYER01
 10
-0.810442
 20
-0.512933
  0
VERTEX
  8
LAYER01
 10
-1.156705
 20
-0.532814
  0
VERTEX
  8
LAYER01
 10
-1.338949
 20
-0.552695
  0
SEQEND
  8
LAYER01
  0
POLYLINE
  8
LAYER01
  6
CONTINUOUS
 62
     5
 66
     1
  0
VERTEX
  8
LAYER01
 10
-1.129677
 20
-0.783454
  0
VERTEX
  8
LAYER01
 10
-0.844536
 20
-0.81477
  0
VERTEX
  8
LAYER01
 10
-0.584119
 20
-0.827956
  0
VERTEX
  8
LAYER01
 10
-0.297329
 20
-0.836197
  0
VERTEX
  8
LAYER01
 10
0.292731
 20
-0.834548
  0
VERTEX
  8
LAYER01
 10
0.4983
 20
-0.831525
  0
SEQEND
  8
LAYER01
  0
POLYLINE
  8
LAYER01
  6
CONTINUOUS
 62
     5
 66
     1
  0
VERTEX
  8
LAYER01
 10
0.56143
 20
-0.830597
  0
VERTEX
  8
LAYER01
 10
0.628967
 20
-0.829604
  0
VERTEX
  8
LAYER01
 10
0.670172
 20
-0.827956
  0
VERTEX
  8
LAYER01
 10
0.553149
 20
-0.788398
  0
VERTEX
  8
LAYER01
 10
0.310862
 20
-0.715877
  0
VERTEX
  8
LAYER01
 10
0.103187
 20
-0.658189
  0
VERTEX
  8
LAYER01
 10
-0.000651
 20
-0.63017
  0
VERTEX
  8
LAYER01
 10
-0.129211
 20
-0.610391
  0
VERTEX
  8
LAYER01
 10
-0.31546
 20
-0.600502
  0
VERTEX
  8
LAYER01
 10
-0.516542
 20
-0.595557
  0
VERTEX
  8
LAYER01
 10
-0.763774
 20
-0.60215
  0
VERTEX
  8
LAYER01
 10
-0.935188
 20
-0.615336
  0
VERTEX
  8
LAYER01
 10
-1.157697
 20
-0.653245
  0
SEQEND
  8
LAYER01
  0
POLYLINE
  8
LAYER01
  6
CONTINUOUS
 62
     5
 66
     1
  0
VERTEX
  8
LAYER01
 10
0.435329
 20
-0.705495
  0
VERTEX
  8
LAYER01
 10
0.261415
 20
-0.656541
  0
VERTEX
  8
LAYER01
 10
0.122965
 20
-0.610391
  0
VERTEX
  8
LAYER01
 10
-0.046801
 20
-0.572482
  0
VERTEX
  8
LAYER01
 10
-0.295681
 20
-0.542814
  0
VERTEX
  8
LAYER01
 10
-0.51819
 20
-0.539518
  0
VERTEX
  8
LAYER01
 10
-0.834647
 20
-0.551056
  0
VERTEX
  8
LAYER01
 10
-1.081879
 20
-0.565889
  0
SEQEND
  8
LAYER01
  0
POLYLINE
  8
LAYER01
  6
CONTINUOUS
 62
     5
 66
     1
  0
VERTEX
  8
LAYER01
 10
0.436374
 20
-0.739798
  0
VERTEX
  8
LAYER01
 10
0.22021
 20
-0.674672
  0
VERTEX
  8
LAYER01
 10
0.108131
 20
-0.638411
  0
VERTEX
  8
LAYER01
 10
0.012535
 20
-0.618632
  0
VERTEX
  8
LAYER01
 10
-0.13086
 20
-0.592261
  0
VERTEX
  8
LAYER01
 10
-0.300626
 20
-0.585668
  0
VERTEX
  8
LAYER01
 10
-0.49017
 20
-0.58402
  0
VERTEX
  8
LAYER01
 10
-0.694549
 20
-0.587316
  0
VERTEX
  8
LAYER01
 10
-0.836295
 20
-0.593909
  0
VERTEX
  8
LAYER01
 10
-1.001117
 20
-0.610391
  0
VERTEX
  8
LAYER01
 10
-1.087157
 20
-0.625018
  0
SEQEND
  8
LAYER01
  0
POLYLINE
  8
LAYER01
  6
CONTINUOUS
 62
     5
 66
     1
  0
VERTEX
  8
LAYER01
 10
0.465794
 20
0.83934
  0
VERTEX
  8
LAYER01
 10
-0.40776
 20
0.836043
  0
VERTEX
  8
LAYER01
 10
-0.664881
 20
0.829451
  0
VERTEX
  8
LAYER01
 10
-0.893983
 20
0.817913
  0
VERTEX
  8
LAYER01
 10
-1.147808
 20
0.791542
  0
SEQEND
  8
LAYER01
  0
POLYLINE
  8
LAYER01
  6
CONTINUOUS
 62
     5
 66
     1
  0
VERTEX
  8
LAYER01
 10
0.47898
 20
0.880545
  0
VERTEX
  8
LAYER01
 10
-0.247883
 20
0.873952
  0
VERTEX
  8
LAYER01
 10
-0.683011
 20
0.864063
  0
VERTEX
  8
LAYER01
 10
-0.994524
 20
0.855822
  0
SEQEND
  8
LAYER01
  0
POLYLINE
  8
LAYER01
  6
CONTINUOUS
 62
     5
 66
     1
  0
VERTEX
  8
LAYER01
 10
-1.218846
 20
0.767312
  0
VERTEX
  8
LAYER01
 10
-1.248813
 20
0.812263
  0
VERTEX
  8
LAYER01
 10
-1.275451
 20
0.845559
  0
VERTEX
  8
LAYER01
 10
-1.28544
 20
0.887181
  0
VERTEX
  8
LAYER01
 10
-1.277116
 20
0.932131
  0
VERTEX
  8
LAYER01
 10
-1.252143
 20
0.94878
  0
VERTEX
  8
LAYER01
 10
-1.193873
 20
0.963763
  0
VERTEX
  8
LAYER01
 10
-0.96912
 20
0.94212
  0
VERTEX
  8
LAYER01
 10
-0.273215
 20
0.937126
  0
SEQEND
  8
LAYER01
  0
POLYLINE
  8
LAYER01
  6
CONTINUOUS
 62
     5
 66
     1
  0
VERTEX
  8
LAYER01
 10
-0.156021
 20
0.506178
  0
VERTEX
  8
LAYER01
 10
-0.323354
 20
0.497894
  0
VERTEX
  8
LAYER01
 10
-0.54039
 20
0.497894
  0
VERTEX
  8
LAYER01
 10
-0.810442
 20
0.507835
  0
VERTEX
  8
LAYER01
 10
-1.156705
 20
0.527716
  0
VERTEX
  8
LAYER01
 10
-1.338949
 20
0.547597
  0
SEQEND
  8
LAYER01
  0
POLYLINE
  8
LAYER01
  6
CONTINUOUS
 62
     5
 66
     1
  0
VERTEX
  8
LAYER01
 10
-1.129677
 20
0.778356
  0
VERTEX
  8
LAYER01
 10
-0.844536
 20
0.809672
  0
VERTEX
  8
LAYER01
 10
-0.584119
 20
0.822858
  0
VERTEX
  8
LAYER01
 10
-0.297329
 20
0.831099
  0
VERTEX
  8
LAYER01
 10
0.292731
 20
0.829451
  0
VERTEX
  8
LAYER01
 10
0.4983
 20
0.826427
  0
SEQEND
  8
LAYER01
  0
POLYLINE
  8
LAYER01
  6
CONTINUOUS
 62
     5
 66
     1
  0
VERTEX
  8
LAYER01
 10
0.56143
 20
0.825499
  0
VERTEX
  8
LAYER01
 10
0.628967
 20
0.824506
  0
VERTEX
  8
LAYER01
 10
0.670172
 20
0.822858
  0
VERTEX
  8
LAYER01
 10
0.553149
 20
0.783301
  0
VERTEX
  8
LAYER01
 10
0.310862
 20
0.710779
  0
VERTEX
  8
LAYER01
 10
0.103187
 20
0.653092
  0
VERTEX
  8
LAYER01
 10
-0.000651
 20
0.625072
  0
VERTEX
  8
LAYER01
 10
-0.129211
 20
0.605293
  0
VERTEX
  8
LAYER01
 10
-0.31546
 20
0.595404
  0
VERTEX
  8
LAYER01
 10
-0.516542
 20
0.590459
  0
VERTEX
  8
LAYER01
 10
-0.763774
 20
0.597052
  0
VERTEX
  8
LAYER01
 10
-0.935188
 20
0.610238
  0
VERTEX
  8
LAYER01
 10
-1.157697
 20
0.648147
  0
SEQEND
  8
LAYER01
  0
POLYLINE
  8
LAYER01
  6
CONTINUOUS
 62
     5
 66
     1
  0
VERTEX
  8
LAYER01
 10
0.435329
 20
0.700397
  0
VERTEX
  8
LAYER01
 10
0.261415
 20
0.651443
  0
VERTEX
  8
LAYER01
 10
0.122965
 20
0.605293
  0
VERTEX
  8
LAYER01
 10
-0.046801
 20
0.567384
  0
VERTEX
  8
LAYER01
 10
-0.295681
 20
0.537717
  0
VERTEX
  8
LAYER01
 10
-0.51819
 20
0.53442
  0
VERTEX
  8
LAYER01
 10
-0.834647
 20
0.545958
  0
VERTEX
  8
LAYER01
 10
-1.081879
 20
0.560792
  0
SEQEND
  8
LAYER01
  0
POLYLINE
  8
LAYER01
  6
CONTINUOUS
 62
     5
 66
     1
  0
VERTEX
  8
LAYER01
 10
0.436374
 20
0.7347
  0
VERTEX
  8
LAYER01
 10
0.22021
 20
0.669574
  0
VERTEX
  8
LAYER01
 10
0.108131
 20
0.633313
  0
VERTEX
  8
LAYER01
 10
0.012535
 20
0.613534
  0
VERTEX
  8
LAYER01
 10
-0.13086
 20
0.587163
  0
VERTEX
  8
LAYER01
 10
-0.300626
 20
0.58057
  0
VERTEX
  8
LAYER01
 10
-0.49017
 20
0.578922
  0
VERTEX
  8
LAYER01
 10
-0.694549
 20
0.582218
  0
VERTEX
  8
LAYER01
 10
-0.836295
 20
0.588811
  0
VERTEX
  8
LAYER01
 10
-1.001117
 20
0.605293
  0
VERTEX
  8
LAYER01
 10
-1.087157
 20
0.61992
  0
SEQEND
  8
LAYER01
  0
POLYLINE
  8
LAYER01
  6
CONTINUOUS
 62
     5
 66
     1
  0
VERTEX
  8
LAYER01
 10
2.384368
 20
-0.418923
  0
VERTEX
  8
LAYER01
 10
2.170698
 20
-0.507217
  0
VERTEX
  8
LAYER01
 10
1.610919
 20
-0.67674
  0
VERTEX
  8
LAYER01
 10
1.30719
 20
-0.74914
  0
VERTEX
  8
LAYER01
 10
1.074096
 20
-0.780926
  0
VERTEX
  8
LAYER01
 10
0.950485
 20
-0.791521
  0
VERTEX
  8
LAYER01
 10
0.83747
 20
-0.793287
  0
VERTEX
  8
LAYER01
 10
0.745645
 20
-0.791521
  0
VERTEX
  8
LAYER01
 10
0.659117
 20
-0.775628
  0
VERTEX
  8
LAYER01
 10
0.487828
 20
-0.720886
  0
SEQEND
  8
LAYER01
  0
POLYLINE
  8
LAYER01
  6
CONTINUOUS
 62
     5
 66
     1
  0
VERTEX
  8
LAYER01
 10
2.403792
 20
-0.194659
  0
VERTEX
  8
LAYER01
 10
2.214845
 20
-0.240571
  0
VERTEX
  8
LAYER01
 10
1.882862
 20
-0.302376
  0
VERTEX
  8
LAYER01
 10
1.504967
 20
-0.350055
  0
VERTEX
  8
LAYER01
 10
1.084691
 20
-0.383606
  0
SEQEND
  8
LAYER01
  0
POLYLINE
  8
LAYER01
  6
CONTINUOUS
 62
     5
 66
     1
  0
VERTEX
  8
LAYER01
 10
2.024131
 20
-0.85156
  0
VERTEX
  8
LAYER01
 10
1.983516
 20
-0.88158
  0
VERTEX
  8
LAYER01
 10
1.916413
 20
-0.920429
  0
VERTEX
  8
LAYER01
 10
1.842247
 20
-0.953981
  0
SEQEND
  8
LAYER01
  0
POLYLINE
  8
LAYER01
  6
CONTINUOUS
 62
     5
 66
     1
  0
VERTEX
  8
LAYER01
 10
1.907584
 20
-0.839199
  0
VERTEX
  8
LAYER01
 10
1.780442
 20
-0.872751
  0
VERTEX
  8
LAYER01
 10
1.607387
 20
-0.886878
  0
VERTEX
  8
LAYER01
 10
1.211833
 20
-0.901005
  0
VERTEX
  8
LAYER01
 10
0.88868
 20
-0.895707
  0
VERTEX
  8
LAYER01
 10
0.618502
 20
-0.885112
  0
VERTEX
  8
LAYER01
 10
0.588253
 20
-0.884729
  0
SEQEND
  8
LAYER01
  0
POLYLINE
  8
LAYER01
  6
CONTINUOUS
 62
     5
 66
     1
  0
VERTEX
  8
LAYER01
 10
2.265347
 20
-0.708451
  0
VERTEX
  8
LAYER01
 10
2.184825
 20
-0.793287
  0
VERTEX
  8
LAYER01
 10
2.080639
 20
-0.874517
  0
VERTEX
  8
LAYER01
 10
1.992346
 20
-0.915132
  0
VERTEX
  8
LAYER01
 10
1.918179
 20
-0.943385
  0
VERTEX
  8
LAYER01
 10
1.852842
 20
-0.953981
  0
VERTEX
  8
LAYER01
 10
1.718637
 20
-0.961044
  0
VERTEX
  8
LAYER01
 10
1.194175
 20
-0.961044
  0
VERTEX
  8
LAYER01
 10
1.105881
 20
-0.955746
  0
VERTEX
  8
LAYER01
 10
1.045842
 20
-0.943385
  0
VERTEX
  8
LAYER01
 10
0.57708
 20
-0.94641
  0
SEQEND
  8
LAYER01
  0
POLYLINE
  8
LAYER01
  6
CONTINUOUS
 62
     5
 66
     1
  0
VERTEX
  8
LAYER01
 10
2.384368
 20
0.413826
  0
VERTEX
  8
LAYER01
 10
2.170698
 20
0.502119
  0
VERTEX
  8
LAYER01
 10
1.610919
 20
0.671642
  0
VERTEX
  8
LAYER01
 10
1.30719
 20
0.744042
  0
VERTEX
  8
LAYER01
 10
1.074096
 20
0.775828
  0
VERTEX
  8
LAYER01
 10
0.950485
 20
0.786423
  0
VERTEX
  8
LAYER01
 10
0.83747
 20
0.788189
  0
VERTEX
  8
LAYER01
 10
0.745645
 20
0.786423
  0
VERTEX
  8
LAYER01
 10
0.659117
 20
0.77053
  0
VERTEX
  8
LAYER01
 10
0.487828
 20
0.715789
  0
SEQEND
  8
LAYER01
  0
POLYLINE
  8
LAYER01
  6
CONTINUOUS
 62
     5
 66
     1
  0
VERTEX
  8
LAYER01
 10
2.403792
 20
0.189561
  0
VERTEX
  8
LAYER01
 10
2.214845
 20
0.235473
  0
VERTEX
  8
LAYER01
 10
1.882862
 20
0.297278
  0
VERTEX
  8
LAYER01
 10
1.504967
 20
0.344957
  0
VERTEX
  8
LAYER01
 10
1.084691
 20
0.378508
  0
SEQEND
  8
LAYER01
  0
POLYLINE
  8
LAYER01
  6
CONTINUOUS
 62
     5
 66
     1
  0
VERTEX
  8
LAYER01
 10
2.024131
 20
0.846463
  0
VERTEX
  8
LAYER01
 10
1.983516
 20
0.876482
  0
VERTEX
  8
LAYER01
 10
1.916413
 20
0.915331
  0
VERTEX
  8
LAYER01
 10
1.842247
 20
0.948883
  0
SEQEND
  8
LAYER01
  0
POLYLINE
  8
LAYER01
  6
CONTINUOUS
 62
     5
 66
     1
  0
VERTEX
  8
LAYER01
 10
1.907584
 20
0.834102
  0
VERTEX
  8
LAYER01
 10
1.780442
 20
0.867653
  0
VERTEX
  8
LAYER01
 10
1.607387
 20
0.88178
  0
VERTEX
  8
LAYER01
 10
1.211833
 20
0.895907
  0
VERTEX
  8
LAYER01
 10
0.88868
 20
0.890609
  0
VERTEX
  8
LAYER01
 10
0.618502
 20
0.880014
  0
VERTEX
  8
LAYER01
 10
0.588253
 20
0.879631
  0
SEQEND
  8
LAYER01
  0
POLYLINE
  8
LAYER01
  6
CONTINUOUS
 62
     5
 66
     1
  0
VERTEX
  8
LAYER01
 10
2.265347
 20
0.703353
  0
VERTEX
  8
LAYER01
 10
2.184825
 20
0.788189
  0
VERTEX
  8
LAYER01
 10
2.080639
 20
0.869419
  0
VERTEX
  8
LAYER01
 10
1.992346
 20
0.910034
  0
VERTEX
  8
LAYER01
 10
1.918179
 20
0.938288
  0
VERTEX
  8
LAYER01
 10
1.852842
 20
0.948883
  0
VERTEX
  8
LAYER01
 10
1.718637
 20
0.955946
  0
VERTEX
  8
LAYER01
 10
1.194175
 20
0.955946
  0
VERTEX
  8
LAYER01
 10
1.105881
 20
0.950649
  0
VERTEX
  8
LAYER01
 10
1.045842
 20
0.938288
  0
VERTEX
  8
LAYER01
 10
0.57708
 20
0.941312
  0
SEQEND
  8
LAYER01
  0
POLYLINE
  8
LAYER01
  6
CONTINUOUS
 62
     5
 66
     1
  0
VERTEX
  8
LAYER01
 10
2.345092
 20
-0.004412
  0
VERTEX
  8
LAYER01
 10
2.338455
 20
0.21958
  0
VERTEX
  8
LAYER01
 10
2.319031
 20
0.329064
  0
VERTEX
  8
LAYER01
 10
2.281948
 20
0.447377
  0
VERTEX
  8
LAYER01
 10
2.218376
 20
0.532139
  0
VERTEX
  8
LAYER01
 10
2.115956
 20
0.634559
  0
VERTEX
  8
LAYER01
 10
1.994112
 20
0.738745
  0
VERTEX
  8
LAYER01
 10
1.893457
 20
0.791721
  0
VERTEX
  8
LAYER01
 10
1.783974
 20
0.832336
  0
VERTEX
  8
LAYER01
 10
1.589728
 20
0.846463
  0
VERTEX
  8
LAYER01
 10
1.264809
 20
0.853526
  0
VERTEX
  8
LAYER01
 10
1.031715
 20
0.846463
  0
VERTEX
  8
LAYER01
 10
0.992866
 20
0.828804
  0
VERTEX
  8
LAYER01
 10
0.923997
 20
0.766999
  0
SEQEND
  8
LAYER01
  0
POLYLINE
  8
LAYER01
  6
CONTINUOUS
 62
     5
 66
     1
  0
VERTEX
  8
LAYER01
 10
2.345115
 20
0.000071
  0
VERTEX
  8
LAYER01
 10
2.338455
 20
-0.224678
  0
VERTEX
  8
LAYER01
 10
2.319031
 20
-0.334162
  0
VERTEX
  8
LAYER01
 10
2.281948
 20
-0.452475
  0
VERTEX
  8
LAYER01
 10
2.218376
 20
-0.537236
  0
VERTEX
  8
LAYER01
 10
2.115956
 20
-0.639657
  0
VERTEX
  8
LAYER01
 10
1.994112
 20
-0.743843
  0
VERTEX
  8
LAYER01
 10
1.893457
 20
-0.796819
  0
VERTEX
  8
LAYER01
 10
1.783974
 20
-0.837433
  0
VERTEX
  8
LAYER01
 10
1.589728
 20
-0.85156
  0
VERTEX
  8
LAYER01
 10
1.264809
 20
-0.858624
  0
VERTEX
  8
LAYER01
 10
1.031715
 20
-0.85156
  0
VERTEX
  8
LAYER01
 10
0.992866
 20
-0.833902
  0
VERTEX
  8
LAYER01
 10
0.923997
 20
-0.772096
  0
SEQEND
  8
LAYER01
  0
POLYLINE
  8
LAYER01
  6
CONTINUOUS
 62
     5
 66
     1
  0
VERTEX
  8
LAYER01
 10
2.375538
 20
-0.43305
  0
VERTEX
  8
LAYER01
 10
2.338455
 20
-0.482495
  0
VERTEX
  8
LAYER01
 10
2.257225
 20
-0.567256
  0
VERTEX
  8
LAYER01
 10
2.190123
 20
-0.660847
  0
VERTEX
  8
LAYER01
 10
2.11419
 20
-0.738545
  0
VERTEX
  8
LAYER01
 10
2.017068
 20
-0.795053
  0
VERTEX
  8
LAYER01
 10
1.916413
 20
-0.837433
  0
VERTEX
  8
LAYER01
 10
1.946433
 20
-0.865687
  0
VERTEX
  8
LAYER01
 10
2.027663
 20
-0.848029
  0
VERTEX
  8
LAYER01
 10
2.094766
 20
-0.825072
  0
VERTEX
  8
LAYER01
 10
2.170698
 20
-0.772096
  0
VERTEX
  8
LAYER01
 10
2.25546
 20
-0.666145
  0
VERTEX
  8
LAYER01
 10
2.34905
 20
-0.501919
  0
VERTEX
  8
LAYER01
 10
2.343779
 20
-0.491962
  0
SEQEND
  8
LAYER01
  0
LINE
  8
LAYER01
  6
CONTINUOUS
 62
     5
 10
2.338396
 20
-0.482297
 11
2.343945
 21
-0.491547
  0
LINE
  8
LAYER01
  6
CONTINUOUS
 62
     5
 10
2.375394
 20
-0.431733
 11
2.38341
 21
-0.4194
  0
POLYLINE
  8
LAYER01
  6
CONTINUOUS
 62
     5
 66
     1
  0
VERTEX
  8
LAYER01
 10
2.40937
 20
-0.424996
  0
VERTEX
  8
LAYER01
 10
2.370383
 20
-0.524235
  0
VERTEX
  8
LAYER01
 10
2.316511
 20
-0.632688
  0
VERTEX
  8
LAYER01
 10
2.265474
 20
-0.708535
  0
SEQEND
  8
LAYER01
  0
POLYLINE
  8
LAYER01
  6
CONTINUOUS
 62
     5
 66
     1
  0
VERTEX
  8
LAYER01
 10
2.375538
 20
0.427952
  0
VERTEX
  8
LAYER01
 10
2.338455
 20
0.477397
  0
VERTEX
  8
LAYER01
 10
2.257225
 20
0.562158
  0
VERTEX
  8
LAYER01
 10
2.190123
 20
0.655749
  0
VERTEX
  8
LAYER01
 10
2.11419
 20
0.733447
  0
VERTEX
  8
LAYER01
 10
2.017068
 20
0.789955
  0
VERTEX
  8
LAYER01
 10
1.916413
 20
0.832336
  0
VERTEX
  8
LAYER01
 10
1.946433
 20
0.860589
  0
VERTEX
  8
LAYER01
 10
2.027663
 20
0.842931
  0
VERTEX
  8
LAYER01
 10
2.094766
 20
0.819975
  0
VERTEX
  8
LAYER01
 10
2.170698
 20
0.766999
  0
VERTEX
  8
LAYER01
 10
2.25546
 20
0.661047
  0
VERTEX
  8
LAYER01
 10
2.34905
 20
0.496821
  0
VERTEX
  8
LAYER01
 10
2.343779
 20
0.486864
  0
SEQEND
  8
LAYER01
  0
LINE
  8
LAYER01
  6
CONTINUOUS
 62
     5
 10
2.338396
 20
0.4772
 11
2.343945
 21
0.486449
  0
LINE
  8
LAYER01
  6
CONTINUOUS
 62
     5
 10
2.375394
 20
0.426635
 11
2.38341
 21
0.414302
  0
POLYLINE
  8
LAYER01
  6
CONTINUOUS
 62
     5
 66
     1
  0
VERTEX
  8
LAYER01
 10
2.40937
 20
0.419898
  0
VERTEX
  8
LAYER01
 10
2.370383
 20
0.519137
  0
VERTEX
  8
LAYER01
 10
2.316511
 20
0.62759
  0
VERTEX
  8
LAYER01
 10
2.265474
 20
0.703437
  0
SEQEND
  8
LAYER01
  0
POLYLINE
  8
LAYER01
  6
CONTINUOUS
 62
     5
 66
     1
  0
VERTEX
  8
LAYER01
 10
2.404211
 20
0.419475
  0
VERTEX
  8
LAYER01
 10
2.386134
 20
0.413826
  0
VERTEX
  8
LAYER01
 10
2.403792
 20
0.346723
  0
VERTEX
  8
LAYER01
 10
2.421451
 20
0.239005
  0
VERTEX
  8
LAYER01
 10
2.434667
 20
-0.00384
  0
SEQEND
  8
LAYER01
  0
POLYLINE
  8
LAYER01
  6
CONTINUOUS
 62
     5
 66
     1
  0
VERTEX
  8
LAYER01
 10
2.404211
 20
-0.424573
  0
VERTEX
  8
LAYER01
 10
2.386134
 20
-0.418923
  0
VERTEX
  8
LAYER01
 10
2.403792
 20
-0.351821
  0
VERTEX
  8
LAYER01
 10
2.421451
 20
-0.244103
  0
VERTEX
  8
LAYER01
 10
2.434713
 20
-0.000415
  0
SEQEND
  8
LAYER01
  0
POLYLINE
  8
LAYER01
  6
CONTINUOUS
 62
     5
 66
     1
  0
VERTEX
  8
LAYER01
 10
2.406912
 20
0.419944
  0
VERTEX
  8
LAYER01
 10
2.42004
 20
0.416083
  0
VERTEX
  8
LAYER01
 10
2.426218
 20
0.399866
  0
VERTEX
  8
LAYER01
 10
2.436257
 20
0.362798
  0
VERTEX
  8
LAYER01
 10
2.445524
 20
0.298703
  0
VERTEX
  8
LAYER01
 10
2.449385
 20
0.248507
  0
VERTEX
  8
LAYER01
 10
2.460382
 20
-0.003687
  0
SEQEND
  8
LAYER01
  0
POLYLINE
  8
LAYER01
  6
CONTINUOUS
 62
     5
 66
     1
  0
VERTEX
  8
LAYER01
 10
2.406912
 20
-0.425042
  0
VERTEX
  8
LAYER01
 10
2.42004
 20
-0.421181
  0
VERTEX
  8
LAYER01
 10
2.426218
 20
-0.404964
  0
VERTEX
  8
LAYER01
 10
2.436257
 20
-0.367896
  0
VERTEX
  8
LAYER01
 10
2.445524
 20
-0.3038
  0
VERTEX
  8
LAYER01
 10
2.449385
 20
-0.253605
  0
VERTEX
  8
LAYER01
 10
2.460333
 20
-0.002521
  0
SEQEND
  8
LAYER01
  0
LINE
  8
LAYER01
  6
CONTINUOUS
 62
     5
 10
2.533695
 20
-0.002846
 11
2.250461
 21
-0.002846
  0
POLYLINE
  8
LAYER01
  6
CONTINUOUS
 62
     5
 66
     1
  0
VERTEX
  8
LAYER01
 10
0.480765
 20
-0.752672
  0
VERTEX
  8
LAYER01
 10
0.682074
 20
-0.816243
  0
VERTEX
  8
LAYER01
 10
0.743879
 20
-0.840965
  0
VERTEX
  8
LAYER01
 10
0.779196
 20
-0.867453
  0
VERTEX
  8
LAYER01
 10
0.802152
 20
-0.901005
  0
VERTEX
  8
LAYER01
 10
0.80745
 20
-0.943385
  0
SEQEND
  8
LAYER01
  0
POLYLINE
  8
LAYER01
  6
CONTINUOUS
 62
     5
 66
     1
  0
VERTEX
  8
LAYER01
 10
-0.39787
 20
-0.829604
  0
VERTEX
  8
LAYER01
 10
-0.435779
 20
-0.762027
  0
VERTEX
  8
LAYER01
 10
-0.45391
 20
-0.692802
  0
VERTEX
  8
LAYER01
 10
-0.483577
 20
-0.598854
  0
SEQEND
  8
LAYER01
  0
POLYLINE
  8
LAYER01
  6
CONTINUOUS
 62
     5
 66
     1
  0
VERTEX
  8
LAYER01
 10
-0.424242
 20
-0.600502
  0
VERTEX
  8
LAYER01
 10
-0.359961
 20
-0.692802
  0
VERTEX
  8
LAYER01
 10
-0.300626
 20
-0.781806
  0
VERTEX
  8
LAYER01
 10
-0.267661
 20
-0.834548
  0
SEQEND
  8
LAYER01
  0
POLYLINE
  8
LAYER01
  6
CONTINUOUS
 62
     5
 66
     1
  0
VERTEX
  8
LAYER01
 10
0.474035
 20
-0.831252
  0
VERTEX
  8
LAYER01
 10
0.416347
 20
-0.748841
  0
SEQEND
  8
LAYER01
  0
POLYLINE
  8
LAYER01
  6
CONTINUOUS
 62
     5
 66
     1
 70
     1
  0
VERTEX
  8
LAYER01
 10
0.489542
 20
-0.853361
  0
VERTEX
  8
LAYER01
 10
0.427934
 20
-1.075342
  0
VERTEX
  8
LAYER01
 10
0.456293
 20
-1.083166
  0
VERTEX
  8
LAYER01
 10
0.480741
 20
-1.068497
  0
VERTEX
  8
LAYER01
 10
0.54137
 20
-1.021558
  0
VERTEX
  8
LAYER01
 10
0.570707
 20
-0.978531
  0
VERTEX
  8
LAYER01
 10
0.584397
 20
-0.913012
  0
VERTEX
  8
LAYER01
 10
0.590265
 20
-0.866073
  0
VERTEX
  8
LAYER01
 10
0.55995
 20
-0.850427
  0
SEQEND
  8
LAYER01
  0
POLYLINE
  8
LAYER01
  6
CONTINUOUS
 62
     5
 66
     1
  0
VERTEX
  8
LAYER01
 10
0.557994
 20
-0.849449
  0
VERTEX
  8
LAYER01
 10
0.562884
 20
-0.82109
  0
VERTEX
  8
LAYER01
 10
0.550171
 20
-0.805444
  0
VERTEX
  8
LAYER01
 10
0.497365
 20
-0.784908
  0
VERTEX
  8
LAYER01
 10
0.499321
 20
-0.851405
  0
SEQEND
  8
LAYER01
  0
POLYLINE
  8
LAYER01
  6
CONTINUOUS
 62
     5
 66
     1
  0
VERTEX
  8
LAYER01
 10
0.182301
 20
-0.569186
  0
VERTEX
  8
LAYER01
 10
-0.035263
 20
-0.529629
  0
VERTEX
  8
LAYER01
 10
-0.156452
 20
-0.511614
  0
SEQEND
  8
LAYER01
  0
POLYLINE
  8
LAYER01
  6
CONTINUOUS
 62
     5
 66
     1
  0
VERTEX
  8
LAYER01
 10
0.772133
 20
-0.782692
  0
VERTEX
  8
LAYER01
 10
0.750942
 20
-0.80918
  0
VERTEX
  8
LAYER01
 10
0.72622
 20
-0.83037
  0
VERTEX
  8
LAYER01
 10
0.660883
 20
-0.837433
  0
VERTEX
  8
LAYER01
 10
0.560413
 20
-0.840959
  0
SEQEND
  8
LAYER01
  0
POLYLINE
  8
LAYER01
  6
CONTINUOUS
 62
     5
 66
     1
  0
VERTEX
  8
LAYER01
 10
0.499398
 20
-0.8431
  0
VERTEX
  8
LAYER01
 10
0.459575
 20
-0.844497
  0
SEQEND
  8
LAYER01
  0
POLYLINE
  8
LAYER01
  6
CONTINUOUS
 62
     5
 66
     1
  0
VERTEX
  8
LAYER01
 10
-0.335238
 20
-0.836197
  0
VERTEX
  8
LAYER01
 10
-0.318756
 20
-0.877402
  0
VERTEX
  8
LAYER01
 10
-0.290736
 20
-0.918607
  0
VERTEX
  8
LAYER01
 10
-0.274254
 20
-0.941682
  0
VERTEX
  8
LAYER01
 10
0.463205
 20
-0.94642
  0
SEQEND
  8
LAYER01
  0
LINE
  8
LAYER01
  6
CONTINUOUS
 62
     5
 10
0.555133
 20
-0.707085
 11
0.451266
 21
-0.678233
  0
LINE
  8
LAYER01
  6
CONTINUOUS
 62
     5
 10
0.494407
 20
-0.706535
 11
0.435879
 21
-0.688949
  0
LINE
  8
LAYER01
  6
CONTINUOUS
 62
     5
 10
0.436154
 20
-0.705711
 11
0.487537
 21
-0.720549
  0
LINE
  8
LAYER01
  6
CONTINUOUS
 62
     5
 10
0.480118
 20
-0.752423
 11
0.436703
 21
-0.740058
  0
LINE
  8
LAYER01
  6
CONTINUOUS
 62
     5
 10
-0.483096
 20
-0.598998
 11
-0.424245
 21
-0.599851
  0
POLYLINE
  8
LAYER01
  6
CONTINUOUS
 62
     5
 66
     1
  0
VERTEX
  8
LAYER01
 10
0.480765
 20
0.747574
  0
VERTEX
  8
LAYER01
 10
0.682074
 20
0.811145
  0
VERTEX
  8
LAYER01
 10
0.743879
 20
0.835867
  0
VERTEX
  8
LAYER01
 10
0.779196
 20
0.862355
  0
VERTEX
  8
LAYER01
 10
0.802152
 20
0.895907
  0
VERTEX
  8
LAYER01
 10
0.80745
 20
0.938288
  0
SEQEND
  8
LAYER01
  0
POLYLINE
  8
LAYER01
  6
CONTINUOUS
 62
     5
 66
     1
  0
VERTEX
  8
LAYER01
 10
-0.39787
 20
0.824506
  0
VERTEX
  8
LAYER01
 10
-0.435779
 20
0.756929
  0
VERTEX
  8
LAYER01
 10
-0.45391
 20
0.687704
  0
VERTEX
  8
LAYER01
 10
-0.483577
 20
0.593756
  0
SEQEND
  8
LAYER01
  0
POLYLINE
  8
LAYER01
  6
CONTINUOUS
 62
     5
 66
     1
  0
VERTEX
  8
LAYER01
 10
-0.424242
 20
0.595404
  0
VERTEX
  8
LAYER01
 10
-0.359961
 20
0.687704
  0
VERTEX
  8
LAYER01
 10
-0.300626
 20
0.776708
  0
VERTEX
  8
LAYER01
 10
-0.267661
 20
0.829451
  0
SEQEND
  8
LAYER01
  0
POLYLINE
  8
LAYER01
  6
CONTINUOUS
 62
     5
 66
     1
  0
VERTEX
  8
LAYER01
 10
0.474035
 20
0.826154
  0
VERTEX
  8
LAYER01
 10
0.416347
 20
0.743743
  0
SEQEND
  8
LAYER01
  0
POLYLINE
  8
LAYER01
  6
CONTINUOUS
 62
     5
 66
     1
 70
     1
  0
VERTEX
  8
LAYER01
 10
0.489542
 20
0.848263
  0
VERTEX
  8
LAYER01
 10
0.427934
 20
1.070245
  0
VERTEX
  8
LAYER01
 10
0.456293
 20
1.078068
  0
VERTEX
  8
LAYER01
 10
0.480741
 20
1.063399
  0
VERTEX
  8
LAYER01
 10
0.54137
 20
1.01646
  0
VERTEX
  8
LAYER01
 10
0.570707
 20
0.973433
  0
VERTEX
  8
LAYER01
 10
0.584397
 20
0.907914
  0
VERTEX
  8
LAYER01
 10
0.590265
 20
0.860975
  0
VERTEX
  8
LAYER01
 10
0.55995
 20
0.845329
  0
SEQEND
  8
LAYER01
  0
POLYLINE
  8
LAYER01
  6
CONTINUOUS
 62
     5
 66
     1
  0
VERTEX
  8
LAYER01
 10
0.557994
 20
0.844351
  0
VERTEX
  8
LAYER01
 10
0.562884
 20
0.815992
  0
VERTEX
  8
LAYER01
 10
0.550171
 20
0.800346
  0
VERTEX
  8
LAYER01
 10
0.497365
 20
0.77981
  0
VERTEX
  8
LAYER01
 10
0.499321
 20
0.846307
  0
SEQEND
  8
LAYER01
  0
POLYLINE
  8
LAYER01
  6
CONTINUOUS
 62
     5
 66
     1
  0
VERTEX
  8
LAYER01
 10
0.182301
 20
0.564088
  0
VERTEX
  8
LAYER01
 10
-0.035263
 20
0.524531
  0
VERTEX
  8
LAYER01
 10
-0.156452
 20
0.506516
  0
SEQEND
  8
LAYER01
  0
POLYLINE
  8
LAYER01
  6
CONTINUOUS
 62
     5
 66
     1
  0
VERTEX
  8
LAYER01
 10
0.772133
 20
0.777594
  0
VERTEX
  8
LAYER01
 10
0.750942
 20
0.804082
  0
VERTEX
  8
LAYER01
 10
0.72622
 20
0.825272
  0
VERTEX
  8
LAYER01
 10
0.660883
 20
0.832336
  0
VERTEX
  8
LAYER01
 10
0.560413
 20
0.835861
  0
SEQEND
  8
LAYER01
  0
POLYLINE
  8
LAYER01
  6
CONTINUOUS
 62
     5
 66
     1
  0
VERTEX
  8
LAYER01
 10
0.499398
 20
0.838002
  0
VERTEX
  8
LAYER01
 10
0.459575
 20
0.839399
  0
SEQEND
  8
LAYER01
  0
POLYLINE
  8
LAYER01
  6
CONTINUOUS
 62
     5
 66
     1
  0
VERTEX
  8
LAYER01
 10
-0.335238
 20
0.831099
  0
VERTEX
  8
LAYER01
 10
-0.318756
 20
0.872304
  0
VERTEX
  8
LAYER01
 10
-0.290736
 20
0.913509
  0
VERTEX
  8
LAYER01
 10
-0.274254
 20
0.936584
  0
VERTEX
  8
LAYER01
 10
0.463205
 20
0.941322
  0
SEQEND
  8
LAYER01
  0
LINE
  8
LAYER01
  6
CONTINUOUS
 62
     5
 10
0.555133
 20
0.701987
 11
0.451266
 21
0.673135
  0
LINE
  8
LAYER01
  6
CONTINUOUS
 62
     5
 10
0.494407
 20
0.701437
 11
0.435879
 21
0.683851
  0
LINE
  8
LAYER01
  6
CONTINUOUS
 62
     5
 10
0.436154
 20
0.700613
 11
0.487537
 21
0.715451
  0
LINE
  8
LAYER01
  6
CONTINUOUS
 62
     5
 10
0.480118
 20
0.747326
 11
0.436703
 21
0.73496
  0
LINE
  8
LAYER01
  6
CONTINUOUS
 62
     5
 10
-0.483096
 20
0.5939
 11
-0.424245
 21
0.594753
  0
POLYLINE
  8
LAYER01
  6
CONTINUOUS
 62
     5
 66
     1
  0
VERTEX
  8
LAYER01
 10
1.057546
 20
-0.00365
  0
VERTEX
  8
LAYER01
 10
1.051139
 20
0.161307
  0
VERTEX
  8
LAYER01
 10
1.037013
 20
0.276088
  0
VERTEX
  8
LAYER01
 10
1.006993
 20
0.429718
  0
VERTEX
  8
LAYER01
 10
0.964612
 20
0.574519
  0
VERTEX
  8
LAYER01
 10
0.916934
 20
0.669876
  0
VERTEX
  8
LAYER01
 10
0.874553
 20
0.722852
  0
VERTEX
  8
LAYER01
 10
0.839236
 20
0.74934
  0
VERTEX
  8
LAYER01
 10
0.80745
 20
0.763467
  0
VERTEX
  8
LAYER01
 10
0.75624
 20
0.756403
  0
VERTEX
  8
LAYER01
 10
0.555182
 20
0.702326
  0
SEQEND
  8
LAYER01
  0
POLYLINE
  8
LAYER01
  6
CONTINUOUS
 62
     5
 66
     1
  0
VERTEX
  8
LAYER01
 10
1.057574
 20
-0.00072
  0
VERTEX
  8
LAYER01
 10
1.051139
 20
-0.166405
  0
VERTEX
  8
LAYER01
 10
1.037013
 20
-0.281186
  0
VERTEX
  8
LAYER01
 10
1.006993
 20
-0.434816
  0
VERTEX
  8
LAYER01
 10
0.964612
 20
-0.579617
  0
VERTEX
  8
LAYER01
 10
0.916934
 20
-0.674974
  0
VERTEX
  8
LAYER01
 10
0.874553
 20
-0.72795
  0
VERTEX
  8
LAYER01
 10
0.839236
 20
-0.754438
  0
VERTEX
  8
LAYER01
 10
0.80745
 20
-0.768565
  0
VERTEX
  8
LAYER01
 10
0.75624
 20
-0.761501
  0
VERTEX
  8
LAYER01
 10
0.555182
 20
-0.707424
  0
SEQEND
  8
LAYER01
  0
POLYLINE
  8
LAYER01
  6
CONTINUOUS
 62
     5
 66
     1
  0
VERTEX
  8
LAYER01
 10
1.102034
 20
-0.004631
  0
VERTEX
  8
LAYER01
 10
1.097052
 20
0.191327
  0
VERTEX
  8
LAYER01
 10
1.074096
 20
0.357318
  0
VERTEX
  8
LAYER01
 10
1.054671
 20
0.472099
  0
VERTEX
  8
LAYER01
 10
1.015822
 20
0.606305
  0
VERTEX
  8
LAYER01
 10
0.966378
 20
0.692832
  0
VERTEX
  8
LAYER01
 10
0.923997
 20
0.759935
  0
VERTEX
  8
LAYER01
 10
0.895743
 20
0.775828
  0
VERTEX
  8
LAYER01
 10
0.83747
 20
0.77936
  0
VERTEX
  8
LAYER01
 10
0.766835
 20
0.775828
  0
VERTEX
  8
LAYER01
 10
0.646756
 20
0.747574
  0
VERTEX
  8
LAYER01
 10
0.494892
 20
0.701662
  0
SEQEND
  8
LAYER01
  0
POLYLINE
  8
LAYER01
  6
CONTINUOUS
 62
     5
 66
     1
  0
VERTEX
  8
LAYER01
 10
1.102052
 20
0.000225
  0
VERTEX
  8
LAYER01
 10
1.097052
 20
-0.196424
  0
VERTEX
  8
LAYER01
 10
1.074096
 20
-0.362416
  0
VERTEX
  8
LAYER01
 10
1.054671
 20
-0.477197
  0
VERTEX
  8
LAYER01
 10
1.015822
 20
-0.611403
  0
VERTEX
  8
LAYER01
 10
0.966378
 20
-0.69793
  0
VERTEX
  8
LAYER01
 10
0.923997
 20
-0.765033
  0
VERTEX
  8
LAYER01
 10
0.895743
 20
-0.780926
  0
VERTEX
  8
LAYER01
 10
0.83747
 20
-0.784458
  0
VERTEX
  8
LAYER01
 10
0.766835
 20
-0.780926
  0
VERTEX
  8
LAYER01
 10
0.646756
 20
-0.752672
  0
VERTEX
  8
LAYER01
 10
0.494892
 20
-0.706759
  0
SEQEND
  8
LAYER01
  0
POLYLINE
  8
LAYER01
  6
CONTINUOUS
 62
     5
 66
     1
  0
VERTEX
  8
LAYER01
 10
0.27232
 20
-0.004
  0
VERTEX
  8
LAYER01
 10
0.26636
 20
0.280595
  0
VERTEX
  8
LAYER01
 10
0.251526
 20
0.481677
  0
VERTEX
  8
LAYER01
 10
0.235044
 20
0.557495
  0
VERTEX
  8
LAYER01
 10
0.235044
 20
0.585515
  0
VERTEX
  8
LAYER01
 10
0.249878
 20
0.598701
  0
VERTEX
  8
LAYER01
 10
0.317455
 20
0.631665
  0
VERTEX
  8
LAYER01
 10
0.450862
 20
0.6729
  0
SEQEND
  8
LAYER01
  0
POLYLINE
  8
LAYER01
  6
CONTINUOUS
 62
     5
 66
     1
  0
VERTEX
  8
LAYER01
 10
0.272323
 20
-0.000948
  0
VERTEX
  8
LAYER01
 10
0.26636
 20
-0.285693
  0
VERTEX
  8
LAYER01
 10
0.251526
 20
-0.486775
  0
VERTEX
  8
LAYER01
 10
0.235044
 20
-0.562593
  0
VERTEX
  8
LAYER01
 10
0.235044
 20
-0.590613
  0
VERTEX
  8
LAYER01
 10
0.249878
 20
-0.603798
  0
VERTEX
  8
LAYER01
 10
0.317455
 20
-0.636763
  0
VERTEX
  8
LAYER01
 10
0.450862
 20
-0.677998
  0
SEQEND
  8
LAYER01
  0
POLYLINE
  8
LAYER01
  6
CONTINUOUS
 62
     5
 66
     1
  0
VERTEX
  8
LAYER01
 10
0.435599
 20
-0.688713
  0
VERTEX
  8
LAYER01
 10
0.193839
 20
-0.621929
  0
VERTEX
  8
LAYER01
 10
0.182301
 20
-0.590613
  0
VERTEX
  8
LAYER01
 10
0.195487
 20
-0.4637
  0
VERTEX
  8
LAYER01
 10
0.211969
 20
-0.226357
  0
VERTEX
  8
LAYER01
 10
0.214818
 20
0.000155
  0
SEQEND
  8
LAYER01
  0
POLYLINE
  8
LAYER01
  6
CONTINUOUS
 62
     5
 66
     1
  0
VERTEX
  8
LAYER01
 10
0.435599
 20
0.683616
  0
VERTEX
  8
LAYER01
 10
0.193839
 20
0.616831
  0
VERTEX
  8
LAYER01
 10
0.182301
 20
0.585515
  0
VERTEX
  8
LAYER01
 10
0.195487
 20
0.458602
  0
VERTEX
  8
LAYER01
 10
0.211969
 20
0.22126
  0
VERTEX
  8
LAYER01
 10
0.214818
 20
-0.005218
  0
SEQEND
  8
LAYER01
  0
POLYLINE
  8
LAYER01
  6
CONTINUOUS
 62
     5
 66
     1
  0
VERTEX
  8
LAYER01
 10
-1.195538
 20
-0.968861
  0
VERTEX
  8
LAYER01
 10
-1.398649
 20
-0.975521
  0
VERTEX
  8
LAYER01
 10
-1.733283
 20
-0.973856
  0
VERTEX
  8
LAYER01
 10
-1.871465
 20
-0.967196
  0
VERTEX
  8
LAYER01
 10
-1.888113
 20
-0.957207
  0
VERTEX
  8
LAYER01
 10
-2.037949
 20
-0.913921
  0
VERTEX
  8
LAYER01
 10
-2.114532
 20
-0.890614
  0
SEQEND
  8
LAYER01
  0
POLYLINE
  8
LAYER01
  6
CONTINUOUS
 62
     5
 66
     1
  0
VERTEX
  8
LAYER01
 10
-2.096219
 20
-0.8723
  0
VERTEX
  8
LAYER01
 10
-1.874794
 20
-0.945553
  0
VERTEX
  8
LAYER01
 10
-1.816525
 20
-0.968861
  0
SEQEND
  8
LAYER01
  0
POLYLINE
  8
LAYER01
  6
CONTINUOUS
 62
     5
 66
     1
  0
VERTEX
  8
LAYER01
 10
-2.398595
 20
-0.483836
  0
VERTEX
  8
LAYER01
 10
-2.357983
 20
-0.574084
  0
VERTEX
  8
LAYER01
 10
-2.311355
 20
-0.644779
  0
VERTEX
  8
LAYER01
 10
-2.22261
 20
-0.73954
  0
VERTEX
  8
LAYER01
 10
-2.126346
 20
-0.804218
  0
VERTEX
  8
LAYER01
 10
-2.036097
 20
-0.85235
  0
SEQEND
  8
LAYER01
  0
POLYLINE
  8
LAYER01
  6
CONTINUOUS
 62
     5
 66
     1
  0
VERTEX
  8
LAYER01
 10
-2.34595
 20
-0.664333
  0
VERTEX
  8
LAYER01
 10
-2.252693
 20
-0.718482
  0
VERTEX
  8
LAYER01
 10
-2.13537
 20
-0.753077
  0
VERTEX
  8
LAYER01
 10
-2.013535
 20
-0.775639
  0
VERTEX
  8
LAYER01
 10
-1.945849
 20
-0.777143
  0
VERTEX
  8
LAYER01
 10
-1.894708
 20
-0.766614
  0
VERTEX
  8
LAYER01
 10
-1.872146
 20
-0.741044
  0
SEQEND
  8
LAYER01
  0
POLYLINE
  8
LAYER01
  6
CONTINUOUS
 62
     5
 66
     1
  0
VERTEX
  8
LAYER01
 10
-1.882294
 20
-0.955528
  0
VERTEX
  8
LAYER01
 10
-1.773748
 20
-0.951128
  0
VERTEX
  8
LAYER01
 10
-1.467179
 20
-0.956995
  0
VERTEX
  8
LAYER01
 10
-1.153275
 20
-0.962862
  0
SEQEND
  8
LAYER01
  0
POLYLINE
  8
LAYER01
  6
CONTINUOUS
 62
     5
 66
     1
  0
VERTEX
  8
LAYER01
 10
-1.082329
 20
-0.565969
  0
VERTEX
  8
LAYER01
 10
-1.318737
 20
-0.587612
  0
VERTEX
  8
LAYER01
 10
-1.333043
 20
-0.58954
  0
SEQEND
  8
LAYER01
  0
POLYLINE
  8
LAYER01
  6
CONTINUOUS
 62
     5
 66
     1
  0
VERTEX
  8
LAYER01
 10
-1.187638
 20
-0.775011
  0
VERTEX
  8
LAYER01
 10
-1.235495
 20
-0.767415
  0
VERTEX
  8
LAYER01
 10
-1.260467
 20
-0.707481
  0
VERTEX
  8
LAYER01
 10
-1.232165
 20
-0.669189
  0
SEQEND
  8
LAYER01
  0
POLYLINE
  8
LAYER01
  6
CONTINUOUS
 62
     5
 66
     1
  0
VERTEX
  8
LAYER01
 10
-1.236069
 20
-0.65478
  0
VERTEX
  8
LAYER01
 10
-1.258802
 20
-0.677514
  0
VERTEX
  8
LAYER01
 10
-1.277116
 20
-0.705816
  0
VERTEX
  8
LAYER01
 10
-1.248813
 20
-0.782399
  0
VERTEX
  8
LAYER01
 10
-1.19015
 20
-0.790092
  0
SEQEND
  8
LAYER01
  0
POLYLINE
  8
LAYER01
  6
CONTINUOUS
 62
     5
 66
     1
  0
VERTEX
  8
LAYER01
 10
-1.010278
 20
-0.861334
  0
VERTEX
  8
LAYER01
 10
-1.228084
 20
-0.85725
  0
VERTEX
  8
LAYER01
 10
-1.393837
 20
-0.845515
  0
VERTEX
  8
LAYER01
 10
-1.615329
 20
-0.827913
  0
VERTEX
  8
LAYER01
 10
-1.889628
 20
-0.832314
  0
VERTEX
  8
LAYER01
 10
-2.001108
 20
-0.830847
  0
SEQEND
  8
LAYER01
  0
LINE
  8
LAYER01
  6
CONTINUOUS
 62
     5
 10
-1.08825
 20
-0.624983
 11
-1.236705
 21
-0.654807
  0
LINE
  8
LAYER01
  6
CONTINUOUS
 62
     5
 10
-1.159164
 20
-0.653481
 11
-1.232065
 21
-0.668724
  0
LINE
  8
LAYER01
  6
CONTINUOUS
 62
     5
 10
-1.186999
 20
-0.775426
 11
-1.130003
 21
-0.783379
  0
LINE
  8
LAYER01
  6
CONTINUOUS
 62
     5
 10
-1.18965
 20
-0.790006
 11
-1.147897
 21
-0.796634
  0
LINE
  8
LAYER01
  6
CONTINUOUS
 62
     5
 10
-1.012035
 20
-0.861583
 11
-0.99149
 21
-0.86092
  0
LINE
  8
LAYER01
  6
CONTINUOUS
 62
     5
 10
-1.882654
 20
-0.955819
 11
-1.890558
 21
-0.955819
  0
POLYLINE
  8
LAYER01
  6
CONTINUOUS
 62
     5
 66
     1
  0
VERTEX
  8
LAYER01
 10
-2.135755
 20
-0.847023
  0
VERTEX
  8
LAYER01
 10
-2.168669
 20
-0.826451
  0
SEQEND
  8
LAYER01
  0
LINE
  8
LAYER01
  6
CONTINUOUS
 62
     5
 10
-1.866846
 20
-0.735826
 11
-1.872115
 21
-0.740436
  0
LINE
  8
LAYER01
  6
CONTINUOUS
 62
     5
 10
-2.142167
 20
-0.88139
 11
-2.115162
 21
-0.890611
  0
LINE
  8
LAYER01
  6
CONTINUOUS
 62
     5
 10
-2.134263
 20
-0.847798
 11
-2.09672
 21
-0.87151
  0
POLYLINE
  8
LAYER01
  6
CONTINUOUS
 62
     5
 66
     1
  0
VERTEX
  8
LAYER01
 10
-1.364181
 20
-0.635661
  0
VERTEX
  8
LAYER01
 10
-1.866159
 20
-0.735502
  0
VERTEX
  8
LAYER01
 10
-1.898429
 20
-0.695898
  0
VERTEX
  8
LAYER01
 10
-1.951236
 20
-0.616688
  0
VERTEX
  8
LAYER01
 10
-1.999641
 20
-0.538946
  0
VERTEX
  8
LAYER01
 10
-2.033379
 20
-0.446535
  0
VERTEX
  8
LAYER01
 10
-2.061249
 20
-0.332121
  0
VERTEX
  8
LAYER01
 10
-2.081785
 20
-0.120896
  0
VERTEX
  8
LAYER01
 10
-2.089119
 20
0.005252
  0
SEQEND
  8
LAYER01
  0
POLYLINE
  8
LAYER01
  6
CONTINUOUS
 62
     5
 66
     1
  0
VERTEX
  8
LAYER01
 10
-1.336995
 20
-0.590613
  0
VERTEX
  8
LAYER01
 10
-1.338176
 20
-0.605735
  0
VERTEX
  8
LAYER01
 10
-1.342666
 20
-0.619675
  0
VERTEX
  8
LAYER01
 10
-1.354007
 20
-0.630072
  0
VERTEX
  8
LAYER01
 10
-1.363931
 20
-0.635743
  0
SEQEND
  8
LAYER01
  0
POLYLINE
  8
LAYER01
  6
CONTINUOUS
 62
     5
 66
     1
  0
VERTEX
  8
LAYER01
 10
-1.195538
 20
0.963763
  0
VERTEX
  8
LAYER01
 10
-1.398649
 20
0.970423
  0
VERTEX
  8
LAYER01
 10
-1.733283
 20
0.968758
  0
VERTEX
  8
LAYER01
 10
-1.871465
 20
0.962098
  0
VERTEX
  8
LAYER01
 10
-1.888113
 20
0.952109
  0
VERTEX
  8
LAYER01
 10
-2.037949
 20
0.908823
  0
VERTEX
  8
LAYER01
 10
-2.114532
 20
0.885516
  0
SEQEND
  8
LAYER01
  0
POLYLINE
  8
LAYER01
  6
CONTINUOUS
 62
     5
 66
     1
  0
VERTEX
  8
LAYER01
 10
-2.096219
 20
0.867202
  0
VERTEX
  8
LAYER01
 10
-1.874794
 20
0.940455
  0
VERTEX
  8
LAYER01
 10
-1.816525
 20
0.963763
  0
SEQEND
  8
LAYER01
  0
POLYLINE
  8
LAYER01
  6
CONTINUOUS
 62
     5
 66
     1
  0
VERTEX
  8
LAYER01
 10
-2.398595
 20
0.478738
  0
VERTEX
  8
LAYER01
 10
-2.357983
 20
0.568987
  0
VERTEX
  8
LAYER01
 10
-2.311355
 20
0.639681
  0
VERTEX
  8
LAYER01
 10
-2.22261
 20
0.734442
  0
VERTEX
  8
LAYER01
 10
-2.126346
 20
0.79912
  0
VERTEX
  8
LAYER01
 10
-2.036097
 20
0.847252
  0
SEQEND
  8
LAYER01
  0
POLYLINE
  8
LAYER01
  6
CONTINUOUS
 62
     5
 66
     1
  0
VERTEX
  8
LAYER01
 10
-2.34595
 20
0.659235
  0
VERTEX
  8
LAYER01
 10
-2.252693
 20
0.713384
  0
VERTEX
  8
LAYER01
 10
-2.13537
 20
0.747979
  0
VERTEX
  8
LAYER01
 10
-2.013535
 20
0.770541
  0
VERTEX
  8
LAYER01
 10
-1.945849
 20
0.772045
  0
VERTEX
  8
LAYER01
 10
-1.894708
 20
0.761516
  0
VERTEX
  8
LAYER01
 10
-1.872146
 20
0.735946
  0
SEQEND
  8
LAYER01
  0
POLYLINE
  8
LAYER01
  6
CONTINUOUS
 62
     5
 66
     1
  0
VERTEX
  8
LAYER01
 10
-1.882294
 20
0.95043
  0
VERTEX
  8
LAYER01
 10
-1.773748
 20
0.94603
  0
VERTEX
  8
LAYER01
 10
-1.467179
 20
0.951897
  0
VERTEX
  8
LAYER01
 10
-1.153275
 20
0.957765
  0
SEQEND
  8
LAYER01
  0
POLYLINE
  8
LAYER01
  6
CONTINUOUS
 62
     5
 66
     1
  0
VERTEX
  8
LAYER01
 10
-1.082329
 20
0.560871
  0
VERTEX
  8
LAYER01
 10
-1.318737
 20
0.582514
  0
VERTEX
  8
LAYER01
 10
-1.333043
 20
0.584442
  0
SEQEND
  8
LAYER01
  0
POLYLINE
  8
LAYER01
  6
CONTINUOUS
 62
     5
 66
     1
  0
VERTEX
  8
LAYER01
 10
-1.187638
 20
0.769914
  0
VERTEX
  8
LAYER01
 10
-1.235495
 20
0.762317
  0
VERTEX
  8
LAYER01
 10
-1.260467
 20
0.702383
  0
VERTEX
  8
LAYER01
 10
-1.232165
 20
0.664092
  0
SEQEND
  8
LAYER01
  0
POLYLINE
  8
LAYER01
  6
CONTINUOUS
 62
     5
 66
     1
  0
VERTEX
  8
LAYER01
 10
-1.236069
 20
0.649682
  0
VERTEX
  8
LAYER01
 10
-1.258802
 20
0.672416
  0
VERTEX
  8
LAYER01
 10
-1.277116
 20
0.700718
  0
VERTEX
  8
LAYER01
 10
-1.248813
 20
0.777301
  0
VERTEX
  8
LAYER01
 10
-1.19015
 20
0.784994
  0
SEQEND
  8
LAYER01
  0
POLYLINE
  8
LAYER01
  6
CONTINUOUS
 62
     5
 66
     1
  0
VERTEX
  8
LAYER01
 10
-1.010278
 20
0.856236
  0
VERTEX
  8
LAYER01
 10
-1.228084
 20
0.852152
  0
VERTEX
  8
LAYER01
 10
-1.393837
 20
0.840417
  0
VERTEX
  8
LAYER01
 10
-1.615329
 20
0.822815
  0
VERTEX
  8
LAYER01
 10
-1.889628
 20
0.827216
  0
VERTEX
  8
LAYER01
 10
-2.001108
 20
0.825749
  0
SEQEND
  8
LAYER01
  0
LINE
  8
LAYER01
  6
CONTINUOUS
 62
     5
 10
-1.08825
 20
0.619885
 11
-1.236705
 21
0.649709
  0
LINE
  8
LAYER01
  6
CONTINUOUS
 62
     5
 10
-1.159164
 20
0.648383
 11
-1.232065
 21
0.663626
  0
LINE
  8
LAYER01
  6
CONTINUOUS
 62
     5
 10
-1.186999
 20
0.770328
 11
-1.130003
 21
0.778281
  0
LINE
  8
LAYER01
  6
CONTINUOUS
 62
     5
 10
-1.18965
 20
0.784908
 11
-1.147897
 21
0.791536
  0
LINE
  8
LAYER01
  6
CONTINUOUS
 62
     5
 10
-1.012035
 20
0.856485
 11
-0.99149
 21
0.855822
  0
LINE
  8
LAYER01
  6
CONTINUOUS
 62
     5
 10
-1.882654
 20
0.950721
 11
-1.890558
 21
0.950721
  0
POLYLINE
  8
LAYER01
  6
CONTINUOUS
 62
     5
 66
     1
  0
VERTEX
  8
LAYER01
 10
-2.135755
 20
0.841925
  0
VERTEX
  8
LAYER01
 10
-2.168669
 20
0.821354
  0
SEQEND
  8
LAYER01
  0
LINE
  8
LAYER01
  6
CONTINUOUS
 62
     5
 10
-1.866846
 20
0.730728
 11
-1.872115
 21
0.735338
  0
LINE
  8
LAYER01
  6
CONTINUOUS
 62
     5
 10
-2.142167
 20
0.876292
 11
-2.115162
 21
0.885514
  0
LINE
  8
LAYER01
  6
CONTINUOUS
 62
     5
 10
-2.134263
 20
0.8427
 11
-2.09672
 21
0.866412
  0
POLYLINE
  8
LAYER01
  6
CONTINUOUS
 62
     5
 66
     1
  0
VERTEX
  8
LAYER01
 10
-1.364181
 20
0.630563
  0
VERTEX
  8
LAYER01
 10
-1.866159
 20
0.730404
  0
VERTEX
  8
LAYER01
 10
-1.898429
 20
0.6908
  0
VERTEX
  8
LAYER01
 10
-1.951236
 20
0.61159
  0
VERTEX
  8
LAYER01
 10
-1.999641
 20
0.533848
  0
VERTEX
  8
LAYER01
 10
-2.033379
 20
0.441437
  0
VERTEX
  8
LAYER01
 10
-2.061249
 20
0.327023
  0
VERTEX
  8
LAYER01
 10
-2.081785
 20
0.115798
  0
VERTEX
  8
LAYER01
 10
-2.089119
 20
-0.01035
  0
SEQEND
  8
LAYER01
  0
POLYLINE
  8
LAYER01
  6
CONTINUOUS
 62
     5
 66
     1
  0
VERTEX
  8
LAYER01
 10
-1.336995
 20
0.585515
  0
VERTEX
  8
LAYER01
 10
-1.338176
 20
0.600637
  0
VERTEX
  8
LAYER01
 10
-1.342666
 20
0.614578
  0
VERTEX
  8
LAYER01
 10
-1.354007
 20
0.624974
  0
VERTEX
  8
LAYER01
 10
-1.363931
 20
0.630645
  0
SEQEND
  8
LAYER01
  0
POLYLINE
  8
LAYER01
  6
CONTINUOUS
 62
     5
 66
     1
  0
VERTEX
  8
LAYER01
 10
-1.375998
 20
-0.000223
  0
VERTEX
  8
LAYER01
 10
-1.358693
 20
-0.319572
  0
VERTEX
  8
LAYER01
 10
-1.33705
 20
-0.590942
  0
SEQEND
  8
LAYER01
  0
POLYLINE
  8
LAYER01
  6
CONTINUOUS
 62
     5
 66
     1
  0
VERTEX
  8
LAYER01
 10
-2.141938
 20
0.875634
  0
VERTEX
  8
LAYER01
 10
-2.228235
 20
0.844129
  0
VERTEX
  8
LAYER01
 10
-2.303569
 20
0.798578
  0
VERTEX
  8
LAYER01
 10
-2.352623
 20
0.747772
  0
VERTEX
  8
LAYER01
 10
-2.406934
 20
0.647911
  0
VERTEX
  8
LAYER01
 10
-2.45774
 20
0.514763
  0
VERTEX
  8
LAYER01
 10
-2.482268
 20
0.390374
  0
VERTEX
  8
LAYER01
 10
-2.499787
 20
0.255474
  0
VERTEX
  8
LAYER01
 10
-2.511121
 20
-0.003593
  0
SEQEND
  8
LAYER01
  0
POLYLINE
  8
LAYER01
  6
CONTINUOUS
 62
     5
 66
     1
  0
VERTEX
  8
LAYER01
 10
-2.141938
 20
-0.880732
  0
VERTEX
  8
LAYER01
 10
-2.228235
 20
-0.849227
  0
VERTEX
  8
LAYER01
 10
-2.303569
 20
-0.803676
  0
VERTEX
  8
LAYER01
 10
-2.352623
 20
-0.75287
  0
VERTEX
  8
LAYER01
 10
-2.406934
 20
-0.653009
  0
VERTEX
  8
LAYER01
 10
-2.45774
 20
-0.519861
  0
VERTEX
  8
LAYER01
 10
-2.482268
 20
-0.395472
  0
VERTEX
  8
LAYER01
 10
-2.499787
 20
-0.260572
  0
VERTEX
  8
LAYER01
 10
-2.511162
 20
-0.000579
  0
SEQEND
  8
LAYER01
  0
POLYLINE
  8
LAYER01
  6
CONTINUOUS
 62
     5
 66
     1
  0
VERTEX
  8
LAYER01
 10
-2.492679
 20
-0.004092
  0
VERTEX
  8
LAYER01
 10
-2.479818
 20
0.253117
  0
VERTEX
  8
LAYER01
 10
-2.463273
 20
0.394506
  0
VERTEX
  8
LAYER01
 10
-2.428678
 20
0.511829
  0
VERTEX
  8
LAYER01
 10
-2.364
 20
0.633665
  0
VERTEX
  8
LAYER01
 10
-2.297817
 20
0.72993
  0
VERTEX
  8
LAYER01
 10
-2.239156
 20
0.785583
  0
VERTEX
  8
LAYER01
 10
-2.166957
 20
0.821682
  0
VERTEX
  8
LAYER01
 10
-2.021056
 20
0.853269
  0
VERTEX
  8
LAYER01
 10
-2.006014
 20
0.829203
  0
VERTEX
  8
LAYER01
 10
-2.070692
 20
0.785583
  0
VERTEX
  8
LAYER01
 10
-2.186511
 20
0.704359
  0
VERTEX
  8
LAYER01
 10
-2.293305
 20
0.617119
  0
VERTEX
  8
LAYER01
 10
-2.356479
 20
0.520854
  0
VERTEX
  8
LAYER01
 10
-2.395586
 20
0.451664
  0
VERTEX
  8
LAYER01
 10
-2.413636
 20
0.532887
  0
SEQEND
  8
LAYER01
  0
POLYLINE
  8
LAYER01
  6
CONTINUOUS
 62
     5
 66
     1
  0
VERTEX
  8
LAYER01
 10
-2.49267
 20
-0.001181
  0
VERTEX
  8
LAYER01
 10
-2.479818
 20
-0.258215
  0
VERTEX
  8
LAYER01
 10
-2.463273
 20
-0.399604
  0
VERTEX
  8
LAYER01
 10
-2.428678
 20
-0.516927
  0
VERTEX
  8
LAYER01
 10
-2.364
 20
-0.638762
  0
VERTEX
  8
LAYER01
 10
-2.297817
 20
-0.735027
  0
VERTEX
  8
LAYER01
 10
-2.239156
 20
-0.790681
  0
VERTEX
  8
LAYER01
 10
-2.166957
 20
-0.82678
  0
VERTEX
  8
LAYER01
 10
-2.021056
 20
-0.858367
  0
VERTEX
  8
LAYER01
 10
-2.006014
 20
-0.834301
  0
VERTEX
  8
LAYER01
 10
-2.070692
 20
-0.790681
  0
VERTEX
  8
LAYER01
 10
-2.186511
 20
-0.709457
  0
VERTEX
  8
LAYER01
 10
-2.293305
 20
-0.622217
  0
VERTEX
  8
LAYER01
 10
-2.356479
 20
-0.525952
  0
VERTEX
  8
LAYER01
 10
-2.395586
 20
-0.456762
  0
VERTEX
  8
LAYER01
 10
-2.413636
 20
-0.537985
  0
SEQEND
  8
LAYER01
  0
POLYLINE
  8
LAYER01
  6
CONTINUOUS
 62
     5
 66
     1
  0
VERTEX
  8
LAYER01
 10
-2.454645
 20
-0.00257
  0
VERTEX
  8
LAYER01
 10
-2.438469
 20
-0.250061
  0
VERTEX
  8
LAYER01
 10
-2.424453
 20
-0.360433
  0
VERTEX
  8
LAYER01
 10
-2.401678
 20
-0.446279
  0
SEQEND
  8
LAYER01
  0
POLYLINE
  8
LAYER01
  6
CONTINUOUS
 62
     5
 66
     1
  0
VERTEX
  8
LAYER01
 10
-2.454749
 20
-0.004117
  0
VERTEX
  8
LAYER01
 10
-2.438469
 20
0.244963
  0
VERTEX
  8
LAYER01
 10
-2.424453
 20
0.355335
  0
VERTEX
  8
LAYER01
 10
-2.401678
 20
0.441181
  0
SEQEND
  8
LAYER01
  0
POLYLINE
  8
LAYER01
  6
CONTINUOUS
 62
     5
 66
     1
  0
VERTEX
  8
LAYER01
 10
-2.429563
 20
-0.001739
  0
VERTEX
  8
LAYER01
 10
-2.419197
 20
-0.176479
  0
VERTEX
  8
LAYER01
 10
-2.39467
 20
-0.372697
  0
VERTEX
  8
LAYER01
 10
-2.356127
 20
-0.48307
  0
VERTEX
  8
LAYER01
 10
-2.291305
 20
-0.59169
  0
VERTEX
  8
LAYER01
 10
-2.191444
 20
-0.675784
  0
VERTEX
  8
LAYER01
 10
-2.102095
 20
-0.742358
  0
VERTEX
  8
LAYER01
 10
-2.14239
 20
-0.679288
  0
VERTEX
  8
LAYER01
 10
-2.245755
 20
-0.586435
  0
VERTEX
  8
LAYER01
 10
-2.310577
 20
-0.495333
  0
VERTEX
  8
LAYER01
 10
-2.364887
 20
-0.341162
  0
VERTEX
  8
LAYER01
 10
-2.391166
 20
-0.158959
  0
VERTEX
  8
LAYER01
 10
-2.403828
 20
-0.002266
  0
SEQEND
  8
LAYER01
  0
POLYLINE
  8
LAYER01
  6
CONTINUOUS
 62
     5
 66
     1
  0
VERTEX
  8
LAYER01
 10
-2.429591
 20
-0.003822
  0
VERTEX
  8
LAYER01
 10
-2.419197
 20
0.171381
  0
VERTEX
  8
LAYER01
 10
-2.39467
 20
0.367599
  0
VERTEX
  8
LAYER01
 10
-2.356127
 20
0.477972
  0
VERTEX
  8
LAYER01
 10
-2.291305
 20
0.586593
  0
VERTEX
  8
LAYER01
 10
-2.191444
 20
0.670686
  0
VERTEX
  8
LAYER01
 10
-2.102095
 20
0.73726
  0
VERTEX
  8
LAYER01
 10
-2.14239
 20
0.67419
  0
VERTEX
  8
LAYER01
 10
-2.245755
 20
0.581337
  0
VERTEX
  8
LAYER01
 10
-2.310577
 20
0.490235
  0
VERTEX
  8
LAYER01
 10
-2.364887
 20
0.336064
  0
VERTEX
  8
LAYER01
 10
-2.391166
 20
0.153861
  0
VERTEX
  8
LAYER01
 10
-2.403819
 20
-0.00272
  0
SEQEND
  8
LAYER01
  0
LINE
  8
LAYER01
  6
CONTINUOUS
 62
     5
 10
-2.338882
 20
-0.002846
 11
-2.598112
 21
-0.002846
  0
POLYLINE
  8
LAYER01
  6
CONTINUOUS
 62
     5
 66
     1
  0
VERTEX
  8
LAYER01
 10
-1.375975
 20
-0.004457
  0
VERTEX
  8
LAYER01
 10
-1.358693
 20
0.314474
  0
VERTEX
  8
LAYER01
 10
-1.33705
 20
0.585844
  0
SEQEND
  8
LAYER01
  0
ENDBLK
  8
0
  0
ENDSEC
  0
SECTION
  2
ENTITIES
  0
INSERT
  8
LAYER01
  2
SKETCH-G1
 10
0.0
 20
0.0
  0
ENDSEC
  0
EOF
